  0
SECTION
  2
HEADER
  9
$ACADVER
  1
AC1012
  9
$DWGCODEPAGE
  3
dos932
  9
$INSBASE
 10
0.0
 20
0.0
 30
0.0
  9
$EXTMIN
 10
-399.52490234375
 20
-276.5
 30
0.0
  9
$EXTMAX
 10
403.0569545343663
 20
276.5
 30
0.0
  9
$LIMMIN
 10
-399.52490234375
 20
-276.5
  9
$LIMMAX
 10
403.0569545343663
 20
276.5
  9
$ORTHOMODE
 70
               0
  9
$REGENMODE
 70
               1
  9
$FILLMODE
 70
               1
  9
$QTEXTMODE
 70
               0
  9
$MIRRTEXT
 70
               1
  9
$DRAGMODE
 70
               2
  9
$LTSCALE
 40
1.0
  9
$OSMODE
 70
               0
  9
$ATTMODE
 70
               1
  9
$TEXTSIZE
 40
3.2000000476837158
  9
$TRACEWID
 40
0.05
  9
$TEXTSTYLE
  7
MX_NOTE_STANDARD
  9
$CLAYER
  8
0
  9
$CELTYPE
  6
CONTINUOUS
  9
$CECOLOR
 62
             256
  9
$CELTSCALE
 40
1.0
  9
$DELOBJ
 70
               1
  9
$DISPSILH
 70
               0
  9
$DIMSCALE
 40
1.0
  9
$DIMASZ
 40
2.5
  9
$DIMEXO
 40
1.5
  9
$DIMDLI
 40
3.75
  9
$DIMRND
 40
0.0
  9
$DIMDLE
 40
0.0
  9
$DIMEXE
 40
1.5
  9
$DIMTP
 40
0.0
  9
$DIMTM
 40
0.0
  9
$DIMTXT
 40
3.2000000476837158
  9
$DIMCEN
 40
2.5
  9
$DIMTSZ
 40
0.0
  9
$DIMTOL
 70
               0
  9
$DIMLIM
 70
               0
  9
$DIMTIH
 70
               0
  9
$DIMTOH
 70
               0
  9
$DIMSE1
 70
               0
  9
$DIMSE2
 70
               0
  9
$DIMTAD
 70
               1
  9
$DIMZIN
 70
               8
  9
$DIMBLK
  1

  9
$DIMASO
 70
               1
  9
$DIMSHO
 70
               1
  9
$DIMPOST
  1

  9
$DIMAPOST
  1

  9
$DIMALT
 70
               0
  9
$DIMALTD
 70
               4
  9
$DIMALTF
 40
0.03937007874016
  9
$DIMLFAC
 40
1.0
  9
$DIMTOFL
 70
               1
  9
$DIMTVP
 40
0.0
  9
$DIMTIX
 70
               0
  9
$DIMSOXD
 70
               0
  9
$DIMSAH
 70
               0
  9
$DIMBLK1
  1

  9
$DIMBLK2
  1

  9
$DIMSTYLE
  2
MXDIMSTYLE
  9
$DIMCLRD
 70
               0
  9
$DIMCLRE
 70
               0
  9
$DIMCLRT
 70
               0
  9
$DIMTFAC
 40
1.0
  9
$DIMGAP
 40
1.0
  9
$DIMJUST
 70
               0
  9
$DIMSD1
 70
               0
  9
$DIMSD2
 70
               0
  9
$DIMTOLJ
 70
               1
  9
$DIMTZIN
 70
               0
  9
$DIMALTZ
 70
               0
  9
$DIMALTTZ
 70
               0
  9
$DIMFIT
 70
               3
  9
$DIMUPT
 70
               1
  9
$DIMUNIT
 70
               2
  9
$DIMDEC
 70
               4
  9
$DIMTDEC
 70
               4
  9
$DIMALTU
 70
               2
  9
$DIMALTTD
 70
               4
  9
$DIMTXSTY
  7
MX_NOTE_STANDARD
  9
$DIMAUNIT
 70
               0
  9
$LUNITS
 70
               2
  9
$LUPREC
 70
               4
  9
$SKETCHINC
 40
0.1
  9
$FILLETRAD
 40
0.0
  9
$AUNITS
 70
               0
  9
$AUPREC
 70
               0
  9
$MENU
  1
acad
  9
$ELEVATION
 40
0.0
  9
$PELEVATION
 40
0.0
  9
$THICKNESS
 40
0.0
  9
$LIMCHECK
 70
               0
  9
$BLIPMODE
 70
               1
  9
$CHAMFERA
 40
0.0
  9
$CHAMFERB
 40
0.0
  9
$CHAMFERC
 40
0.0
  9
$CHAMFERD
 40
0.0
  9
$SKPOLY
 70
               0
  9
$TDCREATE
 40
2453378.356770834
  9
$TDUPDATE
 40
2453378.356770834
  9
$TDINDWG
 40
0.0000000000
  9
$TDUSRTIMER
 40
0.0000000000
  9
$USRTIMER
 70
               1
  9
$ANGBASE
 50
0.0
  9
$ANGDIR
 70
               0
  9
$PDMODE
 70
               0
  9
$PDSIZE
 40
0.0
  9
$PLINEWID
 40
0.0
  9
$COORDS
 70
               1
  9
$SPLFRAME
 70
               0
  9
$SPLINETYPE
 70
               6
  9
$SPLINESEGS
 70
               8
  9
$ATTDIA
 70
               0
  9
$ATTREQ
 70
               1
  9
$HANDLING
 70
               1
  9
$HANDSEED
  5
668
  9
$SURFTAB1
 70
               6
  9
$SURFTAB2
 70
               6
  9
$SURFTYPE
 70
               6
  9
$SURFU
 70
               6
  9
$SURFV
 70
               6
  9
$UCSNAME
  2

  9
$UCSORG
 10
0.0
 20
0.0
 30
0.0
  9
$UCSXDIR
 10
1.0
 20
0.0
 30
0.0
  9
$UCSYDIR
 10
0.0
 20
1.0
 30
0.0
  9
$PUCSNAME
  2

  9
$PUCSORG
 10
0.0
 20
0.0
 30
0.0
  9
$PUCSXDIR
 10
1.0
 20
0.0
 30
0.0
  9
$PUCSYDIR
 10
0.0
 20
1.0
 30
0.0
  9
$USERI1
 70
               0
  9
$USERI2
 70
               0
  9
$USERI3
 70
               0
  9
$USERI4
 70
               0
  9
$USERI5
 70
               0
  9
$USERR1
 40
0.0
  9
$USERR2
 40
0.0
  9
$USERR3
 40
0.0
  9
$USERR4
 40
0.0
  9
$USERR5
 40
0.0
  9
$WORLDVIEW
 70
               1
  9
$SHADEDGE
 70
               3
  9
$SHADEDIF
 70
              70
  9
$TILEMODE
 70
               1
  9
$MAXACTVP
 70
              16
  9
$PINSBASE
 10
0.0
 20
0.0
 30
0.0
  9
$PLIMCHECK
 70
               0
  9
$PEXTMIN
 10
1.0000000000000000E+20
 20
1.0000000000000000E+20
 30
1.0000000000000000E+20
  9
$PEXTMAX
 10
-1.0000000000000000E+20
 20
-1.0000000000000000E+20
 30
-1.0000000000000000E+20
  9
$PLIMMIN
 10
0.0
 20
0.0
  9
$PLIMMAX
 10
12.0
 20
9.0
  9
$UNITMODE
 70
               0
  9
$VISRETAIN
 70
               0
  9
$PLINEGEN
 70
               1
  9
$PSLTSCALE
 70
               0
  9
$TREEDEPTH
 70
            3020
  9
$PICKSTYLE
 70
               1
  9
$CMLSTYLE
  2
Standard
  9
$CMLJUST
 70
               0
  9
$CMLSCALE
 40
1.0
  9
$SAVEIMAGES
 70
               0
  0
ENDSEC
  0
SECTION
  2
CLASSES
  0
CLASS
  1
LWPOLYLINE
  2
AcDbPolyline
  3
"AutoCAD"
 90
        0
280
               0
281
               1
  0
CLASS
  1
IMAGE
  2
AcDbRasterImage
  3
ISM
 90
      127
280
               0
281
               1
  0
CLASS
  1
OLE2FRAME
  2
AcDbOle2Frame
  3
""
 90
        0
280
               0
281
               1
  0
CLASS
  1
HATCH
  2
AcDbHatch
  3
"ACAD_SEDONA"
 90
        0
280
               0
281
               1
  0
CLASS
  1
DICTIONARYVAR
  2
AcDbDictionaryVar
  3
"AutoCAD"
 90
        0
280
               0
281
               0
  0
CLASS
  1
RASTERVARIABLES
  2
AcDbRasterVariables
  3
ISM
 90
        0
280
               0
281
               0
  0
CLASS
  1
IMAGEDEF
  2
AcDbRasterImageDef
  3
ISM
 90
        0
280
               0
281
               0
  0
CLASS
  1
IMAGEDEF_REACTOR
  2
AcDbRasterImageDefReactor
  3
ISM
 90
        1
280
               0
281
               0
  0
CLASS
  1
IDBUFFER
  2
AcDbIdBuffer
  3
"Acad"
 90
        0
280
               0
281
               0
  0
CLASS
  1
SPATIAL_FILTER
  2
AcDbSpatialFilter
  3
"Acad"
 90
        0
280
               0
281
               0
  0
CLASS
  1
XRECORD
  2
AcDbXrecord
  3
"<Built In>"
 90
        0
280
               0
281
               0
  0
CLASS
  1
SORTENTSTABLE
  2
AcDbSortentsTable
  3
"AutoCAD"
 90
        0
280
               0
281
               0
  0
CLASS
  1
LAYER_INDEX
  2
AcDbLayerIndex
  3
"Acad"
 90
        0
280
               0
281
               0
  0
CLASS
  1
SPATIAL_INDEX
  2
AcDbSpatialIndex
  3
"Acad"
 90
        0
280
               0
281
               0
  0
CLASS
  1
OBJECT_PTR
  2
CAseDLPNTableRecord
  3
"ASE-LPNTableRecord"
 90
        1
280
               0
281
               0
  0
CLASS
  1
LAYOUT
  2
AcDbLayout
  3
"AutoCAD 2000"
 90
        1
280
               0
281
               0
  0
CLASS
  1
PLOTSETTINGS
  2
AcDbPlotSettings
  3
"AutoCAD 2000"
 90
        1
280
               0
281
               0
  0
CLASS
  1
ACDBDICTIONARYWDFLT
  2
AcDbDictionaryWithDefault
  3
"AutoCAD 2000"
 90
        1
280
               0
281
               0
  0
CLASS
  1
ACDBPLACEHOLDER
  2
AcDbPlaceHolder
  3
"AutoCAD 2000"
 90
        1
280
               0
281
               0
  0
ENDSEC
  0
SECTION
  2
TABLES
  0
TABLE
  2
VPORT
  5
7
100
AcDbSymbolTable
 70
               1
  0
VPORT
  5
15
100
AcDbSymbolTableRecord
100
AcDbViewportTableRecord
  2
*ACTIVE
 70
               0
 10
0.0
 20
0.0
 11
1.0
 21
1.0
 12
1.7660260953081206
 22
0.0
 13
0.0
 23
0.0
 14
1.0
 24
1.0
 15
0.0
 25
0.0
 16
0.0
 26
0.0
 36
1.0
 17
0.0
 27
0.0
 37
0.0
 40
558.52999999999997
 41
1.7320508075688772
 42
50.0
 43
0.0
 44
0.0
 50
0.0
 51
0.0
 71
               0
 72
             100
 73
               1
 74
               1
 75
               0
 76
               0
 77
               0
 78
               0
  0
ENDTAB
  0
TABLE
  2
LTYPE
  5
4
100
AcDbSymbolTable
 70
               6
  0
LTYPE
  5
11
100
AcDbSymbolTableRecord
100
AcDbLinetypeTableRecord
  2
BYBLOCK
 70
              64
  3

 72
              65
 73
               0
 40
0.0
  0
LTYPE
  5
12
100
AcDbSymbolTableRecord
100
AcDbLinetypeTableRecord
  2
BYLAYER
 70
              64
  3

 72
              65
 73
               0
 40
0.0
  0
LTYPE
  5
13
100
AcDbSymbolTableRecord
100
AcDbLinetypeTableRecord
  2
CONTINUOUS
 70
              64
  3
Solid line
 72
              65
 73
               0
 40
0.0
  0
LTYPE
  5
2F
100
AcDbSymbolTableRecord
100
AcDbLinetypeTableRecord
  2
CENTER
 70
              64
  3
Center ____ _ ____ _ ____ _ ____ _ ____ _ ____
 72
              65
 73
               4
 40
26.0
 49
20.0
 74
               0
 49
-2.0
 74
               0
 49
2.0
 74
               0
 49
-2.0
 74
               0
  0
LTYPE
  5
C1
100
AcDbSymbolTableRecord
100
AcDbLinetypeTableRecord
  2
DASHED
 70
              64
  3
Dashed __ __ __ __ __ __ __ __ __ __ __ __ __ _
 72
              65
 73
               2
 40
4.0
 49
2.0
 74
               0
 49
-2.0
 74
               0
  0
LTYPE
  5
33D
100
AcDbSymbolTableRecord
100
AcDbLinetypeTableRecord
  2
PHANTOM
 70
              64
  3
Phantom ______  __  __  ______  __  __  ______
 72
              65
 73
               6
 40
30.0
 49
20.0
 74
               0
 49
-2.0
 74
               0
 49
2.0
 74
               0
 49
-2.0
 74
               0
 49
2.0
 74
               0
 49
-2.0
 74
               0
  0
ENDTAB
  0
TABLE
  2
LAYER
  5
2
100
AcDbSymbolTable
 70
               2
  0
LAYER
  5
14
100
AcDbSymbolTableRecord
100
AcDbLayerTableRecord
  2
0
 70
               0
 62
               7
  6
CONTINUOUS
  0
LAYER
  5
1D
100
AcDbSymbolTableRecord
100
AcDbLayerTableRecord
  2
DEFPOINTS
 70
               0
 62
               7
  6
CONTINUOUS
  0
ENDTAB
  0
TABLE
  2
STYLE
  5
3
100
AcDbSymbolTable
 70
               1
  0
STYLE
  5
17
100
AcDbSymbolTableRecord
100
AcDbTextStyleTableRecord
  2
MX_NOTE_STANDARD
 70
               0
 40
0.0
 41
1.0
 50
0.0
 71
               0
 42
3.2000000476837158
  3
txt.shx
  4
extfont.shx
  0
ENDTAB
  0
TABLE
  2
VIEW
  5
5
100
AcDbSymbolTable
 70
               0
  0
ENDTAB
  0
TABLE
  2
UCS
  5
6
100
AcDbSymbolTable
 70
               0
  0
ENDTAB
  0
TABLE
  2
APPID
  5
8
100
AcDbSymbolTable
 70
               1
  0
APPID
  5
16
100
AcDbSymbolTableRecord
100
AcDbRegAppTableRecord
  2
ACAD
 70
               0
  0
ENDTAB
  0
TABLE
  2
DIMSTYLE
  5
9
100
AcDbSymbolTable
 70
               1
  0
DIMSTYLE
105
18
100
AcDbSymbolTableRecord
100
AcDbDimStyleTableRecord
  2
MXDIMSTYLE
 70
               0
  3

  4

  5

  6

  7

 40
1.0
 41
2.5
 42
1.5
 43
3.75
 44
1.5
 45
0.0
 46
0.0
 47
0.0
 48
0.0
 71
               0
 72
               0
 73
               0
 74
               0
 75
               0
 76
               0
 77
               1
 78
               8
140
3.2000000476837158
141
2.5
142
0.0
143
0.03937007874016
144
1.0
145
0.0
146
1.0
147
1.0
170
               0
171
               4
172
               1
173
               0
174
               0
175
               0
176
               0
177
               0
178
               0
270
               2
271
               4
272
               4
273
               2
274
               4
275
               0
280
               0
281
               0
282
               0
283
               1
284
               0
285
               0
286
               0
287
               3
288
               1
340
17
  0
ENDTAB
  0
TABLE
  2
BLOCK_RECORD
  5
1
100
AcDbSymbolTable
 70
              15
  0
BLOCK_RECORD
  5
A
100
AcDbSymbolTableRecord
100
AcDbBlockTableRecord
  2
*MODEL_SPACE
  0
BLOCK_RECORD
  5
B
100
AcDbSymbolTableRecord
100
AcDbBlockTableRecord
  2
*PAPER_SPACE
  0
BLOCK_RECORD
  5
1E
100
AcDbSymbolTableRecord
100
AcDbBlockTableRecord
  2
PA24A6-1
  0
BLOCK_RECORD
  5
1F
100
AcDbSymbolTableRecord
100
AcDbBlockTableRecord
  2
PA24A6-2
  0
BLOCK_RECORD
  5
20
100
AcDbSymbolTableRecord
100
AcDbBlockTableRecord
  2
PA24A6-3
  0
BLOCK_RECORD
  5
21
100
AcDbSymbolTableRecord
100
AcDbBlockTableRecord
  2
PA24A6-4
  0
BLOCK_RECORD
  5
22
100
AcDbSymbolTableRecord
100
AcDbBlockTableRecord
  2
PA24A6-5
  0
BLOCK_RECORD
  5
23
100
AcDbSymbolTableRecord
100
AcDbBlockTableRecord
  2
PA24A6-6
  0
BLOCK_RECORD
  5
24
100
AcDbSymbolTableRecord
100
AcDbBlockTableRecord
  2
PA24A6-7
  0
BLOCK_RECORD
  5
25
100
AcDbSymbolTableRecord
100
AcDbBlockTableRecord
  2
PA24A6-8
  0
BLOCK_RECORD
  5
26
100
AcDbSymbolTableRecord
100
AcDbBlockTableRecord
  2
PA24A6-9
  0
BLOCK_RECORD
  5
27
100
AcDbSymbolTableRecord
100
AcDbBlockTableRecord
  2
PA24A6-10
  0
BLOCK_RECORD
  5
28
100
AcDbSymbolTableRecord
100
AcDbBlockTableRecord
  2
PA24A6-11
  0
BLOCK_RECORD
  5
29
100
AcDbSymbolTableRecord
100
AcDbBlockTableRecord
  2
PA24A6-12
  0
BLOCK_RECORD
  5
2A
100
AcDbSymbolTableRecord
100
AcDbBlockTableRecord
  2
PA24A6-13
  0
BLOCK_RECORD
  5
2B
100
AcDbSymbolTableRecord
100
AcDbBlockTableRecord
  2
PA24A6-14
  0
BLOCK_RECORD
  5
65C
100
AcDbSymbolTableRecord
100
AcDbBlockTableRecord
  2
_OPEN30
  0
ENDTAB
  0
ENDSEC
  0
SECTION
  2
BLOCKS
  0
BLOCK
  5
D
100
AcDbEntity
  8
0
100
AcDbBlockBegin
  2
*MODEL_SPACE
 70
               0
 10
0.0
 20
0.0
 30
0.0
  3
*MODEL_SPACE
  1

  0
ENDBLK
  5
E
100
AcDbEntity
  8
0
100
AcDbBlockEnd
  0
BLOCK
  5
F
100
AcDbEntity
 67
               1
  8
0
100
AcDbBlockBegin
  2
*PAPER_SPACE
 70
               0
 10
0.0
 20
0.0
 30
0.0
  3
*PAPER_SPACE
  1

  0
ENDBLK
  5
10
100
AcDbEntity
 67
               1
  8
0
100
AcDbBlockEnd
  0
BLOCK
  5
2C
100
AcDbEntity
  8
0
100
AcDbBlockBegin
  2
PA24A6-1
 70
               0
 10
0.0
 20
0.0
 30
0.0
  3
PA24A6-1
  1

  0
LINE
  5
2D
100
AcDbEntity
  8
0
  6
CONTINUOUS
 62
               7
100
AcDbLine
 10
25.800000000001319
 20
53.999999999999602
 30
0.0
 11
28.400000000000261
 21
53.999999999999602
 31
0.0
  0
LINE
  5
2E
100
AcDbEntity
  8
0
  6
CONTINUOUS
 62
               7
100
AcDbLine
 10
25.800000000001489
 20
61.999999999999602
 30
0.0
 11
28.400000000000603
 21
61.999999999999602
 31
0.0
  0
LINE
  5
30
100
AcDbEntity
  8
0
  6
CENTER
 62
               2
100
AcDbLine
 10
12.609427912452816
 20
1.0000002384188633
 30
0.0
 11
1.836389519382351
 21
1.0000002384193181
 31
0.0
  0
LINE
  5
31
100
AcDbEntity
  8
0
  6
CENTER
 62
               2
100
AcDbLine
 10
7.1999999999993634
 20
6.7040879469083166
 30
0.0
 11
7.1999999999989086
 21
-4.9844545360092525
 31
0.0
  0
ARC
  5
32
100
AcDbEntity
  8
0
  6
CONTINUOUS
 62
               7
100
AcDbCircle
 10
7.199999999999136
 20
1.0000002384190907
 30
0.0
 40
4.0000000000000018
100
AcDbArc
 50
269.99999999999937
 51
0.0
  0
ARC
  5
33
100
AcDbEntity
  8
0
  6
CONTINUOUS
 62
               7
100
AcDbCircle
 10
7.199999999999136
 20
1.000000119209858
 30
0.0
 40
4.0
100
AcDbArc
 50
0.0
 51
89.999999999999815
  0
LINE
  5
34
100
AcDbEntity
  8
0
  6
CONTINUOUS
 62
               7
100
AcDbLine
 10
8.7000003998612101
 20
1.8660253802557918
 30
0.0
 11
7.2000002472294682
 21
2.7320507248630292
 31
0.0
  0
LINE
  5
35
100
AcDbEntity
  8
0
  6
CONTINUOUS
 62
               7
100
AcDbLine
 10
8.699999999999136
 20
1.8660258054737824
 30
0.0
 11
8.699999999999136
 21
0.1339744329457062
 31
0.0
  0
LINE
  5
36
100
AcDbEntity
  8
0
  6
CONTINUOUS
 62
               7
100
AcDbLine
 10
8.7000003998612101
 20
0.1339748581636968
 30
0.0
 11
7.2000002472292408
 21
-0.732050486443427
 31
0.0
  0
LINE
  5
37
100
AcDbEntity
  8
0
  6
CONTINUOUS
 62
               7
100
AcDbLine
 10
7.2000006425589618
 20
-0.7320498989557791
 30
0.0
 11
5.7000004899272199
 21
0.133975445651572
 31
0.0
  0
CIRCLE
  5
38
100
AcDbEntity
  8
0
  6
CONTINUOUS
 62
               7
100
AcDbCircle
 10
7.199999999999136
 20
1.0000002384190907
 30
0.0
 40
2.9803848266601563
  0
CIRCLE
  5
39
100
AcDbEntity
  8
0
  6
CONTINUOUS
 62
               7
100
AcDbCircle
 10
7.199999999999136
 20
1.0000001192098011
 30
0.0
 40
3.5
  0
LINE
  5
3A
100
AcDbEntity
  8
0
  6
CONTINUOUS
 62
               7
100
AcDbLine
 10
7.2000006425591891
 20
2.7320501373753814
 30
0.0
 11
5.7000004899273335
 21
1.8660247927682576
 31
0.0
  0
LINE
  5
3B
100
AcDbEntity
  8
0
  6
CONTINUOUS
 62
               7
100
AcDbLine
 10
5.699999999999136
 20
1.866025507450729
 30
0.0
 11
5.699999999999136
 21
0.1339747309691006
 31
0.0
  0
LINE
  5
3C
100
AcDbEntity
  8
0
  6
CONTINUOUS
 62
               7
100
AcDbLine
 10
7.199999999999136
 20
-2.9999998807901989
 30
0.0
 11
4.5999999999984311
 21
-2.9999998807901989
 31
0.0
  0
LINE
  5
3D
100
AcDbEntity
  8
0
  6
CONTINUOUS
 62
               7
100
AcDbLine
 10
7.1999999999994486
 20
5.0000001192098011
 30
0.0
 11
4.5999999999989996
 21
5.0000001192098011
 31
0.0
  0
LINE
  5
3E
100
AcDbEntity
  8
0
  6
CENTER
 62
               2
100
AcDbLine
 10
16.499999999998636
 20
-15.189318247902861
 30
0.0
 11
16.500000000001393
 21
82.000000000001322
 31
0.0
  0
LINE
  5
3F
100
AcDbEntity
  8
0
  6
CONTINUOUS
 62
               7
100
AcDbLine
 10
5.6000000177464244
 20
56.00000027000948
 30
0.0
 11
4.6000000475487468
 21
54.267949493527851
 31
0.0
  0
LINE
  5
40
100
AcDbEntity
  8
0
  6
CONTINUOUS
 62
               7
100
AcDbLine
 10
4.5999999581417796
 20
61.732051106095753
 30
0.0
 11
5.5999999999980901
 21
60.000000226029613
 31
0.0
  0
LINE
  5
41
100
AcDbEntity
  8
0
  6
CONTINUOUS
 62
               7
100
AcDbLine
 10
28.400000029667353
 20
4.732051106095696
 30
0.0
 11
27.400000000000205
 21
3.000000247141827
 31
0.0
  0
LINE
  5
42
100
AcDbEntity
  8
0
  6
CONTINUOUS
 62
               7
100
AcDbLine
 10
27.400000000000546
 20
-0.9999997507572402
 30
0.0
 11
28.400000000000546
 21
-2.7320505583261934
 31
0.0
  0
LINE
  5
43
100
AcDbEntity
  8
0
  6
CONTINUOUS
 62
               7
100
AcDbLine
 10
28.399999999999068
 20
-2.7320505583235786
 30
0.0
 11
28.399999999998954
 21
-12.500000000000114
 31
0.0
  0
LINE
  5
44
100
AcDbEntity
  8
0
  6
CONTINUOUS
 62
               7
100
AcDbLine
 10
4.5999999999994543
 20
54.267949411170036
 30
0.0
 11
4.5999999999989996
 21
3.3430750219816332
 31
0.0
  0
ARC
  5
45
100
AcDbEntity
  8
0
  6
CONTINUOUS
 62
               7
100
AcDbCircle
 10
25.800000000001319
 20
57.999999999999602
 30
0.0
 40
4.0
100
AcDbArc
 50
89.999999999999844
 51
269.99999999999937
  0
CIRCLE
  5
46
100
AcDbEntity
  8
0
  6
CONTINUOUS
 62
               7
100
AcDbCircle
 10
25.800000000001319
 20
58.000000119208892
 30
0.0
 40
2.9803848266601563
  0
CIRCLE
  5
47
100
AcDbEntity
  8
0
  6
CONTINUOUS
 62
               7
100
AcDbCircle
 10
25.800000000001319
 20
57.999999999999602
 30
0.0
 40
3.5
  0
LINE
  5
48
100
AcDbEntity
  8
0
  6
CONTINUOUS
 62
               7
100
AcDbLine
 10
27.300000399863393
 20
57.133974738953441
 30
0.0
 11
25.800000247231424
 21
56.267949394346431
 31
0.0
  0
LINE
  5
49
100
AcDbEntity
  8
0
  6
CONTINUOUS
 62
               7
100
AcDbLine
 10
25.800000642561372
 20
59.732050018165239
 30
0.0
 11
24.300000489929516
 21
58.866024673558002
 31
0.0
  0
LINE
  5
4A
100
AcDbEntity
  8
0
  6
CONTINUOUS
 62
               7
100
AcDbLine
 10
25.800000642561145
 20
56.267949981834079
 30
0.0
 11
24.300000489929403
 21
57.13397532644143
 31
0.0
  0
LINE
  5
4B
100
AcDbEntity
  8
0
  6
CONTINUOUS
 62
               7
100
AcDbLine
 10
27.300000399863393
 20
58.866025261045536
 30
0.0
 11
25.800000247231651
 21
59.732050605652887
 31
0.0
  0
LINE
  5
4C
100
AcDbEntity
  8
0
  6
CONTINUOUS
 62
               7
100
AcDbLine
 10
24.300000000001319
 20
58.86602538824053
 30
0.0
 11
24.300000000001319
 21
57.133974611758902
 31
0.0
  0
LINE
  5
4D
100
AcDbEntity
  8
0
  6
CONTINUOUS
 62
               7
100
AcDbLine
 10
27.300000000001319
 20
58.866025686263526
 30
0.0
 11
27.300000000001319
 21
57.13397431373545
 31
0.0
  0
LINE
  5
4E
100
AcDbEntity
  8
0
  6
CONTINUOUS
 62
               7
100
AcDbLine
 10
5.0999999999983174
 20
-12.999999999999886
 30
0.0
 11
27.899999999998272
 21
-12.999999999999886
 31
0.0
  0
LINE
  5
4F
100
AcDbEntity
  8
0
  6
CONTINUOUS
 62
               7
100
AcDbLine
 10
10.599999999999
 20
-10.500000011874818
 30
0.0
 11
10.599999999999
 21
-12.499999999999659
 31
0.0
  0
LINE
  5
50
100
AcDbEntity
  8
0
  6
CONTINUOUS
 62
               7
100
AcDbLine
 10
10.099999999999
 20
-9.9999999999996589
 30
0.0
 11
5.0999999999989996
 21
-9.9999999999995453
 31
0.0
  0
ARC
  5
51
100
AcDbEntity
  8
0
  6
CONTINUOUS
 62
               7
100
AcDbCircle
 10
10.099999999999
 20
-10.499999999999659
 30
0.0
 40
0.5
100
AcDbArc
 50
359.99999999999761
 51
89.999999999998224
  0
ARC
  5
52
100
AcDbEntity
  8
0
  6
CONTINUOUS
 62
               7
100
AcDbCircle
 10
11.099999999999
 20
-12.499999999999716
 30
0.0
 40
0.5
100
AcDbArc
 50
179.99999999999798
 51
269.99999999999778
  0
ARC
  5
53
100
AcDbEntity
  8
0
  6
CONTINUOUS
 62
               7
100
AcDbCircle
 10
5.0999999999989996
 20
-9.4999999999995453
 30
0.0
 40
0.5
100
AcDbArc
 50
179.99999999999801
 51
269.99999999999784
  0
LINE
  5
54
100
AcDbEntity
  8
0
  6
CENTER
 62
               2
100
AcDbLine
 10
29.646656126441371
 20
57.999999999999488
 30
0.0
 11
20.436389519384534
 21
57.999999999999943
 31
0.0
  0
LINE
  5
55
100
AcDbEntity
  8
0
  6
CENTER
 62
               2
100
AcDbLine
 10
25.800000000001546
 20
63.704087708488885
 30
0.0
 11
25.800000000001091
 21
52.015545225571316
 31
0.0
  0
LINE
  5
56
100
AcDbEntity
  8
0
  6
CONTINUOUS
 62
               7
100
AcDbLine
 10
4.5999999999984311
 20
-1.3430747835614056
 30
0.0
 11
4.5999999999983174
 21
-12.499999999999488
 31
0.0
  0
LINE
  5
57
100
AcDbEntity
  8
0
  6
CONTINUOUS
 62
               7
100
AcDbLine
 10
5.5999999999980901
 20
60.000000238418522
 30
0.0
 11
5.5999999999983174
 21
56.000000238418522
 31
0.0
  0
LINE
  5
58
100
AcDbEntity
  8
0
  6
CONTINUOUS
 62
               4
100
AcDbLine
 10
4.6000000000001364
 20
120.99999999999949
 30
0.0
 11
4.5999999999997669
 21
82.000000000002046
 31
0.0
  0
LINE
  5
59
100
AcDbEntity
  8
0
  6
CONTINUOUS
 62
               7
100
AcDbLine
 10
28.400000000000318
 20
55.656925097226406
 30
0.0
 11
28.399999999999181
 21
4.7320510547090748
 31
0.0
  0
LINE
  5
5A
100
AcDbEntity
  8
0
  6
CONTINUOUS
 62
               4
100
AcDbLine
 10
28.400000000002137
 20
120.99999999999903
 30
0.0
 11
28.400000000001114
 21
82.000000000000597
 31
0.0
  0
LINE
  5
5B
100
AcDbEntity
  8
0
  6
CONTINUOUS
 62
               7
100
AcDbLine
 10
27.400000000000205
 20
3.0000002384190338
 30
0.0
 11
27.400000000000432
 21
-0.9999997615809662
 31
0.0
  0
ARC
  5
5C
100
AcDbEntity
  8
0
  6
CONTINUOUS
 62
               7
100
AcDbCircle
 10
5.0999999999978627
 20
-12.499999999999773
 30
0.0
 40
0.5
100
AcDbArc
 50
179.99999999999963
 51
269.99999999999937
  0
ARC
  5
5D
100
AcDbEntity
  8
0
  6
CONTINUOUS
 62
               7
100
AcDbCircle
 10
27.899999999999181
 20
-12.499999999999773
 30
0.0
 40
0.5
100
AcDbArc
 50
269.99999999999937
 51
0.0
  0
LINE
  5
5E
100
AcDbEntity
  8
0
  6
CONTINUOUS
 62
               7
100
AcDbLine
 10
4.5999999775428932
 20
-7.9999999999998863
 30
0.0
 11
28.399999989463822
 21
-7.9999999999998863
 31
0.0
  0
LINE
  5
5F
100
AcDbEntity
  8
0
  6
CONTINUOUS
 62
               7
100
AcDbLine
 10
4.5999999775428932
 20
68.49999999979849
 30
0.0
 11
5.8999999894638222
 21
68.49999999979849
 31
0.0
  0
LINE
  5
60
100
AcDbEntity
  8
0
  6
CONTINUOUS
 62
               7
100
AcDbLine
 10
27.099999977542893
 20
68.49999999979849
 30
0.0
 11
28.399999999999864
 21
68.49999999979849
 31
0.0
  0
LINE
  5
61
100
AcDbEntity
  8
0
  6
CONTINUOUS
 62
               7
100
AcDbLine
 10
4.5999999775428932
 20
66.999999999999943
 30
0.0
 11
28.399999989463822
 21
66.999999999999943
 31
0.0
  0
LINE
  5
62
100
AcDbEntity
  8
0
  6
CONTINUOUS
 62
               4
100
AcDbLine
 10
12.5
 20
89.900000000000489
 30
0.0
 11
7.7000000000000455
 21
89.900000000000489
 31
0.0
  0
LINE
  5
63
100
AcDbEntity
  8
0
  6
CONTINUOUS
 62
               4
100
AcDbLine
 10
14.400000000000091
 20
108.5999999999994
 30
0.0
 11
8.6000000000001364
 21
108.5999999999994
 31
0.0
  0
LINE
  5
64
100
AcDbEntity
  8
0
  6
CONTINUOUS
 62
               4
100
AcDbLine
 10
14.400000000000318
 20
115.39999999999935
 30
0.0
 11
14.400000000000091
 21
108.5999999999994
 31
0.0
  0
LINE
  5
65
100
AcDbEntity
  8
0
  6
CONTINUOUS
 62
               4
100
AcDbLine
 10
8.6000000000003638
 20
115.39999999999935
 30
0.0
 11
8.6000000000001364
 21
108.5999999999994
 31
0.0
  0
LINE
  5
66
100
AcDbEntity
  8
0
  6
CONTINUOUS
 62
               4
100
AcDbLine
 10
14.400000000000318
 20
115.39999999999935
 30
0.0
 11
8.6000000000003638
 21
115.39999999999935
 31
0.0
  0
LINE
  5
67
100
AcDbEntity
  8
0
  6
CONTINUOUS
 62
               4
100
AcDbLine
 10
18.600000000000364
 20
108.5999999999994
 30
0.0
 11
24.400000000000318
 21
108.59999999999917
 31
0.0
  0
LINE
  5
68
100
AcDbEntity
  8
0
  6
CONTINUOUS
 62
               4
100
AcDbLine
 10
18.600000000000364
 20
115.39999999999935
 30
0.0
 11
18.600000000000364
 21
108.5999999999994
 31
0.0
  0
LINE
  5
69
100
AcDbEntity
  8
0
  6
CONTINUOUS
 62
               4
100
AcDbLine
 10
24.400000000000318
 20
115.39999999999912
 30
0.0
 11
24.400000000000318
 21
108.59999999999917
 31
0.0
  0
LINE
  5
6A
100
AcDbEntity
  8
0
  6
CONTINUOUS
 62
               4
100
AcDbLine
 10
18.600000000000364
 20
115.39999999999935
 30
0.0
 11
24.400000000000318
 21
115.39999999999912
 31
0.0
  0
LINE
  5
6B
100
AcDbEntity
  8
0
  6
CONTINUOUS
 62
               4
100
AcDbLine
 10
8.5000000000002274
 20
115.49999999999949
 30
0.0
 11
8.5000000000002274
 21
108.49999999999949
 31
0.0
  0
LINE
  5
6C
100
AcDbEntity
  8
0
  6
CONTINUOUS
 62
               4
100
AcDbLine
 10
14.500000000000227
 20
115.49999999999949
 30
0.0
 11
14.500000000000227
 21
108.49999999999949
 31
0.0
  0
LINE
  5
6D
100
AcDbEntity
  8
0
  6
CONTINUOUS
 62
               4
100
AcDbLine
 10
14.500000000000227
 20
108.49999999999949
 30
0.0
 11
8.5000000000002274
 21
108.49999999999949
 31
0.0
  0
LINE
  5
6E
100
AcDbEntity
  8
0
  6
CONTINUOUS
 62
               4
100
AcDbLine
 10
14.500000000000227
 20
115.49999999999949
 30
0.0
 11
8.5000000000002274
 21
115.49999999999949
 31
0.0
  0
LINE
  5
6F
100
AcDbEntity
  8
0
  6
CONTINUOUS
 62
               4
100
AcDbLine
 10
18.500000000000227
 20
108.49999999999926
 30
0.0
 11
24.500000000000227
 21
108.49999999999926
 31
0.0
  0
LINE
  5
70
100
AcDbEntity
  8
0
  6
CONTINUOUS
 62
               4
100
AcDbLine
 10
18.500000000000455
 20
115.49999999999926
 30
0.0
 11
24.500000000000455
 21
115.49999999999926
 31
0.0
  0
LINE
  5
71
100
AcDbEntity
  8
0
  6
CONTINUOUS
 62
               4
100
AcDbLine
 10
24.400000000000091
 20
100.29999999424825
 30
0.0
 11
24.400000000000091
 21
100.7002075360794
 31
0.0
  0
ARC
  5
72
100
AcDbEntity
  8
0
  6
CONTINUOUS
 62
               4
100
AcDbCircle
 10
24.100000000000136
 20
100.29999999424825
 30
0.0
 40
0.3
100
AcDbArc
 50
269.9999999999979
 51
359.99999999999767
  0
LINE
  5
73
100
AcDbEntity
  8
0
  6
CONTINUOUS
 62
               4
100
AcDbLine
 10
24.400000000000091
 20
100.7002075360794
 30
0.0
 11
25.799999987451883
 21
100.7002075360794
 31
0.0
  0
ARC
  5
74
100
AcDbEntity
  8
0
  6
CONTINUOUS
 62
               4
100
AcDbCircle
 10
8.9000000000000909
 20
100.29999999424848
 30
0.0
 40
0.3
100
AcDbArc
 50
179.99999999999963
 51
269.99999999999937
  0
LINE
  5
75
100
AcDbEntity
  8
0
  6
CONTINUOUS
 62
               4
100
AcDbLine
 10
23.600000000000136
 20
98.400000000000261
 30
0.0
 11
23.600000000000136
 21
99.999999994248299
 31
0.0
  0
LINE
  5
76
100
AcDbEntity
  8
0
  6
CONTINUOUS
 62
               4
100
AcDbLine
 10
8.6000000000001364
 20
100.29999999424848
 30
0.0
 11
8.6000000000001364
 21
100.70020753607963
 31
0.0
  0
LINE
  5
77
100
AcDbEntity
  8
0
  6
CONTINUOUS
 62
               4
100
AcDbLine
 10
23.600000000000136
 20
99.999999994248299
 30
0.0
 11
25.800000000000182
 21
99.999999994248071
 31
0.0
  0
LINE
  5
78
100
AcDbEntity
  8
0
  6
CONTINUOUS
 62
               4
100
AcDbLine
 10
8.6000000000001364
 20
100.70020753607963
 30
0.0
 11
7.2000000125483439
 21
100.70020753607963
 31
0.0
  0
LINE
  5
79
100
AcDbEntity
  8
0
  6
CONTINUOUS
 62
               4
100
AcDbLine
 10
9.4000000000000909
 20
99.999999994248526
 30
0.0
 11
7.2000000000002728
 21
99.999999994248526
 31
0.0
  0
LINE
  5
7A
100
AcDbEntity
  8
0
  6
CONTINUOUS
 62
               4
100
AcDbLine
 10
25.799999999999955
 20
90.400000000000489
 30
0.0
 11
25.800000000000182
 21
100.7002075360794
 31
0.0
  0
ARC
  5
7B
100
AcDbEntity
  8
0
  6
CONTINUOUS
 62
               4
100
AcDbCircle
 10
13.0
 20
89.200000000000671
 30
0.0
 40
0.5
100
AcDbArc
 50
179.99999999999807
 51
269.9999999999979
  0
LINE
  5
7C
100
AcDbEntity
  8
0
  6
CONTINUOUS
 62
               4
100
AcDbLine
 10
12.5
 20
89.200000000000671
 30
0.0
 11
12.5
 21
89.900000000000716
 31
0.0
  0
ARC
  5
7D
100
AcDbEntity
  8
0
  6
CONTINUOUS
 62
               4
100
AcDbCircle
 10
20.0
 20
89.200000000000671
 30
0.0
 40
0.5
100
AcDbArc
 50
269.99999999999937
 51
0.0
  0
LINE
  5
7E
100
AcDbEntity
  8
0
  6
CONTINUOUS
 62
               4
100
AcDbLine
 10
20.5
 20
89.200000000000671
 30
0.0
 11
20.5
 21
89.900000000000489
 31
0.0
  0
LINE
  5
7F
100
AcDbEntity
  8
0
  6
CONTINUOUS
 62
               4
100
AcDbLine
 10
20.0
 20
88.700000000000671
 30
0.0
 11
13.0
 21
88.700000000000671
 31
0.0
  0
ARC
  5
80
100
AcDbEntity
  8
0
  6
CONTINUOUS
 62
               4
100
AcDbCircle
 10
23.100000000000136
 20
98.400000000000489
 30
0.0
 40
0.5
100
AcDbArc
 50
269.99999999999937
 51
0.0
  0
ARC
  5
81
100
AcDbEntity
  8
0
  6
CONTINUOUS
 62
               4
100
AcDbCircle
 10
9.9000000000000909
 20
98.400000000000489
 30
0.0
 40
0.5
100
AcDbArc
 50
179.99999999999963
 51
269.99999999999937
  0
LINE
  5
82
100
AcDbEntity
  8
0
  6
CONTINUOUS
 62
               4
100
AcDbLine
 10
9.4000000000000909
 20
98.400000000000489
 30
0.0
 11
9.4000000000000909
 21
99.999999994248526
 31
0.0
  0
ARC
  5
83
100
AcDbEntity
  8
0
  6
CONTINUOUS
 62
               4
100
AcDbCircle
 10
7.7000000000000455
 20
90.400000000000489
 30
0.0
 40
0.5
100
AcDbArc
 50
179.99999999999963
 51
269.99999999999937
  0
LINE
  5
84
100
AcDbEntity
  8
0
  6
CONTINUOUS
 62
               4
100
AcDbLine
 10
7.2000000000000455
 20
90.400000000000944
 30
0.0
 11
7.2000000000002728
 21
100.70020753607963
 31
0.0
  0
ARC
  5
85
100
AcDbEntity
  8
0
  6
CONTINUOUS
 62
               4
100
AcDbCircle
 10
25.299999999999955
 20
90.400000000000489
 30
0.0
 40
0.5
100
AcDbArc
 50
269.99999999999937
 51
0.0
  0
LINE
  5
86
100
AcDbEntity
  8
0
  6
CONTINUOUS
 62
               4
100
AcDbLine
 10
25.299999999999955
 20
89.900000000000489
 30
0.0
 11
20.5
 21
89.900000000000489
 31
0.0
  0
LINE
  5
87
100
AcDbEntity
  8
0
  6
CONTINUOUS
 62
               4
100
AcDbLine
 10
23.100000000000136
 20
97.900000000000489
 30
0.0
 11
9.9000000000000909
 21
97.900000000000489
 31
0.0
  0
LINE
  5
88
100
AcDbEntity
  8
0
  6
CONTINUOUS
 62
               7
100
AcDbLine
 10
27.100000011293105
 20
69.999999999999261
 30
0.0
 11
27.899999993411711
 21
69.999999999999261
 31
0.0
  0
ARC
  5
89
100
AcDbEntity
  8
0
  6
CONTINUOUS
 62
               7
100
AcDbCircle
 10
27.899999999999864
 20
70.499999999999261
 30
0.0
 40
0.5
100
AcDbArc
 50
269.9999999999979
 51
359.99999999999767
  0
LINE
  5
8A
100
AcDbEntity
  8
0
  6
CONTINUOUS
 62
               7
100
AcDbLine
 10
27.099999999999909
 20
68.49999999979849
 30
0.0
 11
27.099999999999909
 21
75.999999999999034
 31
0.0
  0
ARC
  5
8B
100
AcDbEntity
  8
0
  6
CONTINUOUS
 62
               7
100
AcDbCircle
 10
5.0999999999996817
 20
70.499999999999488
 30
0.0
 40
0.5
100
AcDbArc
 50
179.99999999999963
 51
269.99999999999937
  0
LINE
  5
8C
100
AcDbEntity
  8
0
  6
CONTINUOUS
 62
               7
100
AcDbLine
 10
5.8999999887064405
 20
69.999999999999488
 30
0.0
 11
5.1000000065878339
 21
69.999999999999488
 31
0.0
  0
LINE
  5
8D
100
AcDbEntity
  8
0
  6
CONTINUOUS
 62
               7
100
AcDbLine
 10
5.8999999999994088
 20
68.49999999979849
 30
0.0
 11
5.8999999999998636
 21
75.999999999999261
 31
0.0
  0
LINE
  5
8E
100
AcDbEntity
  8
0
  6
CONTINUOUS
 62
               7
100
AcDbLine
 10
4.5999999999996817
 20
75.999999999999261
 30
0.0
 11
28.399999999999864
 21
75.999999999998806
 31
0.0
  0
LINE
  5
8F
100
AcDbEntity
  8
0
  6
CONTINUOUS
 62
               4
100
AcDbLine
 10
5.8000000006275059
 20
116.90000000000185
 30
0.0
 11
4.6000000065878339
 21
116.90000000000185
 31
0.0
  0
LINE
  5
90
100
AcDbEntity
  8
0
  6
CONTINUOUS
 62
               4
100
AcDbLine
 10
5.8000000000004093
 20
116.90000000000185
 30
0.0
 11
5.8000000000004093
 21
120.10000000000167
 31
0.0
  0
LINE
  5
91
100
AcDbEntity
  8
0
  6
CONTINUOUS
 62
               4
100
AcDbLine
 10
18.500000000000455
 20
115.49999999999926
 30
0.0
 11
18.500000000000227
 21
108.49999999999926
 31
0.0
  0
LINE
  5
92
100
AcDbEntity
  8
0
  6
CONTINUOUS
 62
               4
100
AcDbLine
 10
24.500000000000455
 20
115.49999999999926
 30
0.0
 11
24.500000000000227
 21
108.49999999999926
 31
0.0
  0
LINE
  5
93
100
AcDbEntity
  8
0
  6
CONTINUOUS
 62
               4
100
AcDbLine
 10
5.8000000006275059
 20
120.10000000000167
 30
0.0
 11
4.6000000065878339
 21
120.10000000000167
 31
0.0
  0
ARC
  5
94
100
AcDbEntity
  8
0
  6
CONTINUOUS
 62
               4
100
AcDbCircle
 10
5.6000000000005912
 20
120.99999999999949
 30
0.0
 40
1.0
100
AcDbArc
 50
89.999999999999815
 51
179.99999999999963
  0
LINE
  5
95
100
AcDbEntity
  8
0
  6
CONTINUOUS
 62
               4
100
AcDbLine
 10
27.200000000000273
 20
116.9000000000014
 30
0.0
 11
27.2000000000005
 21
120.10000000000144
 31
0.0
  0
LINE
  5
96
100
AcDbEntity
  8
0
  6
CONTINUOUS
 62
               4
100
AcDbLine
 10
5.6000000000005912
 20
121.99999999999949
 30
0.0
 11
27.400000000000546
 21
121.99999999999926
 31
0.0
  0
ARC
  5
97
100
AcDbEntity
  8
0
  6
CONTINUOUS
 62
               4
100
AcDbCircle
 10
27.400000000000318
 20
120.99999999999926
 30
0.0
 40
1.0
100
AcDbArc
 50
359.99999999999847
 51
89.999999999998266
  0
LINE
  5
98
100
AcDbEntity
  8
0
  6
CONTINUOUS
 62
               4
100
AcDbLine
 10
27.199999999373404
 20
120.10000000000144
 30
0.0
 11
28.399999993413076
 21
120.10000000000144
 31
0.0
  0
LINE
  5
99
100
AcDbEntity
  8
0
  6
CONTINUOUS
 62
               4
100
AcDbLine
 10
27.199999999373404
 20
116.9000000000014
 30
0.0
 11
28.399999993412848
 21
116.9000000000014
 31
0.0
  0
ARC
  5
9A
100
AcDbEntity
  8
0
  6
CONTINUOUS
 62
               4
100
AcDbCircle
 10
20.017157286864631
 20
91.699999999999307
 30
0.0
 40
0.2
100
AcDbArc
 50
269.99999999999937
 51
45.000000000000966
  0
ARC
  5
9B
100
AcDbEntity
  8
0
  6
CONTINUOUS
 62
               4
100
AcDbCircle
 10
12.982842713135369
 20
91.699999999999307
 30
0.0
 40
0.2
100
AcDbArc
 50
134.99999999999793
 51
269.99999999999937
  0
ARC
  5
9C
100
AcDbEntity
  8
0
  6
CONTINUOUS
 62
               4
100
AcDbCircle
 10
16.5
 20
95.21715728686371
 30
0.0
 40
0.2
100
AcDbArc
 50
44.99999999999919
 51
134.99999999999898
  0
LINE
  5
9D
100
AcDbEntity
  8
0
  6
CONTINUOUS
 62
               4
100
AcDbLine
 10
16.641421356237288
 20
95.358578643100998
 30
0.0
 11
20.158578643101919
 21
91.841421356236594
 31
0.0
  0
LINE
  5
9E
100
AcDbEntity
  8
0
  6
CONTINUOUS
 62
               4
100
AcDbLine
 10
16.358578643762712
 20
95.358578643100998
 30
0.0
 11
12.841421356898081
 21
91.841421356236594
 31
0.0
  0
LINE
  5
9F
100
AcDbEntity
  8
0
  6
CONTINUOUS
 62
               4
100
AcDbLine
 10
20.017157286864631
 20
91.499999999999261
 30
0.0
 11
12.982842713135369
 21
91.499999999999261
 31
0.0
  0
LINE
  5
A0
100
AcDbEntity
  8
0
  6
CONTINUOUS
 62
               4
100
AcDbLine
 10
8.6000000000001364
 20
97.799999999999443
 30
0.0
 11
8.6000000000001364
 21
99.899999999999352
 31
0.0
  0
LINE
  5
A1
100
AcDbEntity
  8
0
  6
CONTINUOUS
 62
               4
100
AcDbLine
 10
8.6000000000001364
 20
99.899999999999352
 30
0.0
 11
7.2000000000002728
 21
99.899999999999352
 31
0.0
  0
ARC
  5
A2
100
AcDbEntity
  8
0
  6
CONTINUOUS
 62
               4
100
AcDbCircle
 10
7.7000000000000455
 20
90.499999999999261
 30
0.0
 40
0.5
100
AcDbArc
 50
179.99999999999963
 51
269.99999999999937
  0
LINE
  5
A3
100
AcDbEntity
  8
0
  6
CONTINUOUS
 62
               4
100
AcDbLine
 10
25.299999999999955
 20
89.999999999999261
 30
0.0
 11
7.7000000000000455
 21
89.999999999999261
 31
0.0
  0
ARC
  5
A4
100
AcDbEntity
  8
0
  6
CONTINUOUS
 62
               4
100
AcDbCircle
 10
25.299999999999955
 20
90.499999999999034
 30
0.0
 40
0.5
100
AcDbArc
 50
269.9999999999979
 51
359.99999999999767
  0
LINE
  5
A5
100
AcDbEntity
  8
0
  6
CONTINUOUS
 62
               4
100
AcDbLine
 10
24.400000000000091
 20
97.799999999999443
 30
0.0
 11
24.400000000000091
 21
99.899999999998897
 31
0.0
  0
LINE
  5
A6
100
AcDbEntity
  8
0
  6
CONTINUOUS
 62
               4
100
AcDbLine
 10
24.400000000000091
 20
99.899999999998897
 30
0.0
 11
25.800000000000182
 21
99.899999999998897
 31
0.0
  0
LINE
  5
A7
100
AcDbEntity
  8
0
  6
CONTINUOUS
 62
               4
100
AcDbLine
 10
25.800000000000118
 20
97.799999999999443
 30
0.0
 11
7.2000000000000455
 21
97.799999999999443
 31
0.0
  0
ARC
  5
A8
100
AcDbEntity
  8
0
  6
CONTINUOUS
 62
               7
100
AcDbCircle
 10
9.0
 20
74.999999999999943
 30
0.0
 40
5.0
100
AcDbArc
 50
151.64236342367738
 51
179.99999999999963
  0
ARC
  5
A9
100
AcDbEntity
  8
0
  6
CONTINUOUS
 62
               7
100
AcDbCircle
 10
33.999999999999943
 20
74.999999999999943
 30
0.0
 40
5.0
100
AcDbArc
 50
0.0
 51
89.999999999999815
  0
LINE
  5
AA
100
AcDbEntity
  8
0
  6
CONTINUOUS
 62
               7
100
AcDbLine
 10
28.400000000001
 20
79.999999999999943
 30
0.0
 11
33.999999999999943
 21
79.999999999999943
 31
0.0
  0
LINE
  5
AB
100
AcDbEntity
  8
0
  6
CONTINUOUS
 62
               7
100
AcDbLine
 10
37.999999999999943
 20
-11.0
 30
0.0
 11
28.399999999998954
 21
-11.0
 31
0.0
  0
LINE
  5
AC
100
AcDbEntity
  8
0
  6
CONTINUOUS
 62
               7
100
AcDbLine
 10
-4.9999999999995453
 20
0.0
 30
0.0
 11
-5.0
 21
58.999999999999943
 31
0.0
  0
LINE
  5
AD
100
AcDbEntity
  8
0
  6
CONTINUOUS
 62
               7
100
AcDbLine
 10
38.999999999999943
 20
-10.0
 30
0.0
 11
38.999999999999943
 21
74.999999999999943
 31
0.0
  0
LINE
  5
AE
100
AcDbEntity
  8
0
  6
CENTER
 62
               2
100
AcDbLine
 10
33.999999999999943
 20
71.269653850984184
 30
0.0
 11
33.999999999999943
 21
78.904177219395876
 31
0.0
  0
LINE
  5
AF
100
AcDbEntity
  8
0
  6
CENTER
 62
               2
100
AcDbLine
 10
0.0
 20
-4.240734955477194
 30
0.0
 11
0.0
 21
4.4336281086322629
 31
0.0
  0
LINE
  5
B0
100
AcDbEntity
  8
0
  6
CENTER
 62
               2
100
AcDbLine
 10
6.6782932201736003
 20
0.0
 30
0.0
 11
-4.6277648756251892
 21
0.0
 31
0.0
  0
LINE
  5
B1
100
AcDbEntity
  8
0
  6
CONTINUOUS
 62
               7
100
AcDbLine
 10
4.0
 20
60.999999999999943
 30
0.0
 11
4.0
 21
74.999999999999943
 31
0.0
  0
LINE
  5
B2
100
AcDbEntity
  8
0
  6
CONTINUOUS
 62
               7
100
AcDbLine
 10
-4.0
 20
59.999999999999943
 30
0.0
 11
3.0
 21
59.999999999999943
 31
0.0
  0
ARC
  5
B3
100
AcDbEntity
  8
0
  6
CONTINUOUS
 62
               7
100
AcDbCircle
 10
3.0
 20
60.999999999999943
 30
0.0
 40
1.0
100
AcDbArc
 50
269.99999999999937
 51
0.0
  0
LINE
  5
B4
100
AcDbEntity
  8
0
  6
CONTINUOUS
 62
               7
100
AcDbLine
 10
4.0000000000004547
 20
-10.0
 30
0.0
 11
4.0000000000004547
 21
-6.0
 31
0.0
  0
ARC
  5
B5
100
AcDbEntity
  8
0
  6
CONTINUOUS
 62
               7
100
AcDbCircle
 10
5.0000000000004547
 20
-10.0
 30
0.0
 40
1.0
100
AcDbArc
 50
179.99999999999963
 51
246.4218215216647
  0
ARC
  5
B6
100
AcDbEntity
  8
0
  6
CONTINUOUS
 62
               7
100
AcDbCircle
 10
0.0
 20
0.0
 30
0.0
 40
5.0
100
AcDbArc
 50
179.99999999999963
 51
269.99999999999937
  0
LINE
  5
B7
100
AcDbEntity
  8
0
  6
CONTINUOUS
 62
               7
100
AcDbLine
 10
3.0000000119212018
 20
-5.0
 30
0.0
 11
0.0
 21
-5.0
 31
0.0
  0
ARC
  5
B8
100
AcDbEntity
  8
0
  6
CONTINUOUS
 62
               7
100
AcDbCircle
 10
3.0000000000004547
 20
-6.0
 30
0.0
 40
1.0
100
AcDbArc
 50
0.0
 51
89.999999999999815
  0
ARC
  5
B9
100
AcDbEntity
  8
0
  6
CONTINUOUS
 62
               7
100
AcDbCircle
 10
37.999999999999943
 20
-10.0
 30
0.0
 40
1.0
100
AcDbArc
 50
270.00000000000023
 51
0.0
  0
LINE
  5
BA
100
AcDbEntity
  8
0
  6
CENTER
 62
               2
100
AcDbLine
 10
30.042568627498838
 20
74.999999999999943
 30
0.0
 11
39.196056725389951
 21
74.999999999999943
 31
0.0
  0
ARC
  5
BB
100
AcDbEntity
  8
0
  6
CONTINUOUS
 62
               7
100
AcDbCircle
 10
-4.0
 20
58.999999999999943
 30
0.0
 40
1.0
100
AcDbArc
 50
89.999999999999815
 51
179.99999999999963
  0
CIRCLE
  5
BC
100
AcDbEntity
  8
0
  6
CONTINUOUS
 62
               7
100
AcDbCircle
 10
33.999999999999943
 20
74.999999999999943
 30
0.0
 40
2.7000000000000002
  0
CIRCLE
  5
BD
100
AcDbEntity
  8
0
  6
CONTINUOUS
 62
               7
100
AcDbCircle
 10
0.0
 20
0.0
 30
0.0
 40
2.7000000000000002
  0
LINE
  5
BE
100
AcDbEntity
  8
0
  6
CONTINUOUS
 62
               7
100
AcDbLine
 10
28.400000000001114
 20
82.000000000000597
 30
0.0
 11
28.400000000000546
 21
60.343074902772457
 31
0.0
  0
LINE
  5
BF
100
AcDbEntity
  8
0
  6
CONTINUOUS
 62
               7
100
AcDbLine
 10
4.5999999999997669
 20
82.000000000002046
 30
0.0
 11
4.599999999999568
 21
61.732051033595951
 31
0.0
  0
LINE
  5
C0
100
AcDbEntity
  8
0
  6
CENTER
 62
             200
100
AcDbLine
 10
16.500000000001393
 20
82.000000000001322
 30
0.0
 11
16.500000000002615
 21
124.7686818489471
 31
0.0
  0
LINE
  5
C2
100
AcDbEntity
  8
0
  6
DASHED
 62
               2
100
AcDbLine
 10
4.5999999999997669
 20
82.000000000002046
 30
0.0
 11
28.400000000001114
 21
82.000000000000597
 31
0.0
  0
ENDBLK
  5
C3
100
AcDbEntity
  8
0
100
AcDbBlockEnd
  0
BLOCK
  5
C4
100
AcDbEntity
  8
0
100
AcDbBlockBegin
  2
PA24A6-2
 70
               0
 10
0.0
 20
0.0
 30
0.0
  3
PA24A6-2
  1

  0
LINE
  5
C5
100
AcDbEntity
  8
0
  6
CONTINUOUS
 62
               4
100
AcDbLine
 10
7.9999999999999716
 20
40.000000000000028
 30
0.0
 11
4.7999999999998408
 21
40.000000000000028
 31
0.0
  0
LINE
  5
C6
100
AcDbEntity
  8
0
  6
CONTINUOUS
 62
               4
100
AcDbLine
 10
3.0000000100984607
 20
55.500000000000114
 30
0.0
 11
-11.499999989901539
 21
55.500000000002387
 31
0.0
  0
LINE
  5
C7
100
AcDbEntity
  8
0
  6
CONTINUOUS
 62
               4
100
AcDbLine
 10
0.2500000100976649
 20
51.000000000000568
 30
0.0
 11
-8.7499999899023351
 21
51.000000000001933
 31
0.0
  0
LINE
  5
C8
100
AcDbEntity
  8
0
  6
CONTINUOUS
 62
               4
100
AcDbLine
 10
0.2500000100958459
 20
39.000000000000568
 30
0.0
 11
-8.7499999899041541
 21
39.000000000001933
 31
0.0
  0
LINE
  5
C9
100
AcDbEntity
  8
0
  6
CONTINUOUS
 62
               4
100
AcDbLine
 10
-2.2999999999994998
 20
1.9999999915609692
 30
0.0
 11
0.0000000000001137
 21
1.9999999915609692
 31
0.0
  0
LINE
  5
CA
100
AcDbEntity
  8
0
  6
CONTINUOUS
 62
               4
100
AcDbLine
 10
-8.4999999999995453
 20
16.000000000000114
 30
0.0
 11
0.4999999999998863
 21
16.000000000000114
 31
0.0
  0
LINE
  5
CB
100
AcDbEntity
  8
0
  6
DASHED
 62
             200
100
AcDbLine
 10
-9.9999999999995453
 20
15.000000000000114
 30
0.0
 11
1.9999999999998863
 21
15.000000000000114
 31
0.0
  0
LINE
  5
CC
100
AcDbEntity
  8
0
  6
CONTINUOUS
 62
               4
100
AcDbLine
 10
3.7999999999999545
 20
33.000000000000114
 30
0.0
 11
-11.999999999999545
 21
33.000000000000398
 31
0.0
  0
LINE
  5
CD
100
AcDbEntity
  8
0
  6
DASHED
 62
             200
100
AcDbLine
 10
-9.9999999999995453
 20
15.000000000000114
 30
0.0
 11
-9.9999999999995453
 21
33.000000000000398
 31
0.0
  0
LINE
  5
CE
100
AcDbEntity
  8
0
  6
CONTINUOUS
 62
               4
100
AcDbLine
 10
-8.9999999999995453
 20
16.500000000000114
 30
0.0
 11
-8.9999999999995453
 21
32.500000000000341
 31
0.0
  0
LINE
  5
CF
100
AcDbEntity
  8
0
  6
CONTINUOUS
 62
               4
100
AcDbLine
 10
-11.999999999999545
 20
11.999999991558468
 30
0.0
 11
-11.999999999999545
 21
33.000000000007788
 31
0.0
  0
ARC
  5
D0
100
AcDbEntity
  8
0
  6
CONTINUOUS
 62
               4
100
AcDbCircle
 10
-2.4999999999976126
 20
11.499999991558468
 30
0.0
 40
0.5
100
AcDbArc
 50
0.000000000002519
 51
90.000000000002316
  0
LINE
  5
D1
100
AcDbEntity
  8
0
  6
CONTINUOUS
 62
               4
100
AcDbLine
 10
-1.9999999999976126
 20
11.499999991558468
 30
0.0
 11
-1.9999999999976126
 21
2.4999999915609692
 31
0.0
  0
ARC
  5
D2
100
AcDbEntity
  8
0
  6
CONTINUOUS
 62
               4
100
AcDbCircle
 10
-1.9999999999995453
 20
11.999999991558468
 30
0.0
 40
10.0
100
AcDbArc
 50
180.0000000000021
 51
270.00000000000193
  0
LINE
  5
D3
100
AcDbEntity
  8
0
  6
CONTINUOUS
 62
               4
100
AcDbLine
 10
-2.4999999999977263
 20
11.999999991558468
 30
0.0
 11
-11.499999999999545
 21
11.99999999155807
 31
0.0
  0
ARC
  5
D4
100
AcDbEntity
  8
0
  6
CONTINUOUS
 62
               4
100
AcDbCircle
 10
-11.499999999999545
 20
12.49999999155807
 30
0.0
 40
0.5
100
AcDbArc
 50
179.99999999999963
 51
269.99999999999937
  0
ARC
  5
D5
100
AcDbEntity
  8
0
  6
CONTINUOUS
 62
               4
100
AcDbCircle
 10
-1.4999999999976126
 20
2.4999999915609692
 30
0.0
 40
0.5
100
AcDbArc
 50
179.99999999999963
 51
269.99999999999937
  0
ARC
  5
D6
100
AcDbEntity
  8
0
  6
CONTINUOUS
 62
               4
100
AcDbCircle
 10
-8.4999999999995453
 20
16.500000000000114
 30
0.0
 40
0.5
100
AcDbArc
 50
179.99999999999963
 51
269.99999999999937
  0
ARC
  5
D7
100
AcDbEntity
  8
0
  6
CONTINUOUS
 62
               4
100
AcDbCircle
 10
-9.4999999999995453
 20
32.500000000000341
 30
0.0
 40
0.5
100
AcDbArc
 50
0.0
 51
89.999999999999815
  0
ARC
  5
D8
100
AcDbEntity
  8
0
  6
CONTINUOUS
 62
               4
100
AcDbCircle
 10
-8.7499999899040404
 20
39.500000000001933
 30
0.0
 40
0.5
100
AcDbArc
 50
179.99999999999079
 51
269.99999999999056
  0
ARC
  5
D9
100
AcDbEntity
  8
0
  6
CONTINUOUS
 62
               4
100
AcDbCircle
 10
-8.7499999899023351
 20
50.500000000001933
 30
0.0
 40
0.5
100
AcDbArc
 50
89.99999999999099
 51
179.99999999999079
  0
LINE
  5
DA
100
AcDbEntity
  8
0
  6
CONTINUOUS
 62
               4
100
AcDbLine
 10
-9.2499999899040404
 20
39.500000000002046
 30
0.0
 11
-9.2499999899023351
 21
50.500000000002046
 31
0.0
  0
ARC
  5
DB
100
AcDbEntity
  8
0
  6
CONTINUOUS
 62
               4
100
AcDbCircle
 10
-10.999999989903927
 20
40.514702703392345
 30
0.0
 40
1.0
100
AcDbArc
 50
179.99999999999079
 51
181.68468431788708
  0
LINE
  5
DC
100
AcDbEntity
  8
0
  6
CONTINUOUS
 62
               4
100
AcDbLine
 10
-11.999567744368278
 20
40.485303651790559
 30
0.0
 11
-11.779411754610805
 21
33.000000000000398
 31
0.0
  0
ARC
  5
DD
100
AcDbEntity
  8
0
  6
CONTINUOUS
 62
               4
100
AcDbCircle
 10
-11.499999989901653
 20
55.000000000002387
 30
0.0
 40
0.5
100
AcDbArc
 50
89.99999999999099
 51
179.99999999999079
  0
LINE
  5
DE
100
AcDbEntity
  8
0
  6
CONTINUOUS
 62
               4
100
AcDbLine
 10
-11.999999989903927
 20
40.514702703392459
 30
0.0
 11
-11.999999989901653
 21
55.000000000002501
 31
0.0
  0
LINE
  5
DF
100
AcDbEntity
  8
0
  6
CONTINUOUS
 62
               4
100
AcDbLine
 10
36.999999995469125
 20
26.60000000000025
 30
0.0
 11
36.899999995469102
 21
26.500000000000227
 31
0.0
  0
LINE
  5
E0
100
AcDbEntity
  8
0
  6
CONTINUOUS
 62
               4
100
AcDbLine
 10
36.89999999093834
 20
33.500000000000227
 30
0.0
 11
36.999999995469125
 21
33.399999995469443
 31
0.0
  0
LINE
  5
E1
100
AcDbEntity
  8
0
  6
CONTINUOUS
 62
               4
100
AcDbLine
 10
36.999999995469125
 20
26.60000000000025
 30
0.0
 11
36.999999995469125
 21
33.399999995469443
 31
0.0
  0
LINE
  5
E2
100
AcDbEntity
  8
0
  6
CONTINUOUS
 62
               4
100
AcDbLine
 10
35.800000000000523
 20
0.0000000000003411
 30
0.0
 11
35.799999999997681
 21
35.000000000002331
 31
0.0
  0
LINE
  5
E3
100
AcDbEntity
  8
0
  6
CONTINUOUS
 62
               4
100
AcDbLine
 10
0.0000000000004547
 20
5.9999999999979536
 30
0.0
 11
0.0000000000001421
 21
1.9999999915609692
 31
0.0
  0
LINE
  5
E4
100
AcDbEntity
  8
0
  6
CONTINUOUS
 62
               4
100
AcDbLine
 10
7.9999999999999716
 20
40.000000000000028
 30
0.0
 11
35.79999999999734
 21
40.000000000000341
 31
0.0
  0
LINE
  5
E5
100
AcDbEntity
  8
0
  6
CONTINUOUS
 62
               4
100
AcDbLine
 10
8.0
 20
40.0
 30
0.0
 11
8.0
 21
7.99999999999784
 31
0.0
  0
ARC
  5
E6
100
AcDbEntity
  8
0
  6
CONTINUOUS
 62
               4
100
AcDbCircle
 10
4.7999999999998408
 20
39.0
 30
0.0
 40
1.0
100
AcDbArc
 50
89.999999999999815
 51
179.99999999999963
  0
LINE
  5
E7
100
AcDbEntity
  8
0
  6
CONTINUOUS
 62
               4
100
AcDbLine
 10
3.7999999999999545
 20
33.000000000000114
 30
0.0
 11
3.7999999999998408
 21
39.0
 31
0.0
  0
LINE
  5
E8
100
AcDbEntity
  8
0
  6
DASHED
 62
             200
100
AcDbLine
 10
1.9999999999998863
 20
32.999999973150807
 30
0.0
 11
1.9999999999998863
 21
15.000000000000114
 31
0.0
  0
LINE
  5
E9
100
AcDbEntity
  8
0
  6
CONTINUOUS
 62
               4
100
AcDbLine
 10
0.9999999999998863
 20
32.500000000000114
 30
0.0
 11
0.9999999999998863
 21
16.500000000000114
 31
0.0
  0
LINE
  5
EA
100
AcDbEntity
  8
0
  6
CONTINUOUS
 62
               4
100
AcDbLine
 10
2.0000000000004547
 20
7.99999999999784
 30
0.0
 11
7.9999999999994316
 21
7.99999999999784
 31
0.0
  0
ARC
  5
EB
100
AcDbEntity
  8
0
  6
CONTINUOUS
 62
               4
100
AcDbCircle
 10
2.0000000000004547
 20
5.99999999999784
 30
0.0
 40
2.0
100
AcDbArc
 50
89.999999999999815
 51
179.99999999999963
  0
ARC
  5
EC
100
AcDbEntity
  8
0
  6
CONTINUOUS
 62
               4
100
AcDbCircle
 10
0.4999999999998863
 20
16.500000000000114
 30
0.0
 40
0.5
100
AcDbArc
 50
269.99999999999937
 51
0.0
  0
ARC
  5
ED
100
AcDbEntity
  8
0
  6
CONTINUOUS
 62
               4
100
AcDbCircle
 10
1.4999999999998863
 20
32.500000000000114
 30
0.0
 40
0.5
100
AcDbArc
 50
89.999999999999815
 51
179.99999999999963
  0
LINE
  5
EE
100
AcDbEntity
  8
0
  6
CONTINUOUS
 62
               4
100
AcDbLine
 10
36.899999995467397
 20
0.0000000000003411
 30
0.0
 11
36.89999999546626
 21
39.500000000000398
 31
0.0
  0
LINE
  5
EF
100
AcDbEntity
  8
0
  6
CONTINUOUS
 62
               4
100
AcDbLine
 10
35.799999999997567
 20
35.000000000002331
 30
0.0
 11
36.39999999999759
 21
35.000000000002387
 31
0.0
  0
LINE
  5
F0
100
AcDbEntity
  8
0
  6
CONTINUOUS
 62
               4
100
AcDbLine
 10
35.799999999997453
 20
38.000000000002331
 30
0.0
 11
36.399999999997362
 21
38.000000000002387
 31
0.0
  0
LINE
  5
F1
100
AcDbEntity
  8
0
  6
CONTINUOUS
 62
               4
100
AcDbLine
 10
35.799999999997453
 20
37.999999985762997
 30
0.0
 11
35.79999999999734
 21
39.99999998576294
 31
0.0
  0
ARC
  5
F2
100
AcDbEntity
  8
0
  6
CONTINUOUS
 62
               4
100
AcDbCircle
 10
36.399999999997362
 20
37.500000000002387
 30
0.0
 40
0.5
100
AcDbArc
 50
0.0000000000018066
 51
90.000000000001606
  0
ARC
  5
F3
100
AcDbEntity
  8
0
  6
CONTINUOUS
 62
               4
100
AcDbCircle
 10
36.399999999997476
 20
35.500000000002387
 30
0.0
 40
0.5
100
AcDbArc
 50
270.00000000000125
 51
0.000000000001832
  0
ARC
  5
F4
100
AcDbEntity
  8
0
  6
CONTINUOUS
 62
               4
100
AcDbCircle
 10
36.399999999997362
 20
39.500000000000398
 30
0.0
 40
0.5
100
AcDbArc
 50
0.0000000000006361
 51
90.000000000000441
  0
LINE
  5
F5
100
AcDbEntity
  8
0
  6
CONTINUOUS
 62
               4
100
AcDbLine
 10
35.79999999999734
 20
40.000000000000341
 30
0.0
 11
36.399999999997362
 21
40.000000000000398
 31
0.0
  0
LINE
  5
F6
100
AcDbEntity
  8
0
  6
CONTINUOUS
 62
               4
100
AcDbLine
 10
36.899999995466487
 20
34.900000000002365
 30
0.0
 11
35.799999999997681
 21
34.900000000002308
 31
0.0
  0
LINE
  5
F7
100
AcDbEntity
  8
0
  6
CONTINUOUS
 62
               4
100
AcDbLine
 10
36.899999995466374
 20
38.100000000002353
 30
0.0
 11
35.799999999996999
 21
38.100000000002296
 31
0.0
  0
LINE
  5
F8
100
AcDbEntity
  8
0
  6
CONTINUOUS
 62
               4
100
AcDbLine
 10
0.0
 20
0.0
 30
0.0
 11
35.800000000000523
 21
0.0000000000003411
 31
0.0
  0
ARC
  5
F9
100
AcDbEntity
  8
0
  6
CONTINUOUS
 62
               4
100
AcDbCircle
 10
6.3000000000002956
 20
7.5000000000001137
 30
0.0
 40
0.5
100
AcDbArc
 50
89.999999999999815
 51
179.99999999999963
  0
LINE
  5
FA
100
AcDbEntity
  8
0
  6
CONTINUOUS
 62
               4
100
AcDbLine
 10
0.5000000000002274
 20
5.7999999999997272
 30
0.0
 11
5.8000000000001819
 21
5.7999999999992724
 31
0.0
  0
LINE
  5
FB
100
AcDbEntity
  8
0
  6
CONTINUOUS
 62
               4
100
AcDbLine
 10
5.8000000000001819
 20
5.7999999999992724
 30
0.0
 11
5.8000000000002956
 21
7.5000000000001137
 31
0.0
  0
ARC
  5
FC
100
AcDbEntity
  8
0
  6
CONTINUOUS
 62
               4
100
AcDbCircle
 10
4.4499997929606252
 20
7.5937456130977807
 30
0.0
 40
0.800000011920929
100
AcDbArc
 50
359.99998201390565
 51
30.518595218099186
  0
LINE
  5
FD
100
AcDbEntity
  8
0
  6
CONTINUOUS
 62
               4
100
AcDbLine
 10
5.2499999836954885
 20
7.593745613097667
 30
0.0
 11
5.2499999836952611
 21
6.1999999999995907
 31
0.0
  0
LINE
  5
FE
100
AcDbEntity
  8
0
  6
CONTINUOUS
 62
               4
100
AcDbLine
 10
0.7499999836954885
 20
7.5612494865430335
 30
0.0
 11
0.7499999836952611
 21
6.1999999999995907
 31
0.0
  0
LINE
  5
FF
100
AcDbEntity
  8
0
  6
CONTINUOUS
 62
               4
100
AcDbLine
 10
0.7500000000001137
 20
6.8999999999995225
 30
0.0
 11
5.2500000000001137
 21
6.8999999999995225
 31
0.0
  0
LINE
  5
100
100
AcDbEntity
  8
0
  6
CONTINUOUS
 62
               4
100
AcDbLine
 10
0.5000000000001137
 20
6.5499999999994998
 30
0.0
 11
0.0771115476978821
 21
6.5499999999994998
 31
0.0
  0
LINE
  5
101
100
AcDbEntity
  8
0
  6
CONTINUOUS
 62
               4
100
AcDbLine
 10
0.5000000000001137
 20
4.7499999999995453
 30
0.0
 11
0.0
 21
4.7499999999995453
 31
0.0
  0
LINE
  5
102
100
AcDbEntity
  8
0
  6
CONTINUOUS
 62
               4
100
AcDbLine
 10
0.5000000000001137
 20
6.5499999999994998
 30
0.0
 11
0.5000000000001137
 21
6.199999999999477
 31
0.0
  0
LINE
  5
103
100
AcDbEntity
  8
0
  6
CONTINUOUS
 62
               4
100
AcDbLine
 10
0.5000000000001137
 20
4.7499999999995453
 30
0.0
 11
0.5000000000001137
 21
5.7999999999994998
 31
0.0
  0
LINE
  5
104
100
AcDbEntity
  8
0
  6
CONTINUOUS
 62
               4
100
AcDbLine
 10
5.5000000000001137
 20
5.7999999999994998
 30
0.0
 11
5.5000000000001137
 21
6.199999999999477
 31
0.0
  0
LINE
  5
105
100
AcDbEntity
  8
0
  6
CONTINUOUS
 62
               4
100
AcDbLine
 10
5.5000000000001137
 20
6.199999999999477
 30
0.0
 11
0.5000000000001137
 21
6.199999999999477
 31
0.0
  0
LINE
  5
106
100
AcDbEntity
  8
0
  6
CONTINUOUS
 62
               4
100
AcDbLine
 10
16.000000010098461
 20
55.552999999998065
 30
0.0
 11
15.053000010098572
 21
56.499999999998295
 31
0.0
  0
LINE
  5
107
100
AcDbEntity
  8
0
  6
CONTINUOUS
 62
               4
100
AcDbLine
 10
16.000000010096869
 20
45.44699999999807
 30
0.0
 11
15.053000010096753
 21
44.499999999998295
 31
0.0
  0
LINE
  5
108
100
AcDbEntity
  8
0
  6
CONTINUOUS
 62
               4
100
AcDbLine
 10
22.000000010096528
 20
43.499999999997158
 30
0.0
 11
21.500000010096528
 21
42.999999999997272
 31
0.0
  0
LINE
  5
109
100
AcDbEntity
  8
0
  6
CONTINUOUS
 62
               4
100
AcDbLine
 10
22.000000010098802
 20
57.499999999997272
 30
0.0
 11
21.500000010098802
 21
57.999999999997272
 31
0.0
  0
LINE
  5
10A
100
AcDbEntity
  8
0
  6
CONTINUOUS
 62
             200
100
AcDbLine
 10
16.000000010096869
 20
45.44699999999807
 30
0.0
 11
14.000000010096869
 21
45.446999999998525
 31
0.0
  0
LINE
  5
10B
100
AcDbEntity
  8
0
  6
CONTINUOUS
 62
               4
100
AcDbLine
 10
16.000000010098461
 20
55.552999999998065
 30
0.0
 11
17.000000010098461
 21
55.552999999997951
 31
0.0
  0
LINE
  5
10C
100
AcDbEntity
  8
0
  6
CONTINUOUS
 62
               4
100
AcDbLine
 10
3.0124882441414229
 20
57.357492927820431
 30
0.0
 11
0.7500000100984607
 21
55.500000000000455
 31
0.0
  0
LINE
  5
10D
100
AcDbEntity
  8
0
  6
CONTINUOUS
 62
               4
100
AcDbLine
 10
10.500000010097438
 20
48.499999999998977
 30
0.0
 11
5.5000000100974376
 21
48.499999999999773
 31
0.0
  0
LINE
  5
10E
100
AcDbEntity
  8
0
  6
CONTINUOUS
 62
               4
100
AcDbLine
 10
10.500000010097892
 20
52.499999999998977
 30
0.0
 11
5.5000000100978923
 21
52.499999999999773
 31
0.0
  0
ARC
  5
10F
100
AcDbEntity
  8
0
  6
CONTINUOUS
 62
               4
100
AcDbCircle
 10
5.5000000100972102
 20
47.999999999999773
 30
0.0
 40
1.0
100
AcDbArc
 50
179.99999999999079
 51
269.99999999999056
  0
ARC
  5
110
100
AcDbEntity
  8
0
  6
CONTINUOUS
 62
               4
100
AcDbCircle
 10
5.5000000100981197
 20
52.999999999999773
 30
0.0
 40
1.0
100
AcDbArc
 50
89.99999999999099
 51
179.99999999999079
  0
ARC
  5
111
100
AcDbEntity
  8
0
  6
CONTINUOUS
 62
               4
100
AcDbCircle
 10
10.50000001009721
 20
47.999999999998977
 30
0.0
 40
1.0
100
AcDbArc
 50
269.99999999999056
 51
359.99999999999039
  0
ARC
  5
112
100
AcDbEntity
  8
0
  6
CONTINUOUS
 62
               4
100
AcDbCircle
 10
10.50000001009812
 20
52.999999999998977
 30
0.0
 40
1.0
100
AcDbArc
 50
359.99999999999039
 51
89.99999999999099
  0
LINE
  5
113
100
AcDbEntity
  8
0
  6
CONTINUOUS
 62
               4
100
AcDbLine
 10
4.5000000100972102
 20
47.999999999999886
 30
0.0
 11
4.5000000100981197
 21
52.999999999999886
 31
0.0
  0
LINE
  5
114
100
AcDbEntity
  8
0
  6
CONTINUOUS
 62
               4
100
AcDbLine
 10
11.50000001009721
 20
47.999999999998863
 30
0.0
 11
11.50000001009812
 21
52.999999999998863
 31
0.0
  0
LINE
  5
115
100
AcDbEntity
  8
0
  6
CONTINUOUS
 62
               4
100
AcDbLine
 10
10.50000001009721
 20
46.999999999998977
 30
0.0
 11
5.5000000100972102
 21
46.999999999999773
 31
0.0
  0
LINE
  5
116
100
AcDbEntity
  8
0
  6
CONTINUOUS
 62
               4
100
AcDbLine
 10
10.500000010098233
 20
53.999999999998977
 30
0.0
 11
5.5000000100982334
 21
53.999999999999773
 31
0.0
  0
ARC
  5
117
100
AcDbEntity
  8
0
  6
CONTINUOUS
 62
               4
100
AcDbCircle
 10
0.2500000100959596
 20
39.500000000000568
 30
0.0
 40
0.5
100
AcDbArc
 50
269.99999999999056
 51
359.99999999999039
  0
ARC
  5
118
100
AcDbEntity
  8
0
  6
CONTINUOUS
 62
               4
100
AcDbCircle
 10
0.2500000100976649
 20
50.500000000000568
 30
0.0
 40
0.5
100
AcDbArc
 50
359.99999999999039
 51
89.99999999999099
  0
LINE
  5
119
100
AcDbEntity
  8
0
  6
CONTINUOUS
 62
               4
100
AcDbLine
 10
0.7500000100959596
 20
39.500000000000455
 30
0.0
 11
0.7500000100976649
 21
50.500000000000455
 31
0.0
  0
LINE
  5
11A
100
AcDbEntity
  8
0
  6
CONTINUOUS
 62
               4
100
AcDbLine
 10
22.000000022859354
 20
43.999999999997272
 30
0.0
 11
17.000000010096642
 21
43.999999999997954
 31
0.0
  0
LINE
  5
11B
100
AcDbEntity
  8
0
  6
CONTINUOUS
 62
               4
100
AcDbLine
 10
22.000000010096983
 20
45.749999999997272
 30
0.0
 11
17.000000010096983
 21
45.749999999997954
 31
0.0
  0
LINE
  5
11C
100
AcDbEntity
  8
0
  6
CONTINUOUS
 62
               4
100
AcDbLine
 10
21.544286638977837
 20
46.749999999997272
 30
0.0
 11
17.349826797637434
 21
46.749999999997954
 31
0.0
  0
LINE
  5
11D
100
AcDbEntity
  8
0
  6
CONTINUOUS
 62
               4
100
AcDbLine
 10
22.000000022860149
 20
48.749999999997272
 30
0.0
 11
17.000000010097438
 21
48.749999999997954
 31
0.0
  0
LINE
  5
11E
100
AcDbEntity
  8
0
  6
CONTINUOUS
 62
               4
100
AcDbLine
 10
22.000000022860604
 20
52.249999999997272
 30
0.0
 11
17.000000010097892
 21
52.249999999997954
 31
0.0
  0
LINE
  5
11F
100
AcDbEntity
  8
0
  6
CONTINUOUS
 62
               4
100
AcDbLine
 10
21.544286638978974
 20
54.249999999997272
 30
0.0
 11
17.349826797638684
 21
54.249999999997954
 31
0.0
  0
LINE
  5
120
100
AcDbEntity
  8
0
  6
CONTINUOUS
 62
               4
100
AcDbLine
 10
22.000000022861059
 20
55.249999999997272
 30
0.0
 11
17.000000010098347
 21
55.249999999997954
 31
0.0
  0
LINE
  5
121
100
AcDbEntity
  8
0
  6
CONTINUOUS
 62
               4
100
AcDbLine
 10
22.0000000228614
 20
56.999999999997272
 30
0.0
 11
17.000000010098688
 21
56.999999999997954
 31
0.0
  0
ARC
  5
122
100
AcDbEntity
  8
0
  6
CONTINUOUS
 62
               4
100
AcDbCircle
 10
2.5000000100960733
 20
40.514702703390299
 30
0.0
 40
1.0
100
AcDbArc
 50
358.31531568209414
 51
359.99999999999039
  0
LINE
  5
123
100
AcDbEntity
  8
0
  6
CONTINUOUS
 62
               4
100
AcDbLine
 10
3.4995677645604246
 20
40.485303651788172
 30
0.0
 11
3.2794117748009057
 21
33.000000000000114
 31
0.0
  0
ARC
  5
124
100
AcDbEntity
  8
0
  6
CONTINUOUS
 62
               4
100
AcDbCircle
 10
3.000000010098347
 20
55.000000000000114
 30
0.0
 40
0.5
100
AcDbArc
 50
359.99999999999039
 51
89.99999999999099
  0
LINE
  5
125
100
AcDbEntity
  8
0
  6
CONTINUOUS
 62
               4
100
AcDbLine
 10
3.5000000100960733
 20
40.514702703390071
 30
0.0
 11
3.500000010098347
 21
55.0
 31
0.0
  0
LINE
  5
126
100
AcDbEntity
  8
0
  6
CENTER
 62
             200
100
AcDbLine
 10
25.733153595186309
 20
50.499999999996589
 30
0.0
 11
11.96018732608411
 21
50.499999999998749
 31
0.0
  0
LINE
  5
127
100
AcDbEntity
  8
0
  6
CONTINUOUS
 62
               4
100
AcDbLine
 10
17.000000010096869
 20
45.446999999997956
 30
0.0
 11
16.000000010096869
 21
45.44699999999807
 31
0.0
  0
LINE
  5
128
100
AcDbEntity
  8
0
  6
CONTINUOUS
 62
             200
100
AcDbLine
 10
14.000000010098461
 20
55.552999999998519
 30
0.0
 11
16.000000010098461
 21
55.552999999998065
 31
0.0
  0
LINE
  5
129
100
AcDbEntity
  8
0
  6
CONTINUOUS
 62
               4
100
AcDbLine
 10
15.053000010096753
 20
44.499999999998295
 30
0.0
 11
14.000000010096755
 21
44.499999999998408
 31
0.0
  0
LINE
  5
12A
100
AcDbEntity
  8
0
  6
CONTINUOUS
 62
               4
100
AcDbLine
 10
15.053000010098572
 20
56.499999999998295
 30
0.0
 11
14.000000010098574
 21
56.499999999998408
 31
0.0
  0
LINE
  5
12B
100
AcDbEntity
  8
0
  6
CONTINUOUS
 62
               4
100
AcDbLine
 10
16.000000010098461
 20
55.552999999998065
 30
0.0
 11
16.000000010096869
 21
45.44699999999807
 31
0.0
  0
LINE
  5
12C
100
AcDbEntity
  8
0
  6
CONTINUOUS
 62
               4
100
AcDbLine
 10
17.000000010096528
 20
42.99999998606927
 30
0.0
 11
17.000000010098802
 21
57.99999998606927
 31
0.0
  0
LINE
  5
12D
100
AcDbEntity
  8
0
  6
CONTINUOUS
 62
               4
100
AcDbLine
 10
21.500000010096528
 20
42.999999999997272
 30
0.0
 11
17.000000010096528
 21
42.999999999997954
 31
0.0
  0
LINE
  5
12E
100
AcDbEntity
  8
0
  6
CONTINUOUS
 62
               4
100
AcDbLine
 10
22.000000010096528
 20
43.499999999997158
 30
0.0
 11
22.000000010098802
 21
57.499999999997272
 31
0.0
  0
ARC
  5
12F
100
AcDbEntity
  8
0
  6
CONTINUOUS
 62
               4
100
AcDbCircle
 10
3.5269839960560603
 20
56.5
 30
0.0
 40
1.0
100
AcDbArc
 50
89.99999999999099
 51
120.96375629734288
  0
ARC
  5
130
100
AcDbEntity
  8
0
  6
CONTINUOUS
 62
               4
100
AcDbCircle
 10
13.000000010098574
 20
56.499999999998636
 30
0.0
 40
1.0
100
AcDbArc
 50
359.99999999999119
 51
89.99999999999099
  0
ARC
  5
131
100
AcDbEntity
  8
0
  6
CONTINUOUS
 62
               4
100
AcDbCircle
 10
13.000000010096755
 20
44.499999999998636
 30
0.0
 40
1.0
100
AcDbArc
 50
269.99999999999056
 51
359.99999999999039
  0
LINE
  5
132
100
AcDbEntity
  8
0
  6
CONTINUOUS
 62
               4
100
AcDbLine
 10
13.000000010096528
 20
43.499999999998636
 30
0.0
 11
3.5000000100965281
 21
43.5
 31
0.0
  0
LINE
  5
133
100
AcDbEntity
  8
0
  6
CONTINUOUS
 62
               4
100
AcDbLine
 10
13.000000010098802
 20
57.499999999998636
 30
0.0
 11
3.526983996056174
 21
57.5
 31
0.0
  0
LINE
  5
134
100
AcDbEntity
  8
0
  6
CONTINUOUS
 62
               4
100
AcDbLine
 10
14.000000010096755
 20
44.499999986069724
 30
0.0
 11
14.000000010098574
 21
56.499999999998408
 31
0.0
  0
LINE
  5
135
100
AcDbEntity
  8
0
  6
CONTINUOUS
 62
               4
100
AcDbLine
 10
21.500000010098802
 20
57.999999999997272
 30
0.0
 11
17.000000010098802
 21
57.999999999997954
 31
0.0
  0
LINE
  5
136
100
AcDbEntity
  8
0
  6
CONTINUOUS
 62
               4
100
AcDbLine
 10
0.0000000000001421
 20
1.9999999915609692
 30
0.0
 11
0.0
 21
0.0
 31
0.0
  0
ENDBLK
  5
137
100
AcDbEntity
  8
0
100
AcDbBlockEnd
  0
BLOCK
  5
138
100
AcDbEntity
  8
0
100
AcDbBlockBegin
  2
PA24A6-3
 70
               0
 10
0.0
 20
0.0
 30
0.0
  3
PA24A6-3
  1

  0
LINE
  5
139
100
AcDbEntity
  8
0
  6
CONTINUOUS
 62
               4
100
AcDbLine
 10
-11.900000021647884
 20
0.0
 30
0.0
 11
11.899999999998272
 21
0.0
 31
0.0
  0
LINE
  5
13A
100
AcDbEntity
  8
0
  6
DASHED
 62
             200
100
AcDbLine
 10
-9.9000000129383352
 20
15.00000000000432
 30
0.0
 11
-10.899999999999409
 21
15.00000000000432
 31
0.0
  0
LINE
  5
13B
100
AcDbEntity
  8
0
  6
DASHED
 62
             200
100
AcDbLine
 10
-9.8999999999994088
 20
15.00000000000432
 30
0.0
 11
-9.9000000000003183
 21
33.000000000010004
 31
0.0
  0
LINE
  5
13C
100
AcDbEntity
  8
0
  6
DASHED
 62
             200
100
AcDbLine
 10
-10.899999999999409
 20
15.00000000000432
 30
0.0
 11
-10.900000000000318
 21
33.000000000009948
 31
0.0
  0
LINE
  5
13D
100
AcDbEntity
  8
0
  6
DASHED
 62
             200
100
AcDbLine
 10
-10.899999999999409
 20
16.00000000000432
 30
0.0
 11
-11.900000012938335
 21
16.00000000000432
 31
0.0
  0
LINE
  5
13E
100
AcDbEntity
  8
0
  6
CONTINUOUS
 62
               4
100
AcDbLine
 10
7.75
 20
39.999999991574441
 30
0.0
 11
10.900000000000546
 21
39.999999991574271
 31
0.0
  0
LINE
  5
13F
100
AcDbEntity
  8
0
  6
CONTINUOUS
 62
               4
100
AcDbLine
 10
-8.1000000000015007
 20
3.000000000013415
 30
0.0
 11
-8.1000000000010459
 21
11.499999991562447
 31
0.0
  0
ARC
  5
140
100
AcDbEntity
  8
0
  6
CONTINUOUS
 62
               4
100
AcDbCircle
 10
-7.1000000000015007
 20
3.0000000000133014
 30
0.0
 40
1.0
100
AcDbArc
 50
179.99999999999653
 51
269.99999999999636
  0
LINE
  5
141
100
AcDbEntity
  8
0
  6
CONTINUOUS
 62
               4
100
AcDbLine
 10
-11.900000000001683
 20
0.0
 30
0.0
 11
-11.900000000001569
 21
3.0000000000135287
 31
0.0
  0
LINE
  5
142
100
AcDbEntity
  8
0
  6
CONTINUOUS
 62
               4
100
AcDbLine
 10
11.899999999998272
 20
0.0
 30
0.0
 11
11.899999999998442
 21
3.0000000000122782
 31
0.0
  0
LINE
  5
143
100
AcDbEntity
  8
0
  6
CONTINUOUS
 62
               4
100
AcDbLine
 10
-10.900000000001683
 20
2.0000000000134719
 30
0.0
 11
10.899999999998272
 21
2.000000000012335
 31
0.0
  0
LINE
  5
144
100
AcDbEntity
  8
0
  6
CONTINUOUS
 62
               4
100
AcDbLine
 10
-7.7000000000000455
 20
31.000000000010971
 30
0.0
 11
7.7000000000000455
 21
31.000000000010175
 31
0.0
  0
LINE
  5
145
100
AcDbEntity
  8
0
  6
CONTINUOUS
 62
               4
100
AcDbLine
 10
-10.899999999999636
 20
39.999999991575351
 30
0.0
 11
-7.75
 21
39.99999999157518
 31
0.0
  0
ARC
  5
146
100
AcDbEntity
  8
0
  6
CONTINUOUS
 62
               4
100
AcDbCircle
 10
-10.899999999999636
 20
38.999999991575351
 30
0.0
 40
1.0
100
AcDbArc
 50
90.000000000002316
 51
180.0000000000021
  0
ARC
  5
147
100
AcDbEntity
  8
0
  6
CONTINUOUS
 62
               4
100
AcDbCircle
 10
10.900000000000318
 20
38.999999991574271
 30
0.0
 40
1.0
100
AcDbArc
 50
0.000000000002519
 51
90.000000000002316
  0
ARC
  5
148
100
AcDbEntity
  8
0
  6
CONTINUOUS
 62
               4
100
AcDbCircle
 10
-10.900000000001455
 20
3.0000000000134719
 30
0.0
 40
1.0
100
AcDbArc
 50
180.0000000000021
 51
270.00000000000193
  0
ARC
  5
149
100
AcDbEntity
  8
0
  6
CONTINUOUS
 62
               4
100
AcDbCircle
 10
10.899999999998499
 20
3.000000000012335
 30
0.0
 40
1.0
100
AcDbArc
 50
270.00000000000193
 51
0.0000000000025444
  0
LINE
  5
14A
100
AcDbEntity
  8
0
  6
CONTINUOUS
 62
               4
100
AcDbLine
 10
7.0999999953266979
 20
12.000000000001876
 30
0.0
 11
-7.1000000000019554
 21
12.000000000001307
 31
0.0
  0
LINE
  5
14B
100
AcDbEntity
  8
0
  6
CONTINUOUS
 62
               4
100
AcDbLine
 10
-7.7000000000000455
 20
31.000000000010971
 30
0.0
 11
-7.7000000000000455
 21
33.000000000010971
 31
0.0
  0
LINE
  5
14C
100
AcDbEntity
  8
0
  6
CONTINUOUS
 62
               4
100
AcDbLine
 10
-11.400000000000091
 20
33.000000000011084
 30
0.0
 11
-7.7000000000000455
 21
33.000000000010971
 31
0.0
  0
ARC
  5
14D
100
AcDbEntity
  8
0
  6
CONTINUOUS
 62
               4
100
AcDbCircle
 10
-11.399999999999864
 20
32.500000000011084
 30
0.0
 40
0.5
100
AcDbArc
 50
90.000000000002316
 51
180.0000000000021
  0
LINE
  5
14E
100
AcDbEntity
  8
0
  6
CONTINUOUS
 62
               4
100
AcDbLine
 10
11.400000000000091
 20
33.000000000009891
 30
0.0
 11
7.7000000000000455
 21
33.000000000010118
 31
0.0
  0
LINE
  5
14F
100
AcDbEntity
  8
0
  6
CONTINUOUS
 62
               4
100
AcDbLine
 10
7.7000000000000455
 20
31.000000000010118
 30
0.0
 11
7.7000000000000455
 21
33.000000000010118
 31
0.0
  0
LINE
  5
150
100
AcDbEntity
  8
0
  6
CONTINUOUS
 62
               4
100
AcDbLine
 10
-10.899999998982821
 20
11.999999991562447
 30
0.0
 11
-8.5999999870618922
 21
11.999999991562447
 31
0.0
  0
ARC
  5
151
100
AcDbEntity
  8
0
  6
CONTINUOUS
 62
               4
100
AcDbCircle
 10
-8.6000000000012733
 20
11.499999991562447
 30
0.0
 40
0.5
100
AcDbArc
 50
0.0
 51
89.999999999999815
  0
ARC
  5
152
100
AcDbEntity
  8
0
  6
CONTINUOUS
 62
               4
100
AcDbCircle
 10
-10.900000000001
 20
12.999999991562447
 30
0.0
 40
1.0
100
AcDbArc
 50
179.99999999999963
 51
269.99999999999937
  0
ARC
  5
153
100
AcDbEntity
  8
0
  6
CONTINUOUS
 62
               4
100
AcDbCircle
 10
7.0999999999983174
 20
3.0000000000125624
 30
0.0
 40
1.0
100
AcDbArc
 50
269.99999999999636
 51
359.99999999999608
  0
ARC
  5
154
100
AcDbEntity
  8
0
  6
CONTINUOUS
 62
               4
100
AcDbCircle
 10
10.899999999998954
 20
12.99999999156131
 30
0.0
 40
1.0
100
AcDbArc
 50
269.99999999999318
 51
359.99999999999301
  0
ARC
  5
155
100
AcDbEntity
  8
0
  6
CONTINUOUS
 62
               4
100
AcDbCircle
 10
8.5999999999989996
 20
11.499999991561538
 30
0.0
 40
0.5
100
AcDbArc
 50
89.999999999993619
 51
179.99999999999341
  0
LINE
  5
156
100
AcDbEntity
  8
0
  6
CONTINUOUS
 62
               4
100
AcDbLine
 10
10.899999998980547
 20
11.99999999156131
 30
0.0
 11
8.5999999870596184
 21
11.999999991561538
 31
0.0
  0
LINE
  5
157
100
AcDbEntity
  8
0
  6
CONTINUOUS
 62
               4
100
AcDbLine
 10
8.0999999999983174
 20
3.0000000000125624
 30
0.0
 11
8.0999999999989996
 21
11.499999991561594
 31
0.0
  0
ARC
  5
158
100
AcDbEntity
  8
0
  6
CONTINUOUS
 62
               4
100
AcDbCircle
 10
11.400000000000091
 20
32.500000000009891
 30
0.0
 40
0.5
100
AcDbArc
 50
0.0
 51
89.999999999999815
  0
LINE
  5
159
100
AcDbEntity
  8
0
  6
DASHED
 62
             200
100
AcDbLine
 10
9.8999999999991815
 20
15.00000000000432
 30
0.0
 11
9.9000000000000909
 21
33.000000000010004
 31
0.0
  0
LINE
  5
15A
100
AcDbEntity
  8
0
  6
DASHED
 62
             200
100
AcDbLine
 10
10.899999999999181
 20
15.00000000000432
 30
0.0
 11
10.900000000000091
 21
33.000000000009948
 31
0.0
  0
LINE
  5
15B
100
AcDbEntity
  8
0
  6
DASHED
 62
             200
100
AcDbLine
 10
9.9000000129381078
 20
15.00000000000432
 30
0.0
 11
10.899999999999181
 21
15.00000000000432
 31
0.0
  0
LINE
  5
15C
100
AcDbEntity
  8
0
  6
DASHED
 62
             200
100
AcDbLine
 10
10.899999999999181
 20
16.00000000000432
 30
0.0
 11
11.900000012938108
 21
16.00000000000432
 31
0.0
  0
LINE
  5
15D
100
AcDbEntity
  8
0
  6
CONTINUOUS
 62
               4
100
AcDbLine
 10
7.75
 20
40.514702703400644
 30
0.0
 11
7.75
 21
55.000000000010573
 31
0.0
  0
LINE
  5
15E
100
AcDbEntity
  8
0
  6
CONTINUOUS
 62
               4
100
AcDbLine
 10
-7.75
 20
40.514702703400701
 30
0.0
 11
-7.75
 21
55.000000000010573
 31
0.0
  0
LINE
  5
15F
100
AcDbEntity
  8
0
  6
CONTINUOUS
 62
               4
100
AcDbLine
 10
0.0
 20
58.000000000010573
 30
0.0
 11
0.9872025991885494
 21
57.430038313624379
 31
0.0
  0
LINE
  5
160
100
AcDbEntity
  8
0
  6
CONTINUOUS
 62
               4
100
AcDbLine
 10
0.0
 20
58.000000000010573
 30
0.0
 11
-0.9872025991885494
 21
57.430038313624379
 31
0.0
  0
ARC
  5
161
100
AcDbEntity
  8
0
  6
CONTINUOUS
 62
               4
100
AcDbCircle
 10
0.0
 20
50.500000000010573
 30
0.0
 40
7.0
100
AcDbArc
 50
45.584691402806847
 51
134.41530859719276
  0
LINE
  5
162
100
AcDbEntity
  8
0
  6
CONTINUOUS
 62
               4
100
AcDbLine
 10
-7.25
 20
55.500000000010573
 30
0.0
 11
7.25
 21
55.500000000010573
 31
0.0
  0
ARC
  5
163
100
AcDbEntity
  8
0
  6
CONTINUOUS
 62
               4
100
AcDbCircle
 10
-7.25
 20
55.000000000010573
 30
0.0
 40
0.5
100
AcDbArc
 50
89.999999999999815
 51
179.99999999999963
  0
ARC
  5
164
100
AcDbEntity
  8
0
  6
CONTINUOUS
 62
               4
100
AcDbCircle
 10
7.25
 20
55.000000000010573
 30
0.0
 40
0.5
100
AcDbArc
 50
0.0
 51
89.999999999999815
  0
LINE
  5
165
100
AcDbEntity
  8
0
  6
CONTINUOUS
 62
               4
100
AcDbLine
 10
7.7495677544643513
 20
40.485303651798745
 30
0.0
 11
7.5
 21
32.000000000010573
 31
0.0
  0
LINE
  5
166
100
AcDbEntity
  8
0
  6
CONTINUOUS
 62
               4
100
AcDbLine
 10
-7.7495677544643513
 20
40.485303651798802
 30
0.0
 11
-7.5
 21
32.000000000010573
 31
0.0
  0
LINE
  5
167
100
AcDbEntity
  8
0
  6
CONTINUOUS
 62
               4
100
AcDbLine
 10
7.5
 20
32.000000000010573
 30
0.0
 11
7.5
 21
31.000000000010573
 31
0.0
  0
LINE
  5
168
100
AcDbEntity
  8
0
  6
CONTINUOUS
 62
               4
100
AcDbLine
 10
-7.5
 20
32.000000000010573
 30
0.0
 11
-7.5
 21
31.000000000010573
 31
0.0
  0
LINE
  5
169
100
AcDbEntity
  8
0
  6
CONTINUOUS
 62
               4
100
AcDbLine
 10
-7.5
 20
32.000000000010573
 30
0.0
 11
7.5
 21
32.000000000010573
 31
0.0
  0
ARC
  5
16A
100
AcDbEntity
  8
0
  6
CONTINUOUS
 62
               4
100
AcDbCircle
 10
6.75
 20
40.514702703400644
 30
0.0
 40
1.0
100
AcDbArc
 50
358.31531568210374
 51
0.0
  0
ARC
  5
16B
100
AcDbEntity
  8
0
  6
CONTINUOUS
 62
               4
100
AcDbCircle
 10
-6.75
 20
40.514702703400701
 30
0.0
 40
1.0
100
AcDbArc
 50
179.99999999999963
 51
181.68468431789586
  0
LINE
  5
16C
100
AcDbEntity
  8
0
  6
CENTER
 62
             200
100
AcDbLine
 10
0.0
 20
-1.9378686718034146
 30
0.0
 11
0.0
 21
60.661108033251594
 31
0.0
  0
LINE
  5
16D
100
AcDbEntity
  8
0
  6
CENTER
 62
             200
100
AcDbLine
 10
-10.28077562326871
 20
50.500000000010573
 30
0.0
 11
10.493518005539954
 21
50.500000000010573
 31
0.0
  0
LINE
  5
16E
100
AcDbEntity
  8
0
  6
CONTINUOUS
 62
               4
100
AcDbLine
 10
11.899999999998442
 20
3.0000000000122782
 30
0.0
 11
11.900000000000318
 21
38.999999991574157
 31
0.0
  0
LINE
  5
16F
100
AcDbEntity
  8
0
  6
CONTINUOUS
 62
               4
100
AcDbLine
 10
-11.900000000001569
 20
3.0000000000135287
 30
0.0
 11
-11.899999999999636
 21
38.999999991575351
 31
0.0
  0
ENDBLK
  5
170
100
AcDbEntity
  8
0
100
AcDbBlockEnd
  0
BLOCK
  5
171
100
AcDbEntity
  8
0
100
AcDbBlockBegin
  2
PA24A6-4
 70
               0
 10
0.0
 20
0.0
 30
0.0
  3
PA24A6-4
  1

  0
LINE
  5
172
100
AcDbEntity
  8
0
  6
CONTINUOUS
 62
               4
100
AcDbLine
 10
7.8999999999971351
 20
40.000000000000057
 30
0.0
 11
35.799999999997226
 21
40.000000000000313
 31
0.0
  0
LINE
  5
173
100
AcDbEntity
  8
0
  6
CONTINUOUS
 62
               4
100
AcDbLine
 10
36.999999995466169
 20
26.60000000000025
 30
0.0
 11
36.999999995466169
 21
33.399999995469557
 31
0.0
  0
LINE
  5
174
100
AcDbEntity
  8
0
  6
CONTINUOUS
 62
               4
100
AcDbLine
 10
35.800000000000679
 20
0.0000000000003411
 30
0.0
 11
35.799999999997567
 21
35.000000000002274
 31
0.0
  0
LINE
  5
175
100
AcDbEntity
  8
0
  6
CONTINUOUS
 62
               4
100
AcDbLine
 10
0.0
 20
0.0
 30
0.0
 11
35.800000000000679
 21
0.0000000000003411
 31
0.0
  0
LINE
  5
176
100
AcDbEntity
  8
0
  6
CONTINUOUS
 62
               4
100
AcDbLine
 10
36.89999999546626
 20
38.100000000002325
 30
0.0
 11
35.799999999996999
 21
38.100000000002268
 31
0.0
  0
LINE
  5
177
100
AcDbEntity
  8
0
  6
CONTINUOUS
 62
               4
100
AcDbLine
 10
36.899999995466374
 20
34.900000000002365
 30
0.0
 11
35.799999999997567
 21
34.900000000002251
 31
0.0
  0
LINE
  5
178
100
AcDbEntity
  8
0
  6
CONTINUOUS
 62
               4
100
AcDbLine
 10
35.799999999997226
 20
40.000000000000313
 30
0.0
 11
36.399999999997249
 21
40.000000000000369
 31
0.0
  0
ARC
  5
179
100
AcDbEntity
  8
0
  6
CONTINUOUS
 62
               4
100
AcDbCircle
 10
36.399999999997249
 20
39.500000000000369
 30
0.0
 40
0.5
100
AcDbArc
 50
0.0000000000006361
 51
90.000000000000441
  0
LINE
  5
17A
100
AcDbEntity
  8
0
  6
CONTINUOUS
 62
               4
100
AcDbLine
 10
36.899999990935385
 20
33.500000000000341
 30
0.0
 11
36.999999995466169
 21
33.399999995469557
 31
0.0
  0
LINE
  5
17B
100
AcDbEntity
  8
0
  6
CONTINUOUS
 62
               4
100
AcDbLine
 10
36.999999995466283
 20
26.600000000000364
 30
0.0
 11
36.89999999546626
 21
26.500000000000341
 31
0.0
  0
ARC
  5
17C
100
AcDbEntity
  8
0
  6
CONTINUOUS
 62
               4
100
AcDbCircle
 10
36.399999999997362
 20
35.500000000002387
 30
0.0
 40
0.5
100
AcDbArc
 50
270.00000000000125
 51
0.000000000001832
  0
ARC
  5
17D
100
AcDbEntity
  8
0
  6
CONTINUOUS
 62
               4
100
AcDbCircle
 10
36.399999999997362
 20
37.500000000002359
 30
0.0
 40
0.5
100
AcDbArc
 50
0.0000000000018066
 51
90.000000000001606
  0
LINE
  5
17E
100
AcDbEntity
  8
0
  6
CONTINUOUS
 62
               4
100
AcDbLine
 10
35.79999999999734
 20
37.999999985762969
 30
0.0
 11
35.799999999997226
 21
39.999999985762912
 31
0.0
  0
LINE
  5
17F
100
AcDbEntity
  8
0
  6
CONTINUOUS
 62
               4
100
AcDbLine
 10
35.79999999999734
 20
38.000000000002302
 30
0.0
 11
36.399999999997249
 21
38.000000000002359
 31
0.0
  0
LINE
  5
180
100
AcDbEntity
  8
0
  6
CONTINUOUS
 62
               4
100
AcDbLine
 10
35.799999999997453
 20
35.000000000002274
 30
0.0
 11
36.39999999999759
 21
35.000000000002387
 31
0.0
  0
LINE
  5
181
100
AcDbEntity
  8
0
  6
CONTINUOUS
 62
               4
100
AcDbLine
 10
4.899999999996453
 20
40.000000000000028
 30
0.0
 11
7.8999999999971351
 21
40.000000000000057
 31
0.0
  0
LINE
  5
182
100
AcDbEntity
  8
0
  6
CONTINUOUS
 62
               4
100
AcDbLine
 10
2.0000000000007958
 20
8.1160795923631213
 30
0.0
 11
2.0000000000007958
 21
8.2000000093930794
 31
0.0
  0
ARC
  5
183
100
AcDbEntity
  8
0
  6
CONTINUOUS
 62
               4
100
AcDbCircle
 10
-4.9124889263644036
 20
11.499999999999204
 30
0.0
 40
0.5
100
AcDbArc
 50
89.999999999999815
 51
194.99999999999952
  0
ARC
  5
184
100
AcDbEntity
  8
0
  6
CONTINUOUS
 62
               4
100
AcDbCircle
 10
6.9000000000123691
 20
13.299999999999727
 30
0.0
 40
1.0
100
AcDbArc
 50
197.45760312372443
 51
0.0000000000081422
  0
ARC
  5
185
100
AcDbEntity
  8
0
  6
CONTINUOUS
 62
               4
100
AcDbCircle
 10
-3.7785677023342714
 20
9.2000000093955805
 30
0.0
 40
1.0
100
AcDbArc
 50
194.99999981259796
 51
269.99999999999937
  0
ARC
  5
186
100
AcDbEntity
  8
0
  6
CONTINUOUS
 62
               4
100
AcDbCircle
 10
7.4000000000120281
 20
13.499999999999773
 30
0.0
 40
0.5
100
AcDbArc
 50
270.00000000000193
 51
0.0000000000025444
  0
LINE
  5
187
100
AcDbEntity
  8
0
  6
CONTINUOUS
 62
               4
100
AcDbLine
 10
-3.7785677023334756
 20
8.2000000093929657
 30
0.0
 11
7.1000000000033197
 21
8.2000000093931931
 31
0.0
  0
LINE
  5
188
100
AcDbEntity
  8
0
  6
CONTINUOUS
 62
               4
100
AcDbLine
 10
-4.9124889263644036
 20
11.999999999999204
 30
0.0
 11
7.1000000000026375
 21
11.999999999999659
 31
0.0
  0
LINE
  5
189
100
AcDbEntity
  8
0
  6
CONTINUOUS
 62
               4
100
AcDbLine
 10
0.500000000001819
 20
11.999999999999432
 30
0.0
 11
0.500000000001819
 21
12.999999999999432
 31
0.0
  0
LINE
  5
18A
100
AcDbEntity
  8
0
  6
CONTINUOUS
 62
               4
100
AcDbLine
 10
1.500000000001819
 20
11.999999999999432
 30
0.0
 11
1.500000000001819
 21
12.999999999999432
 31
0.0
  0
LINE
  5
18B
100
AcDbEntity
  8
0
  6
CONTINUOUS
 62
               4
100
AcDbLine
 10
7.6000000000033197
 20
8.7000000093933068
 30
0.0
 11
7.6000000000026375
 21
11.499999999999773
 31
0.0
  0
ARC
  5
18C
100
AcDbEntity
  8
0
  6
CONTINUOUS
 62
               4
100
AcDbCircle
 10
7.1000000000026375
 20
11.499999999999659
 30
0.0
 40
0.5
100
AcDbArc
 50
0.000000000002519
 51
90.000000000002316
  0
ARC
  5
18D
100
AcDbEntity
  8
0
  6
CONTINUOUS
 62
               4
100
AcDbCircle
 10
7.1000000000033197
 20
8.7000000093931931
 30
0.0
 40
0.5
100
AcDbArc
 50
270.00000000000267
 51
0.0000000000025444
  0
LINE
  5
18E
100
AcDbEntity
  8
0
  6
CONTINUOUS
 62
               4
100
AcDbLine
 10
-0.0000000000002984
 20
0.0
 30
0.0
 11
0.0000000000002274
 21
5.299999999999045
 31
0.0
  0
LINE
  5
18F
100
AcDbEntity
  8
0
  6
CONTINUOUS
 62
               4
100
AcDbLine
 10
5.0
 20
8.2000000093935341
 30
0.0
 11
5.0
 21
8.0
 31
0.0
  0
LINE
  5
190
100
AcDbEntity
  8
0
  6
CONTINUOUS
 62
               4
100
AcDbLine
 10
0.7500000000001137
 20
6.4999999999989768
 30
0.0
 11
5.2500000000001137
 21
6.4999999999986358
 31
0.0
  0
LINE
  5
191
100
AcDbEntity
  8
0
  6
CONTINUOUS
 62
               4
100
AcDbLine
 10
3.100000000007185
 20
11.999999999999886
 30
0.0
 11
3.6535533905939701
 21
12.553553390586671
 31
0.0
  0
LINE
  5
192
100
AcDbEntity
  8
0
  6
CONTINUOUS
 62
               4
100
AcDbLine
 10
5.8000000000001819
 20
12.199999991713753
 30
0.0
 11
5.8000000000001819
 21
12.699999999993679
 31
0.0
  0
LINE
  5
193
100
AcDbEntity
  8
0
  6
CONTINUOUS
 62
               4
100
AcDbLine
 10
4.0071067811870762
 20
12.699999999993338
 30
0.0
 11
5.8000000000001819
 21
12.699999999993679
 31
0.0
  0
LINE
  5
194
100
AcDbEntity
  8
0
  6
CONTINUOUS
 62
               4
100
AcDbLine
 10
5.8000000000001819
 20
12.199999999993679
 30
0.0
 11
7.9000000000002046
 21
12.199999999993906
 31
0.0
  0
LINE
  5
195
100
AcDbEntity
  8
0
  6
CONTINUOUS
 62
               4
100
AcDbLine
 10
0.7500000000002274
 20
7.193745613096894
 30
0.0
 11
0.7500000000001137
 21
5.7999999999988177
 31
0.0
  0
LINE
  5
196
100
AcDbEntity
  8
0
  6
CONTINUOUS
 62
               4
100
AcDbLine
 10
5.2500000000002274
 20
7.1937456130965529
 30
0.0
 11
5.2500000000001137
 21
5.7999999999983629
 31
0.0
  0
ARC
  5
197
100
AcDbEntity
  8
0
  6
CONTINUOUS
 62
               4
100
AcDbCircle
 10
2.9999999999997726
 20
2.1999998092637725
 30
0.0
 40
6.0
100
AcDbArc
 50
73.80871737482147
 51
106.19135456952553
  0
ARC
  5
198
100
AcDbEntity
  8
0
  6
CONTINUOUS
 62
               4
100
AcDbCircle
 10
1.5500001907350907
 20
7.193745613096894
 30
0.0
 40
0.800000011920929
100
AcDbArc
 50
106.19135456952553
 51
180.00001798608395
  0
ARC
  5
199
100
AcDbEntity
  8
0
  6
CONTINUOUS
 62
               4
100
AcDbCircle
 10
4.4499998092653641
 20
7.1937456130966666
 30
0.0
 40
0.800000011920929
100
AcDbArc
 50
359.99998201390565
 51
73.808645430464111
  0
LINE
  5
19A
100
AcDbEntity
  8
0
  6
CONTINUOUS
 62
               4
100
AcDbLine
 10
0.5000000000002274
 20
5.799999999999045
 30
0.0
 11
5.8000000000001819
 21
5.7999999999985903
 31
0.0
  0
ARC
  5
19B
100
AcDbEntity
  8
0
  6
CONTINUOUS
 62
               4
100
AcDbCircle
 10
4.007106781187872
 20
12.199999999992542
 30
0.0
 40
0.5
100
AcDbArc
 50
89.999999999994813
 51
134.9999999999944
  0
LINE
  5
19C
100
AcDbEntity
  8
0
  6
CONTINUOUS
 62
               4
100
AcDbLine
 10
5.0000000000004547
 20
12.699999999992656
 30
0.0
 11
5.0000000000004547
 21
12.0
 31
0.0
  0
ARC
  5
19D
100
AcDbEntity
  8
0
  6
CONTINUOUS
 62
               4
100
AcDbCircle
 10
0.5000000000002274
 20
5.299999999999045
 30
0.0
 40
0.5
100
AcDbArc
 50
89.999999999999815
 51
179.99999999999963
  0
LINE
  5
19E
100
AcDbEntity
  8
0
  6
CONTINUOUS
 62
               4
100
AcDbLine
 10
5.8000000000001819
 20
5.7999999999985903
 30
0.0
 11
5.8000000000002956
 21
7.4999999999994316
 31
0.0
  0
ARC
  5
19F
100
AcDbEntity
  8
0
  6
CONTINUOUS
 62
               4
100
AcDbCircle
 10
6.3000000000002956
 20
7.4999999999994316
 30
0.0
 40
0.5
100
AcDbArc
 50
89.999999999999815
 51
179.99999999999963
  0
LINE
  5
1A0
100
AcDbEntity
  8
0
  6
CONTINUOUS
 62
               4
100
AcDbLine
 10
4.5362284294549227
 20
7.9999999999994316
 30
0.0
 11
7.9000000000016826
 21
7.9999999999994316
 31
0.0
  0
LINE
  5
1A1
100
AcDbEntity
  8
0
  6
CONTINUOUS
 62
               4
100
AcDbLine
 10
-4.7444935236397896
 20
8.9411809690149084
 30
0.0
 11
-6.0829629131465026
 21
13.936416735029638
 31
0.0
  0
LINE
  5
1A2
100
AcDbEntity
  8
0
  6
CONTINUOUS
 62
               4
100
AcDbLine
 10
-5.8320508052163404
 20
12.999999999999432
 30
0.0
 11
7.4000000000121418
 21
13.000000000000114
 31
0.0
  0
LINE
  5
1A3
100
AcDbEntity
  8
0
  6
CONTINUOUS
 62
               4
100
AcDbLine
 10
7.9000000000014552
 20
8.0000000000001137
 30
0.0
 11
7.8999999999971351
 21
40.000000000000085
 31
0.0
  0
LINE
  5
1A4
100
AcDbEntity
  8
0
  6
CONTINUOUS
 62
               4
100
AcDbLine
 10
36.899999995467368
 20
0.0000000000003411
 30
0.0
 11
36.899999995466146
 21
39.500000000000369
 31
0.0
  0
LINE
  5
1A5
100
AcDbEntity
  8
0
  6
CONTINUOUS
 62
               4
100
AcDbLine
 10
-6.1000000045211209
 20
14.131652503172177
 30
0.0
 11
-6.1000000045211209
 21
35.999999988357217
 31
0.0
  0
ARC
  5
1A6
100
AcDbEntity
  8
0
  6
CONTINUOUS
 62
               4
100
AcDbCircle
 10
-5.1000000045211209
 20
36.000000000000114
 30
0.0
 40
1.0
100
AcDbArc
 50
89.999999999999815
 51
179.99999999999963
  0
ARC
  5
1A7
100
AcDbEntity
  8
0
  6
CONTINUOUS
 62
               4
100
AcDbCircle
 10
4.8999999954783107
 20
39.000000000000114
 30
0.0
 40
1.0
100
AcDbArc
 50
89.999999999999815
 51
179.99999999999963
  0
LINE
  5
1A8
100
AcDbEntity
  8
0
  6
CONTINUOUS
 62
               4
100
AcDbLine
 10
3.8999999954783107
 20
39.000000000000114
 30
0.0
 11
3.8999999954783107
 21
37.500000000000114
 31
0.0
  0
ARC
  5
1A9
100
AcDbEntity
  8
0
  6
CONTINUOUS
 62
               4
100
AcDbCircle
 10
3.3999999954783107
 20
37.500000000000114
 30
0.0
 40
0.5
100
AcDbArc
 50
269.99999999999937
 51
0.0
  0
LINE
  5
1AA
100
AcDbEntity
  8
0
  6
CONTINUOUS
 62
               4
100
AcDbLine
 10
-5.1000000288912588
 20
36.999999991088657
 30
0.0
 11
3.3999999954783107
 21
36.999999991088657
 31
0.0
  0
LINE
  5
1AB
100
AcDbEntity
  8
0
  6
CENTER
 62
             200
100
AcDbLine
 10
-5.047795449498949
 20
18.999999999999886
 30
0.0
 11
-33.76819643230148
 21
19.000000000001013
 31
0.0
  0
ARC
  5
1AC
100
AcDbEntity
  8
0
  6
CONTINUOUS
 62
               4
100
AcDbCircle
 10
-6.6000000045211316
 20
22.899999999999871
 30
0.0
 40
0.5
100
AcDbArc
 50
269.99999999999937
 51
0.0
  0
ARC
  5
1AD
100
AcDbEntity
  8
0
  6
CONTINUOUS
 62
               4
100
AcDbCircle
 10
-6.6000000045211316
 20
15.099999999999874
 30
0.0
 40
0.5
100
AcDbArc
 50
0.0
 51
89.999999999999815
  0
LINE
  5
1AE
100
AcDbEntity
  8
0
  6
CONTINUOUS
 62
               4
100
AcDbLine
 10
-12.279118227424064
 20
17.000000000000227
 30
0.0
 11
-9.1000000045211316
 21
17.000000000000107
 31
0.0
  0
LINE
  5
1AF
100
AcDbEntity
  8
0
  6
CONTINUOUS
 62
               4
100
AcDbLine
 10
-12.882626999353832
 20
21.000000000000249
 30
0.0
 11
-9.1000000045211316
 21
21.000000000000107
 31
0.0
  0
LINE
  5
1B0
100
AcDbEntity
  8
0
  6
CONTINUOUS
 62
               4
100
AcDbLine
 10
-17.100000004521135
 20
17.000000000000412
 30
0.0
 11
-17.100000004521135
 21
21.000000000000412
 31
0.0
  0
ARC
  5
1B1
100
AcDbEntity
  8
0
  6
CONTINUOUS
 62
               4
100
AcDbCircle
 10
-8.6000000045211316
 20
16.099999999999959
 30
0.0
 40
0.5
100
AcDbArc
 50
179.99999999999963
 51
269.99999999999937
  0
ARC
  5
1B2
100
AcDbEntity
  8
0
  6
CONTINUOUS
 62
               4
100
AcDbCircle
 10
-8.6000000045211316
 20
21.899999999999956
 30
0.0
 40
0.5
100
AcDbArc
 50
89.999999999999815
 51
179.99999999999963
  0
LINE
  5
1B3
100
AcDbEntity
  8
0
  6
CONTINUOUS
 62
               4
100
AcDbLine
 10
-9.1000000045211316
 20
16.099999999999959
 30
0.0
 11
-9.1000000045211316
 21
21.899999999999956
 31
0.0
  0
LINE
  5
1B4
100
AcDbEntity
  8
0
  6
CONTINUOUS
 62
               4
100
AcDbLine
 10
-6.60000000452116
 20
22.399999999999871
 30
0.0
 11
-8.6000000045211031
 21
22.399999999999956
 31
0.0
  0
LINE
  5
1B5
100
AcDbEntity
  8
0
  6
CONTINUOUS
 62
               4
100
AcDbLine
 10
-6.6000000045211031
 20
15.599999999999874
 30
0.0
 11
-8.60000000452116
 21
15.599999999999959
 31
0.0
  0
LINE
  5
1B6
100
AcDbEntity
  8
0
  6
CONTINUOUS
 62
             200
100
AcDbLine
 10
-13.180872613389184
 20
16.150000000000084
 30
0.0
 11
-14.040872613389084
 21
21.850000000000129
 31
0.0
  0
LINE
  5
1B7
100
AcDbEntity
  8
0
  6
CONTINUOUS
 62
               4
100
AcDbLine
 10
-17.100000004521135
 20
17.000000000000412
 30
0.0
 11
-13.309118227424293
 21
17.000000000000263
 31
0.0
  0
LINE
  5
1B8
100
AcDbEntity
  8
0
  6
CONTINUOUS
 62
               4
100
AcDbLine
 10
-17.100000004521135
 20
21.000000000000412
 30
0.0
 11
-13.912626999354032
 21
21.000000000000291
 31
0.0
  0
LINE
  5
1B9
100
AcDbEntity
  8
0
  6
CONTINUOUS
 62
             200
100
AcDbLine
 10
-12.150872613388984
 20
16.150000000000084
 30
0.0
 11
-13.010872613388884
 21
21.850000000000129
 31
0.0
  0
LINE
  5
1BA
100
AcDbEntity
  8
0
  6
CENTER
 62
             200
100
AcDbLine
 10
-13.709090663925522
 20
18.644998419066688
 30
0.0
 11
-32.924301241640265
 21
23.793698575759343
 31
0.0
  0
LINE
  5
1BB
100
AcDbEntity
  8
0
  6
CENTER
 62
             200
100
AcDbLine
 10
-13.709090663925522
 20
19.355001580933468
 30
0.0
 11
-32.92430124164072
 21
14.206301424242326
 31
0.0
  0
LINE
  5
1BC
100
AcDbEntity
  8
0
  6
CONTINUOUS
 62
               4
100
AcDbLine
 10
-32.419517986421752
 20
14.600376734932155
 30
0.0
 11
-32.290108463870538
 21
14.117413821787608
 31
0.0
  0
LINE
  5
1BD
100
AcDbEntity
  8
0
  6
CONTINUOUS
 62
               4
100
AcDbLine
 10
-33.100000004521135
 20
19.250000000000256
 30
0.0
 11
-33.100000004521135
 21
18.750000000000256
 31
0.0
  0
LINE
  5
1BE
100
AcDbEntity
  8
0
  6
CONTINUOUS
 62
               4
100
AcDbLine
 10
-32.290108463870538
 20
23.882586178212847
 30
0.0
 11
-32.41951798642198
 21
23.3996232650683
 31
0.0
  0
LINE
  5
1BF
100
AcDbEntity
  8
0
  6
CONTINUOUS
 62
               4
100
AcDbLine
 10
-25.658037202398319
 20
16.412110050649829
 30
0.0
 11
-32.419517986421752
 21
14.600376734932155
 31
0.0
  0
LINE
  5
1C0
100
AcDbEntity
  8
0
  6
CONTINUOUS
 62
               4
100
AcDbLine
 10
-25.528627679847105
 20
15.929147137505282
 30
0.0
 11
-32.290108463870538
 21
14.117413821787608
 31
0.0
  0
LINE
  5
1C1
100
AcDbEntity
  8
0
  6
CONTINUOUS
 62
               4
100
AcDbLine
 10
-17.100000004521135
 20
17.669953026206457
 30
0.0
 11
-25.399218157295891
 21
15.446184224360735
 31
0.0
  0
LINE
  5
1C2
100
AcDbEntity
  8
0
  6
CONTINUOUS
 62
               4
100
AcDbLine
 10
-20.73079018528064
 20
18.250000000000256
 30
0.0
 11
-25.78744672494976
 21
16.895072963794377
 31
0.0
  0
LINE
  5
1C3
100
AcDbEntity
  8
0
  6
CONTINUOUS
 62
               4
100
AcDbLine
 10
-25.528627679847105
 20
22.070852862495229
 30
0.0
 11
-32.290108463870538
 21
23.882586178212847
 31
0.0
  0
LINE
  5
1C4
100
AcDbEntity
  8
0
  6
CONTINUOUS
 62
               4
100
AcDbLine
 10
-25.658037202398319
 20
21.587889949350682
 30
0.0
 11
-32.41951798642198
 21
23.3996232650683
 31
0.0
  0
LINE
  5
1C5
100
AcDbEntity
  8
0
  6
CONTINUOUS
 62
               4
100
AcDbLine
 10
-20.73079018528064
 20
19.750000000000256
 30
0.0
 11
-25.78744672494976
 21
21.104927036206135
 31
0.0
  0
LINE
  5
1C6
100
AcDbEntity
  8
0
  6
CONTINUOUS
 62
               4
100
AcDbLine
 10
-17.100000004521135
 20
20.330046973794055
 30
0.0
 11
-25.399218157295891
 21
22.55381577563972
 31
0.0
  0
LINE
  5
1C7
100
AcDbEntity
  8
0
  6
CONTINUOUS
 62
               4
100
AcDbLine
 10
-26.100000004521135
 20
18.750000000000256
 30
0.0
 11
-33.100000004521135
 21
18.750000000000256
 31
0.0
  0
LINE
  5
1C8
100
AcDbEntity
  8
0
  6
CONTINUOUS
 62
               4
100
AcDbLine
 10
-26.100000004521135
 20
19.250000000000256
 30
0.0
 11
-33.100000004521135
 21
19.250000000000256
 31
0.0
  0
LINE
  5
1C9
100
AcDbEntity
  8
0
  6
CONTINUOUS
 62
               4
100
AcDbLine
 10
-17.100000004521135
 20
18.250000000000256
 30
0.0
 11
-26.100000004521135
 21
18.250000000000256
 31
0.0
  0
LINE
  5
1CA
100
AcDbEntity
  8
0
  6
CONTINUOUS
 62
               4
100
AcDbLine
 10
-17.100000004521135
 20
19.750000000000256
 30
0.0
 11
-26.100000004521135
 21
19.750000000000256
 31
0.0
  0
LINE
  5
1CB
100
AcDbEntity
  8
0
  6
CONTINUOUS
 62
               4
100
AcDbLine
 10
-26.100000004521135
 20
18.250000000000256
 30
0.0
 11
-26.100000004521135
 21
19.750000000000256
 31
0.0
  0
LINE
  5
1CC
100
AcDbEntity
  8
0
  6
CONTINUOUS
 62
               4
100
AcDbLine
 10
-25.78744672494976
 20
21.104927036206135
 30
0.0
 11
-25.399218157295891
 21
22.55381577563972
 31
0.0
  0
LINE
  5
1CD
100
AcDbEntity
  8
0
  6
CONTINUOUS
 62
               4
100
AcDbLine
 10
-25.399218157295891
 20
15.446184224360735
 30
0.0
 11
-25.78744672494976
 21
16.895072963794377
 31
0.0
  0
ARC
  5
1CE
100
AcDbEntity
  8
0
  6
CONTINUOUS
 62
               4
100
AcDbCircle
 10
-5.6000000000019554
 20
14.065826257580625
 30
0.0
 40
0.5
100
AcDbArc
 50
179.99999999999963
 51
194.99999999999918
  0
ARC
  5
1CF
100
AcDbEntity
  8
0
  6
CONTINUOUS
 62
               4
100
AcDbCircle
 10
-5.1000000045333991
 20
14.131652503172177
 30
0.0
 40
1.0
100
AcDbArc
 50
179.99999999999963
 51
194.99999999999955
  0
ENDBLK
  5
1D0
100
AcDbEntity
  8
0
100
AcDbBlockEnd
  0
BLOCK
  5
1D1
100
AcDbEntity
  8
0
100
AcDbBlockBegin
  2
PA24A6-5
 70
               0
 10
0.0
 20
0.0
 30
0.0
  3
PA24A6-5
  1

  0
LINE
  5
1D2
100
AcDbEntity
  8
0
  6
CONTINUOUS
 62
             200
100
AcDbLine
 10
2.4583172050163284
 20
42.230920339889906
 30
0.0
 11
4.6483019023163479
 21
42.819478727289265
 31
0.0
  0
LINE
  5
1D3
100
AcDbEntity
  8
0
  6
CONTINUOUS
 62
             200
100
AcDbLine
 10
2.5134544788568292
 20
41.615738482234576
 30
0.0
 11
4.688967170319529
 21
42.200407518065106
 31
0.0
  0
LINE
  5
1D4
100
AcDbEntity
  8
0
  6
CONTINUOUS
 62
               4
100
AcDbLine
 10
3.7500000000006821
 20
47.500872591041912
 30
0.0
 11
3.2500000000006821
 21
47.500872591041912
 31
0.0
  0
LINE
  5
1D5
100
AcDbEntity
  8
0
  6
CONTINUOUS
 62
               4
100
AcDbLine
 10
4.2500000000005684
 20
42.712435091041925
 30
0.0
 11
4.2500000000005684
 21
44.000872591041912
 31
0.0
  0
LINE
  5
1D6
100
AcDbEntity
  8
0
  6
CONTINUOUS
 62
               4
100
AcDbLine
 10
2.7500000000005684
 20
42.340872591041943
 30
0.0
 11
2.7500000000005684
 21
44.000872591041912
 31
0.0
  0
LINE
  5
1D7
100
AcDbEntity
  8
0
  6
CONTINUOUS
 62
               4
100
AcDbLine
 10
4.2500000000005684
 20
44.000872591041912
 30
0.0
 11
2.7500000000005684
 21
44.000872591041912
 31
0.0
  0
LINE
  5
1D8
100
AcDbEntity
  8
0
  6
CONTINUOUS
 62
               4
100
AcDbLine
 10
3.7500000000005684
 20
44.000872591041912
 30
0.0
 11
3.7500000000006821
 21
47.500872591041912
 31
0.0
  0
LINE
  5
1D9
100
AcDbEntity
  8
0
  6
CONTINUOUS
 62
               4
100
AcDbLine
 10
3.2500000000005684
 20
44.000872591041912
 30
0.0
 11
3.2500000000006821
 21
47.500872591041912
 31
0.0
  0
LINE
  5
1DA
100
AcDbEntity
  8
0
  6
CONTINUOUS
 62
             200
100
AcDbLine
 10
-4.5416827949836716
 20
42.230920339889963
 30
0.0
 11
-2.3516980976836521
 21
42.819478727289265
 31
0.0
  0
LINE
  5
1DB
100
AcDbEntity
  8
0
  6
CONTINUOUS
 62
             200
100
AcDbLine
 10
-4.4865455211431708
 20
41.615738482234633
 30
0.0
 11
-2.311032829680471
 21
42.200407518065163
 31
0.0
  0
LINE
  5
1DC
100
AcDbEntity
  8
0
  6
CONTINUOUS
 62
               4
100
AcDbLine
 10
-3.2499999999993179
 20
47.500872591041912
 30
0.0
 11
-3.7499999999993179
 21
47.500872591041912
 31
0.0
  0
LINE
  5
1DD
100
AcDbEntity
  8
0
  6
CONTINUOUS
 62
               4
100
AcDbLine
 10
-2.7499999999994316
 20
42.712435091041925
 30
0.0
 11
-2.7499999999994316
 21
44.000872591041912
 31
0.0
  0
LINE
  5
1DE
100
AcDbEntity
  8
0
  6
CONTINUOUS
 62
               4
100
AcDbLine
 10
-4.2499999999994316
 20
42.340872591041943
 30
0.0
 11
-4.2499999999994316
 21
44.000872591041912
 31
0.0
  0
LINE
  5
1DF
100
AcDbEntity
  8
0
  6
CONTINUOUS
 62
               4
100
AcDbLine
 10
-2.7499999999994316
 20
44.000872591041912
 30
0.0
 11
-4.2499999999994316
 21
44.000872591041912
 31
0.0
  0
LINE
  5
1E0
100
AcDbEntity
  8
0
  6
CONTINUOUS
 62
               4
100
AcDbLine
 10
-3.2499999999994316
 20
44.000872591041912
 30
0.0
 11
-3.2499999999993179
 21
47.500872591041912
 31
0.0
  0
LINE
  5
1E1
100
AcDbEntity
  8
0
  6
CONTINUOUS
 62
               4
100
AcDbLine
 10
-3.7499999999994316
 20
44.000872591041912
 30
0.0
 11
-3.7499999999993179
 21
47.500872591041912
 31
0.0
  0
LINE
  5
1E2
100
AcDbEntity
  8
0
  6
CONTINUOUS
 62
               4
100
AcDbLine
 10
2.7500000000005684
 20
39.999999999998636
 30
0.0
 11
2.7500000000005684
 21
41.679310091041884
 31
0.0
  0
LINE
  5
1E3
100
AcDbEntity
  8
0
  6
CONTINUOUS
 62
               4
100
AcDbLine
 10
4.2500000000005684
 20
39.999999999998636
 30
0.0
 11
4.2500000000005684
 21
42.08243509104193
 31
0.0
  0
LINE
  5
1E4
100
AcDbEntity
  8
0
  6
CONTINUOUS
 62
               4
100
AcDbLine
 10
-4.2499999999994316
 20
39.999999999998636
 30
0.0
 11
-4.2499999999994316
 21
41.679310091041941
 31
0.0
  0
LINE
  5
1E5
100
AcDbEntity
  8
0
  6
CONTINUOUS
 62
               4
100
AcDbLine
 10
-2.7499999999994316
 20
39.999999999998636
 30
0.0
 11
-2.7499999999994316
 21
42.082435091041987
 31
0.0
  0
LINE
  5
1E6
100
AcDbEntity
  8
0
  6
CONTINUOUS
 62
               4
100
AcDbLine
 10
-3.9999999999998863
 20
7.8999999999998636
 30
0.0
 11
-8.7999999999999545
 21
7.8999999999998636
 31
0.0
  0
LINE
  5
1E7
100
AcDbEntity
  8
0
  6
CONTINUOUS
 62
               4
100
AcDbLine
 10
-2.0999999999997954
 20
26.599999999998658
 30
0.0
 11
-7.8999999999997499
 21
26.599999999998772
 31
0.0
  0
LINE
  5
1E8
100
AcDbEntity
  8
0
  6
CONTINUOUS
 62
               4
100
AcDbLine
 10
-2.0999999999996817
 20
33.399999999998613
 30
0.0
 11
-2.0999999999997954
 21
26.599999999998658
 31
0.0
  0
LINE
  5
1E9
100
AcDbEntity
  8
0
  6
CONTINUOUS
 62
               4
100
AcDbLine
 10
-7.8999999999996362
 20
33.399999999998727
 30
0.0
 11
-7.8999999999997499
 21
26.599999999998772
 31
0.0
  0
LINE
  5
1EA
100
AcDbEntity
  8
0
  6
CONTINUOUS
 62
               4
100
AcDbLine
 10
-2.0999999999996817
 20
33.399999999998613
 30
0.0
 11
-7.8999999999996362
 21
33.399999999998727
 31
0.0
  0
LINE
  5
1EB
100
AcDbEntity
  8
0
  6
CONTINUOUS
 62
               4
100
AcDbLine
 10
2.1000000000003638
 20
26.599999999998658
 30
0.0
 11
7.900000000000432
 21
26.599999999998545
 31
0.0
  0
LINE
  5
1EC
100
AcDbEntity
  8
0
  6
CONTINUOUS
 62
               4
100
AcDbLine
 10
2.1000000000004775
 20
33.399999999998613
 30
0.0
 11
2.1000000000003638
 21
26.599999999998658
 31
0.0
  0
LINE
  5
1ED
100
AcDbEntity
  8
0
  6
CONTINUOUS
 62
               4
100
AcDbLine
 10
7.900000000000432
 20
33.399999999998499
 30
0.0
 11
7.900000000000432
 21
26.599999999998545
 31
0.0
  0
LINE
  5
1EE
100
AcDbEntity
  8
0
  6
CONTINUOUS
 62
               4
100
AcDbLine
 10
2.1000000000004775
 20
33.399999999998613
 30
0.0
 11
7.900000000000432
 21
33.399999999998499
 31
0.0
  0
LINE
  5
1EF
100
AcDbEntity
  8
0
  6
CONTINUOUS
 62
               4
100
AcDbLine
 10
-7.9999999999996589
 20
33.499999999998749
 30
0.0
 11
-7.9999999999997726
 21
26.499999999998749
 31
0.0
  0
LINE
  5
1F0
100
AcDbEntity
  8
0
  6
CONTINUOUS
 62
               4
100
AcDbLine
 10
-1.9999999999996589
 20
33.499999999998636
 30
0.0
 11
-1.9999999999997726
 21
26.499999999998636
 31
0.0
  0
LINE
  5
1F1
100
AcDbEntity
  8
0
  6
CONTINUOUS
 62
               4
100
AcDbLine
 10
-1.9999999999997726
 20
26.499999999998636
 30
0.0
 11
-7.9999999999997726
 21
26.499999999998749
 31
0.0
  0
LINE
  5
1F2
100
AcDbEntity
  8
0
  6
CONTINUOUS
 62
               4
100
AcDbLine
 10
-1.9999999999996589
 20
33.499999999998636
 30
0.0
 11
-7.9999999999996589
 21
33.499999999998749
 31
0.0
  0
LINE
  5
1F3
100
AcDbEntity
  8
0
  6
CONTINUOUS
 62
               4
100
AcDbLine
 10
2.0000000000003411
 20
26.499999999998636
 30
0.0
 11
8.0000000000003411
 21
26.499999999998522
 31
0.0
  0
LINE
  5
1F4
100
AcDbEntity
  8
0
  6
CONTINUOUS
 62
               4
100
AcDbLine
 10
2.0000000000004547
 20
33.499999999998636
 30
0.0
 11
8.0000000000004547
 21
33.499999999998522
 31
0.0
  0
LINE
  5
1F5
100
AcDbEntity
  8
0
  6
CONTINUOUS
 62
               4
100
AcDbLine
 10
7.9000000000002046
 20
18.299999994247401
 30
0.0
 11
7.9000000000002046
 21
18.700207536078665
 31
0.0
  0
ARC
  5
1F6
100
AcDbEntity
  8
0
  6
CONTINUOUS
 62
               4
100
AcDbCircle
 10
7.6000000000001364
 20
18.299999994247401
 30
0.0
 40
0.3
100
AcDbArc
 50
269.9999999999979
 51
359.99999999999767
  0
LINE
  5
1F7
100
AcDbEntity
  8
0
  6
CONTINUOUS
 62
               4
100
AcDbLine
 10
7.9000000000002046
 20
18.700207536078665
 30
0.0
 11
9.2999999874519972
 21
18.700207536078665
 31
0.0
  0
ARC
  5
1F8
100
AcDbEntity
  8
0
  6
CONTINUOUS
 62
               4
100
AcDbCircle
 10
-7.5999999999997954
 20
18.299999994247628
 30
0.0
 40
0.3
100
AcDbArc
 50
179.99999999999963
 51
269.99999999999937
  0
LINE
  5
1F9
100
AcDbEntity
  8
0
  6
CONTINUOUS
 62
               4
100
AcDbLine
 10
7.1000000000001364
 20
16.399999999999636
 30
0.0
 11
7.1000000000001364
 21
17.999999994247446
 31
0.0
  0
LINE
  5
1FA
100
AcDbEntity
  8
0
  6
CONTINUOUS
 62
               4
100
AcDbLine
 10
-7.8999999999997499
 20
18.299999994247742
 30
0.0
 11
-7.8999999999997499
 21
18.700207536078892
 31
0.0
  0
LINE
  5
1FB
100
AcDbEntity
  8
0
  6
CONTINUOUS
 62
               4
100
AcDbLine
 10
7.1000000000001364
 20
17.999999994247446
 30
0.0
 11
9.3000000000001819
 21
17.999999994247446
 31
0.0
  0
LINE
  5
1FC
100
AcDbEntity
  8
0
  6
CONTINUOUS
 62
               4
100
AcDbLine
 10
-7.8999999999997499
 20
18.700207536078892
 30
0.0
 11
-9.2999999874516561
 21
18.700207536078892
 31
0.0
  0
LINE
  5
1FD
100
AcDbEntity
  8
0
  6
CONTINUOUS
 62
               4
100
AcDbLine
 10
-7.0999999999997954
 20
17.999999994247673
 30
0.0
 11
-9.2999999999997272
 21
17.999999994247673
 31
0.0
  0
LINE
  5
1FE
100
AcDbEntity
  8
0
  6
CONTINUOUS
 62
               4
100
AcDbLine
 10
9.3000000000000682
 20
8.3999999999998636
 30
0.0
 11
9.3000000000001819
 21
18.700207536078665
 31
0.0
  0
ARC
  5
1FF
100
AcDbEntity
  8
0
  6
CONTINUOUS
 62
               4
100
AcDbCircle
 10
-3.4999999999998863
 20
7.1999999999999318
 30
0.0
 40
0.5
100
AcDbArc
 50
179.99999999999807
 51
269.9999999999979
  0
LINE
  5
200
100
AcDbEntity
  8
0
  6
CONTINUOUS
 62
               4
100
AcDbLine
 10
-3.9999999999998863
 20
7.1999999999999318
 30
0.0
 11
-3.9999999999998863
 21
7.8999999999999773
 31
0.0
  0
ARC
  5
201
100
AcDbEntity
  8
0
  6
CONTINUOUS
 62
               4
100
AcDbCircle
 10
3.5000000000001137
 20
7.1999999999998181
 30
0.0
 40
0.5
100
AcDbArc
 50
269.99999999999937
 51
0.0
  0
LINE
  5
202
100
AcDbEntity
  8
0
  6
CONTINUOUS
 62
               4
100
AcDbLine
 10
4.0000000000001137
 20
7.1999999999998181
 30
0.0
 11
4.0000000000001137
 21
7.8999999999998636
 31
0.0
  0
LINE
  5
203
100
AcDbEntity
  8
0
  6
CONTINUOUS
 62
               4
100
AcDbLine
 10
3.5000000000001137
 20
6.6999999999998181
 30
0.0
 11
-3.4999999999998863
 21
6.6999999999998181
 31
0.0
  0
ARC
  5
204
100
AcDbEntity
  8
0
  6
CONTINUOUS
 62
               4
100
AcDbCircle
 10
6.6000000000001364
 20
16.399999999999864
 30
0.0
 40
0.5
100
AcDbArc
 50
269.99999999999937
 51
0.0
  0
ARC
  5
205
100
AcDbEntity
  8
0
  6
CONTINUOUS
 62
               4
100
AcDbCircle
 10
-6.5999999999997954
 20
16.399999999999864
 30
0.0
 40
0.5
100
AcDbArc
 50
179.99999999999963
 51
269.99999999999937
  0
LINE
  5
206
100
AcDbEntity
  8
0
  6
CONTINUOUS
 62
               4
100
AcDbLine
 10
-7.0999999999997954
 20
16.399999999999864
 30
0.0
 11
-7.0999999999997954
 21
17.999999994247673
 31
0.0
  0
ARC
  5
207
100
AcDbEntity
  8
0
  6
CONTINUOUS
 62
               4
100
AcDbCircle
 10
-8.7999999999999545
 20
8.3999999999998636
 30
0.0
 40
0.5
100
AcDbArc
 50
179.99999999999963
 51
269.99999999999937
  0
LINE
  5
208
100
AcDbEntity
  8
0
  6
CONTINUOUS
 62
               4
100
AcDbLine
 10
-9.2999999999999545
 20
8.4000000000000909
 30
0.0
 11
-9.2999999999997272
 21
18.700207536078892
 31
0.0
  0
ARC
  5
209
100
AcDbEntity
  8
0
  6
CONTINUOUS
 62
               4
100
AcDbCircle
 10
8.8000000000000682
 20
8.3999999999998636
 30
0.0
 40
0.5
100
AcDbArc
 50
269.99999999999937
 51
0.0
  0
LINE
  5
20A
100
AcDbEntity
  8
0
  6
CONTINUOUS
 62
               4
100
AcDbLine
 10
8.8000000000000682
 20
7.8999999999998636
 30
0.0
 11
4.0000000000001137
 21
7.8999999999998636
 31
0.0
  0
LINE
  5
20B
100
AcDbEntity
  8
0
  6
CONTINUOUS
 62
               4
100
AcDbLine
 10
6.6000000000001364
 20
15.899999999999864
 30
0.0
 11
-6.5999999999997954
 21
15.899999999999864
 31
0.0
  0
LINE
  5
20C
100
AcDbEntity
  8
0
  6
CONTINUOUS
 62
               4
100
AcDbLine
 10
-10.699999999372494
 20
34.900000000001
 30
0.0
 11
-11.899999993412052
 21
34.900000000001
 31
0.0
  0
LINE
  5
20D
100
AcDbEntity
  8
0
  6
CONTINUOUS
 62
               4
100
AcDbLine
 10
-10.699999999999477
 20
34.900000000001
 30
0.0
 11
-10.699999999999477
 21
38.100000000001046
 31
0.0
  0
LINE
  5
20E
100
AcDbEntity
  8
0
  6
CONTINUOUS
 62
               4
100
AcDbLine
 10
2.0000000000004547
 20
33.499999999998636
 30
0.0
 11
2.0000000000003411
 21
26.499999999998636
 31
0.0
  0
LINE
  5
20F
100
AcDbEntity
  8
0
  6
CONTINUOUS
 62
               4
100
AcDbLine
 10
8.0000000000004547
 20
33.499999999998522
 30
0.0
 11
8.0000000000003411
 21
26.499999999998522
 31
0.0
  0
LINE
  5
210
100
AcDbEntity
  8
0
  6
CONTINUOUS
 62
               4
100
AcDbLine
 10
-10.699999999372494
 20
38.100000000001046
 30
0.0
 11
-11.899999993412052
 21
38.100000000001046
 31
0.0
  0
ARC
  5
211
100
AcDbEntity
  8
0
  6
CONTINUOUS
 62
               4
100
AcDbCircle
 10
-10.899999999999409
 20
38.999999999998749
 30
0.0
 40
1.0
100
AcDbArc
 50
89.999999999999815
 51
179.99999999999963
  0
LINE
  5
212
100
AcDbEntity
  8
0
  6
CONTINUOUS
 62
               4
100
AcDbLine
 10
10.700000000000387
 20
34.900000000000773
 30
0.0
 11
10.7000000000005
 21
38.100000000000819
 31
0.0
  0
LINE
  5
213
100
AcDbEntity
  8
0
  6
CONTINUOUS
 62
               4
100
AcDbLine
 10
-10.899999999999409
 20
39.999999999998749
 30
0.0
 11
10.900000000000546
 21
39.999999999998522
 31
0.0
  0
ARC
  5
214
100
AcDbEntity
  8
0
  6
CONTINUOUS
 62
               4
100
AcDbCircle
 10
10.900000000000432
 20
38.999999999998408
 30
0.0
 40
1.0
100
AcDbArc
 50
359.99999999999847
 51
89.999999999998266
  0
LINE
  5
215
100
AcDbEntity
  8
0
  6
CONTINUOUS
 62
               4
100
AcDbLine
 10
10.699999999373517
 20
38.100000000000819
 30
0.0
 11
11.899999993413076
 21
38.100000000000705
 31
0.0
  0
LINE
  5
216
100
AcDbEntity
  8
0
  6
CONTINUOUS
 62
               4
100
AcDbLine
 10
10.699999999373517
 20
34.900000000000773
 30
0.0
 11
11.899999993412962
 21
34.900000000000659
 31
0.0
  0
ARC
  5
217
100
AcDbEntity
  8
0
  6
CONTINUOUS
 62
               4
100
AcDbCircle
 10
3.5171572868646308
 20
9.6999999999985675
 30
0.0
 40
0.2
100
AcDbArc
 50
269.99999999999937
 51
45.000000000000966
  0
ARC
  5
218
100
AcDbEntity
  8
0
  6
CONTINUOUS
 62
               4
100
AcDbCircle
 10
-3.5171572868645171
 20
9.6999999999985675
 30
0.0
 40
0.2
100
AcDbArc
 50
134.99999999999793
 51
269.99999999999937
  0
ARC
  5
219
100
AcDbEntity
  8
0
  6
CONTINUOUS
 62
               4
100
AcDbCircle
 10
0.0000000000001137
 20
13.217157286862971
 30
0.0
 40
0.2
100
AcDbArc
 50
44.99999999999919
 51
134.99999999999898
  0
LINE
  5
21A
100
AcDbEntity
  8
0
  6
CONTINUOUS
 62
               4
100
AcDbLine
 10
0.1414213562374016
 20
13.358578643100259
 30
0.0
 11
3.6585786431019187
 21
9.8414213562358555
 31
0.0
  0
LINE
  5
21B
100
AcDbEntity
  8
0
  6
CONTINUOUS
 62
               4
100
AcDbLine
 10
-0.1414213562371742
 20
13.358578643100259
 30
0.0
 11
-3.658578643101805
 21
9.8414213562358555
 31
0.0
  0
LINE
  5
21C
100
AcDbEntity
  8
0
  6
CONTINUOUS
 62
               4
100
AcDbLine
 10
3.5171572868646308
 20
9.4999999999985221
 30
0.0
 11
-3.5171572868645171
 21
9.4999999999985221
 31
0.0
  0
LINE
  5
21D
100
AcDbEntity
  8
0
  6
CONTINUOUS
 62
               4
100
AcDbLine
 10
-7.8999999999998636
 20
15.799999999998704
 30
0.0
 11
-7.8999999999997499
 21
17.899999999998613
 31
0.0
  0
LINE
  5
21E
100
AcDbEntity
  8
0
  6
CONTINUOUS
 62
               4
100
AcDbLine
 10
-7.8999999999997499
 20
17.899999999998613
 30
0.0
 11
-9.2999999999997272
 21
17.899999999998613
 31
0.0
  0
ARC
  5
21F
100
AcDbEntity
  8
0
  6
CONTINUOUS
 62
               4
100
AcDbCircle
 10
-8.7999999999999545
 20
8.4999999999985221
 30
0.0
 40
0.5
100
AcDbArc
 50
179.99999999999963
 51
269.99999999999937
  0
LINE
  5
220
100
AcDbEntity
  8
0
  6
CONTINUOUS
 62
               4
100
AcDbLine
 10
8.8000000000000682
 20
7.9999999999985221
 30
0.0
 11
-8.7999999999999545
 21
7.9999999999985221
 31
0.0
  0
ARC
  5
221
100
AcDbEntity
  8
0
  6
CONTINUOUS
 62
               4
100
AcDbCircle
 10
8.8000000000000682
 20
8.4999999999982947
 30
0.0
 40
0.5
100
AcDbArc
 50
269.9999999999979
 51
359.99999999999767
  0
LINE
  5
222
100
AcDbEntity
  8
0
  6
CONTINUOUS
 62
               4
100
AcDbLine
 10
7.9000000000002046
 20
15.799999999998704
 30
0.0
 11
7.9000000000002046
 21
17.899999999998158
 31
0.0
  0
LINE
  5
223
100
AcDbEntity
  8
0
  6
CONTINUOUS
 62
               4
100
AcDbLine
 10
7.9000000000002046
 20
17.899999999998158
 30
0.0
 11
9.3000000000001819
 21
17.899999999998158
 31
0.0
  0
LINE
  5
224
100
AcDbEntity
  8
0
  6
CONTINUOUS
 62
               4
100
AcDbLine
 10
9.3000000000001499
 20
15.799999999998704
 30
0.0
 11
-9.2999999999998408
 21
15.799999999998704
 31
0.0
  0
LINE
  5
225
100
AcDbEntity
  8
0
  6
DASHED
 62
               2
100
AcDbLine
 10
-11.900000000003558
 20
0.0
 30
0.0
 11
11.899999999998499
 21
0.0
 31
0.0
  0
LINE
  5
226
100
AcDbEntity
  8
0
  6
CENTER
 62
             200
100
AcDbLine
 10
-0.0000000000000568
 20
-4.9708179906839405
 30
0.0
 11
0.0000000000005684
 21
41.999318110282161
 31
0.0
  0
LINE
  5
227
100
AcDbEntity
  8
0
  6
CONTINUOUS
 62
               4
100
AcDbLine
 10
11.899999999998499
 20
0.0
 30
0.0
 11
11.900000000018224
 21
38.999999991078425
 31
0.0
  0
LINE
  5
228
100
AcDbEntity
  8
0
  6
CONTINUOUS
 62
               4
100
AcDbLine
 10
-11.899999999981503
 20
39.000000000006821
 30
0.0
 11
-11.900000000003558
 21
0.0
 31
0.0
  0
LINE
  5
229
100
AcDbEntity
  8
0
  6
CONTINUOUS
 62
               4
100
AcDbLine
 10
-0.7499999999994316
 20
39.999999999998636
 30
0.0
 11
-0.7499999999994316
 21
41.679310091041941
 31
0.0
  0
LINE
  5
22A
100
AcDbEntity
  8
0
  6
CONTINUOUS
 62
               4
100
AcDbLine
 10
0.7500000000005684
 20
39.999999999998636
 30
0.0
 11
0.7500000000005684
 21
42.082435091041987
 31
0.0
  0
LINE
  5
22B
100
AcDbEntity
  8
0
  6
CONTINUOUS
 62
               4
100
AcDbLine
 10
-0.2499999999994316
 20
44.000872591041912
 30
0.0
 11
-0.2499999999993179
 21
47.500872591041912
 31
0.0
  0
LINE
  5
22C
100
AcDbEntity
  8
0
  6
CONTINUOUS
 62
               4
100
AcDbLine
 10
0.2500000000005684
 20
44.000872591041912
 30
0.0
 11
0.2500000000006821
 21
47.500872591041912
 31
0.0
  0
LINE
  5
22D
100
AcDbEntity
  8
0
  6
CONTINUOUS
 62
               4
100
AcDbLine
 10
0.7500000000005684
 20
44.000872591041912
 30
0.0
 11
-0.7499999999994316
 21
44.000872591041912
 31
0.0
  0
LINE
  5
22E
100
AcDbEntity
  8
0
  6
CONTINUOUS
 62
               4
100
AcDbLine
 10
-0.7499999999994316
 20
42.340872591041943
 30
0.0
 11
-0.7499999999994316
 21
44.000872591041912
 31
0.0
  0
LINE
  5
22F
100
AcDbEntity
  8
0
  6
CONTINUOUS
 62
               4
100
AcDbLine
 10
0.7500000000005684
 20
42.712435091041925
 30
0.0
 11
0.7500000000005684
 21
44.000872591041912
 31
0.0
  0
LINE
  5
230
100
AcDbEntity
  8
0
  6
CONTINUOUS
 62
               4
100
AcDbLine
 10
0.2500000000006821
 20
47.500872591041912
 30
0.0
 11
-0.2499999999993179
 21
47.500872591041912
 31
0.0
  0
LINE
  5
231
100
AcDbEntity
  8
0
  6
CONTINUOUS
 62
             200
100
AcDbLine
 10
-0.9865455211431708
 20
41.615738482234633
 30
0.0
 11
1.188967170319529
 21
42.200407518065163
 31
0.0
  0
LINE
  5
232
100
AcDbEntity
  8
0
  6
CONTINUOUS
 62
             200
100
AcDbLine
 10
-1.0416827949836716
 20
42.230920339889963
 30
0.0
 11
1.1483019023163479
 21
42.819478727289265
 31
0.0
  0
ENDBLK
  5
233
100
AcDbEntity
  8
0
100
AcDbBlockEnd
  0
BLOCK
  5
234
100
AcDbEntity
  8
0
100
AcDbBlockBegin
  2
PA24A6-6
 70
               0
 10
0.0
 20
0.0
 30
0.0
  3
PA24A6-6
  1

  0
LINE
  5
235
100
AcDbEntity
  8
0
  6
CONTINUOUS
 62
               4
100
AcDbLine
 10
36.999999995466453
 20
26.600000027368765
 30
0.0
 11
36.999999995466453
 21
33.399999979685049
 31
0.0
  0
LINE
  5
236
100
AcDbEntity
  8
0
  6
CONTINUOUS
 62
               4
100
AcDbLine
 10
35.800000000000978
 20
0.0000000000003411
 30
0.0
 11
35.799999999997851
 21
35.000000000002302
 31
0.0
  0
LINE
  5
237
100
AcDbEntity
  8
0
  6
CONTINUOUS
 62
               4
100
AcDbLine
 10
0.0000000000002842
 20
0.0
 30
0.0
 11
35.800000000000978
 21
0.0000000000003411
 31
0.0
  0
LINE
  5
238
100
AcDbEntity
  8
0
  6
CONTINUOUS
 62
               4
100
AcDbLine
 10
4.5362284294552069
 20
7.9999999999994031
 30
0.0
 11
7.9000000000019668
 21
7.9999999999994031
 31
0.0
  0
ARC
  5
239
100
AcDbEntity
  8
0
  6
CONTINUOUS
 62
               4
100
AcDbCircle
 10
6.3000000000005798
 20
7.4999999999994031
 30
0.0
 40
0.5
100
AcDbArc
 50
89.999999999999815
 51
179.99999999999963
  0
LINE
  5
23A
100
AcDbEntity
  8
0
  6
CONTINUOUS
 62
               4
100
AcDbLine
 10
5.8000000000004661
 20
5.7999999999985619
 30
0.0
 11
5.8000000000005798
 21
7.49999999999946
 31
0.0
  0
ARC
  5
23B
100
AcDbEntity
  8
0
  6
CONTINUOUS
 62
               4
100
AcDbCircle
 10
0.5000000000005116
 20
5.2999999999990166
 30
0.0
 40
0.5
100
AcDbArc
 50
89.999999999999815
 51
179.99999999999963
  0
LINE
  5
23C
100
AcDbEntity
  8
0
  6
CONTINUOUS
 62
               4
100
AcDbLine
 10
5.000000000000739
 20
12.699999999992627
 30
0.0
 11
5.000000000000739
 21
11.999999999999972
 31
0.0
  0
ARC
  5
23D
100
AcDbEntity
  8
0
  6
CONTINUOUS
 62
               4
100
AcDbCircle
 10
4.0071067811881562
 20
12.199999999992571
 30
0.0
 40
0.5
100
AcDbArc
 50
89.999999999994813
 51
134.9999999999944
  0
LINE
  5
23E
100
AcDbEntity
  8
0
  6
CONTINUOUS
 62
               4
100
AcDbLine
 10
0.5000000000005116
 20
5.7999999999990166
 30
0.0
 11
5.8000000000004661
 21
5.7999999999985619
 31
0.0
  0
LINE
  5
23F
100
AcDbEntity
  8
0
  6
CONTINUOUS
 62
               4
100
AcDbLine
 10
2.00000000000108
 20
8.1160795923634907
 30
0.0
 11
2.00000000000108
 21
8.2000000093934489
 31
0.0
  0
LINE
  5
240
100
AcDbEntity
  8
0
  6
CONTINUOUS
 62
               4
100
AcDbLine
 10
5.8000000000011482
 20
12.199999991712758
 30
0.0
 11
5.8000000000011482
 21
12.699999999992627
 31
0.0
  0
LINE
  5
241
100
AcDbEntity
  8
0
  6
CONTINUOUS
 62
               4
100
AcDbLine
 10
4.0071067811881562
 20
12.699999999992571
 30
0.0
 11
5.8000000000011482
 21
12.699999999992627
 31
0.0
  0
LINE
  5
242
100
AcDbEntity
  8
0
  6
CONTINUOUS
 62
               4
100
AcDbLine
 10
5.8000000000011482
 20
12.199999999992627
 30
0.0
 11
7.900000000001171
 21
12.199999999992684
 31
0.0
  0
ARC
  5
243
100
AcDbEntity
  8
0
  6
CONTINUOUS
 62
               4
100
AcDbCircle
 10
4.4499998092656483
 20
7.1937456130966382
 30
0.0
 40
0.800000011920929
100
AcDbArc
 50
359.99998201390565
 51
73.808645430464111
  0
ARC
  5
244
100
AcDbEntity
  8
0
  6
CONTINUOUS
 62
               4
100
AcDbCircle
 10
1.5500001907353749
 20
7.1937456130968656
 30
0.0
 40
0.800000011920929
100
AcDbArc
 50
106.19135456952553
 51
180.00001798608395
  0
ARC
  5
245
100
AcDbEntity
  8
0
  6
CONTINUOUS
 62
               4
100
AcDbCircle
 10
3.0000000000000568
 20
2.1999998092637441
 30
0.0
 40
6.0
100
AcDbArc
 50
73.80871737482147
 51
106.19135456952553
  0
LINE
  5
246
100
AcDbEntity
  8
0
  6
CONTINUOUS
 62
               4
100
AcDbLine
 10
5.2500000000005116
 20
7.1937456130965245
 30
0.0
 11
5.2500000000003979
 21
5.7999999999983913
 31
0.0
  0
LINE
  5
247
100
AcDbEntity
  8
0
  6
CONTINUOUS
 62
               4
100
AcDbLine
 10
0.7500000000005116
 20
7.1937456130969224
 30
0.0
 11
0.7500000000003979
 21
5.7999999999987892
 31
0.0
  0
LINE
  5
248
100
AcDbEntity
  8
0
  6
CONTINUOUS
 62
               4
100
AcDbLine
 10
3.1000000000074692
 20
11.999999999999858
 30
0.0
 11
3.6535533905942543
 21
12.553553390586643
 31
0.0
  0
LINE
  5
249
100
AcDbEntity
  8
0
  6
CONTINUOUS
 62
               4
100
AcDbLine
 10
0.7500000000003979
 20
6.4999999999990052
 30
0.0
 11
5.2500000000003979
 21
6.4999999999986073
 31
0.0
  0
ARC
  5
24A
100
AcDbEntity
  8
0
  6
CONTINUOUS
 62
               4
100
AcDbCircle
 10
-5.6000000000016712
 20
14.065826257580994
 30
0.0
 40
0.5
100
AcDbArc
 50
179.99999999999963
 51
194.99999999999918
  0
ARC
  5
24B
100
AcDbEntity
  8
0
  6
CONTINUOUS
 62
               4
100
AcDbCircle
 10
-4.9124889263641194
 20
11.499999999999517
 30
0.0
 40
0.5
100
AcDbArc
 50
89.999999999999815
 51
194.99999999999952
  0
ARC
  5
24C
100
AcDbEntity
  8
0
  6
CONTINUOUS
 62
               4
100
AcDbCircle
 10
6.9000000000126533
 20
13.30000000000004
 30
0.0
 40
1.0
100
AcDbArc
 50
197.45760312372443
 51
0.0000000000081422
  0
ARC
  5
24D
100
AcDbEntity
  8
0
  6
CONTINUOUS
 62
               4
100
AcDbCircle
 10
-3.7785677023339872
 20
9.2000000093958931
 30
0.0
 40
1.0
100
AcDbArc
 50
194.99999981259796
 51
269.99999999999937
  0
LINE
  5
24E
100
AcDbEntity
  8
0
  6
CONTINUOUS
 62
               4
100
AcDbLine
 10
-4.7444935236395054
 20
8.94118096901488
 30
0.0
 11
-6.0829629131462184
 21
13.936416735029667
 31
0.0
  0
LINE
  5
24F
100
AcDbEntity
  8
0
  6
CONTINUOUS
 62
               4
100
AcDbLine
 10
-5.8320508052160562
 20
12.99999999999946
 30
0.0
 11
7.400000000012426
 21
13.000000000000085
 31
0.0
  0
ARC
  5
250
100
AcDbEntity
  8
0
  6
CONTINUOUS
 62
               4
100
AcDbCircle
 10
7.4000000000123123
 20
13.500000000000085
 30
0.0
 40
0.5
100
AcDbArc
 50
270.00000000000193
 51
0.0000000000025444
  0
LINE
  5
251
100
AcDbEntity
  8
0
  6
CONTINUOUS
 62
               4
100
AcDbLine
 10
-3.7785677023331914
 20
8.2000000093933352
 30
0.0
 11
7.1000000000036039
 21
8.2000000093935626
 31
0.0
  0
LINE
  5
252
100
AcDbEntity
  8
0
  6
CONTINUOUS
 62
               4
100
AcDbLine
 10
-4.9124889263641194
 20
11.999999999999517
 30
0.0
 11
7.1000000000029218
 21
12.000000000000028
 31
0.0
  0
LINE
  5
253
100
AcDbEntity
  8
0
  6
CONTINUOUS
 62
               4
100
AcDbLine
 10
0.5000000000021032
 20
11.999999999999801
 30
0.0
 11
0.5000000000021032
 21
12.999999999999801
 31
0.0
  0
LINE
  5
254
100
AcDbEntity
  8
0
  6
CONTINUOUS
 62
               4
100
AcDbLine
 10
1.5000000000021032
 20
11.999999999999801
 30
0.0
 11
1.5000000000021032
 21
12.999999999999801
 31
0.0
  0
LINE
  5
255
100
AcDbEntity
  8
0
  6
CONTINUOUS
 62
               4
100
AcDbLine
 10
7.6000000000036039
 20
8.7000000093936762
 30
0.0
 11
7.6000000000029218
 21
11.500000000000142
 31
0.0
  0
ARC
  5
256
100
AcDbEntity
  8
0
  6
CONTINUOUS
 62
               4
100
AcDbCircle
 10
7.1000000000029218
 20
11.500000000000028
 30
0.0
 40
0.5
100
AcDbArc
 50
0.000000000002519
 51
90.000000000002316
  0
ARC
  5
257
100
AcDbEntity
  8
0
  6
CONTINUOUS
 62
               4
100
AcDbCircle
 10
7.1000000000036039
 20
8.7000000093935626
 30
0.0
 40
0.5
100
AcDbArc
 50
270.00000000000267
 51
0.0000000000025444
  0
LINE
  5
258
100
AcDbEntity
  8
0
  6
CONTINUOUS
 62
               4
100
AcDbLine
 10
5.0000000000002842
 20
8.2000000093935626
 30
0.0
 11
5.0000000000002842
 21
8.0000000000000284
 31
0.0
  0
LINE
  5
259
100
AcDbEntity
  8
0
  6
CONTINUOUS
 62
               4
100
AcDbLine
 10
-6.1000000000016712
 20
14.065826257580937
 30
0.0
 11
-6.1000000000025807
 21
35.999999973399582
 31
0.0
  0
LINE
  5
25A
100
AcDbEntity
  8
0
  6
CONTINUOUS
 62
               4
100
AcDbLine
 10
7.9000000000017394
 20
8.0000000000001421
 30
0.0
 11
7.8999999999974193
 21
40.000000000000085
 31
0.0
  0
LINE
  5
25B
100
AcDbEntity
  8
0
  6
CONTINUOUS
 62
               4
100
AcDbLine
 10
0.0
 20
0.0
 30
0.0
 11
0.0000000000005116
 21
5.2999999999990735
 31
0.0
  0
LINE
  5
25C
100
AcDbEntity
  8
0
  6
CONTINUOUS
 62
               4
100
AcDbLine
 10
35.799999999997738
 20
35.000000000002302
 30
0.0
 11
36.399999999997874
 21
35.000000000002359
 31
0.0
  0
LINE
  5
25D
100
AcDbEntity
  8
0
  6
CONTINUOUS
 62
               4
100
AcDbLine
 10
35.799999999997624
 20
38.000000000002302
 30
0.0
 11
36.399999999997533
 21
38.000000000002359
 31
0.0
  0
LINE
  5
25E
100
AcDbEntity
  8
0
  6
CONTINUOUS
 62
               4
100
AcDbLine
 10
35.799999999997624
 20
37.999999985762969
 30
0.0
 11
35.79999999999751
 21
39.999999985762912
 31
0.0
  0
ARC
  5
25F
100
AcDbEntity
  8
0
  6
CONTINUOUS
 62
               4
100
AcDbCircle
 10
36.399999999997647
 20
37.500000000002359
 30
0.0
 40
0.5
100
AcDbArc
 50
0.0000000000018066
 51
90.000000000001606
  0
ARC
  5
260
100
AcDbEntity
  8
0
  6
CONTINUOUS
 62
               4
100
AcDbCircle
 10
36.399999999997647
 20
35.500000000002359
 30
0.0
 40
0.5
100
AcDbArc
 50
270.00000000000125
 51
0.000000000001832
  0
LINE
  5
261
100
AcDbEntity
  8
0
  6
CONTINUOUS
 62
               4
100
AcDbLine
 10
36.999999995466567
 20
26.600000000000335
 30
0.0
 11
36.899999995466544
 21
26.500000000000313
 31
0.0
  0
LINE
  5
262
100
AcDbEntity
  8
0
  6
CONTINUOUS
 62
               4
100
AcDbLine
 10
36.899999990935669
 20
33.500000000000313
 30
0.0
 11
36.999999995466453
 21
33.399999995469528
 31
0.0
  0
ARC
  5
263
100
AcDbEntity
  8
0
  6
CONTINUOUS
 62
               4
100
AcDbCircle
 10
36.399999999997533
 20
39.500000000000369
 30
0.0
 40
0.5
100
AcDbArc
 50
0.0000000000006361
 51
90.000000000000441
  0
LINE
  5
264
100
AcDbEntity
  8
0
  6
CONTINUOUS
 62
               4
100
AcDbLine
 10
35.79999999999751
 20
40.000000000000313
 30
0.0
 11
36.399999999997533
 21
40.000000000000369
 31
0.0
  0
LINE
  5
265
100
AcDbEntity
  8
0
  6
CONTINUOUS
 62
               4
100
AcDbLine
 10
36.899999995466658
 20
34.900000000002336
 30
0.0
 11
35.799999999997851
 21
34.900000000002279
 31
0.0
  0
LINE
  5
266
100
AcDbEntity
  8
0
  6
CONTINUOUS
 62
               4
100
AcDbLine
 10
36.899999995466544
 20
38.100000000002325
 30
0.0
 11
35.799999999997283
 21
38.100000000002268
 31
0.0
  0
LINE
  5
267
100
AcDbEntity
  8
0
  6
CONTINUOUS
 62
               4
100
AcDbLine
 10
36.899999995467624
 20
0.0000000000003411
 30
0.0
 11
36.89999999546643
 21
39.500000000000369
 31
0.0
  0
LINE
  5
268
100
AcDbEntity
  8
0
  6
CONTINUOUS
 62
               4
100
AcDbLine
 10
7.8999999999974193
 20
40.000000000000057
 30
0.0
 11
35.79999999999751
 21
40.000000000000313
 31
0.0
  0
LINE
  5
269
100
AcDbEntity
  8
0
  6
CONTINUOUS
 62
               4
100
AcDbLine
 10
2.1499999954791633
 20
45.500872599956551
 30
0.0
 11
1.6499999954791633
 21
45.500872599956551
 31
0.0
  0
LINE
  5
26A
100
AcDbEntity
  8
0
  6
CONTINUOUS
 62
               4
100
AcDbLine
 10
2.6499999954790496
 20
40.712435099956565
 30
0.0
 11
2.6499999954790496
 21
42.000872599956551
 31
0.0
  0
LINE
  5
26B
100
AcDbEntity
  8
0
  6
CONTINUOUS
 62
               4
100
AcDbLine
 10
1.1499999954790496
 20
40.340872599956583
 30
0.0
 11
1.1499999954790496
 21
42.000872599956551
 31
0.0
  0
LINE
  5
26C
100
AcDbEntity
  8
0
  6
CONTINUOUS
 62
               4
100
AcDbLine
 10
2.6499999954790496
 20
42.000872599956551
 30
0.0
 11
1.1499999954790496
 21
42.000872599956551
 31
0.0
  0
LINE
  5
26D
100
AcDbEntity
  8
0
  6
CONTINUOUS
 62
             200
100
AcDbLine
 10
0.2999999954790269
 20
40.080872599956592
 30
0.0
 11
3.4999999954790724
 21
40.940872599956492
 31
0.0
  0
LINE
  5
26E
100
AcDbEntity
  8
0
  6
CONTINUOUS
 62
             200
100
AcDbLine
 10
0.2999999954790269
 20
39.05087259995662
 30
0.0
 11
3.4999999954790724
 21
39.910872599956519
 31
0.0
  0
LINE
  5
26F
100
AcDbEntity
  8
0
  6
CONTINUOUS
 62
               4
100
AcDbLine
 10
2.1499999954790496
 20
42.000872599956551
 30
0.0
 11
2.1499999954791633
 21
45.500872599956551
 31
0.0
  0
LINE
  5
270
100
AcDbEntity
  8
0
  6
CONTINUOUS
 62
               4
100
AcDbLine
 10
1.6499999954790496
 20
42.000872599956551
 30
0.0
 11
1.6499999954791633
 21
45.500872599956551
 31
0.0
  0
LINE
  5
271
100
AcDbEntity
  8
0
  6
CONTINUOUS
 62
               4
100
AcDbLine
 10
1.1499999954790496
 20
36.999999991088657
 30
0.0
 11
1.1499999954790496
 21
39.279310099956547
 31
0.0
  0
LINE
  5
272
100
AcDbEntity
  8
0
  6
CONTINUOUS
 62
               4
100
AcDbLine
 10
2.6499999954790496
 20
36.999999991088544
 30
0.0
 11
2.6499999954790496
 21
39.682435099956592
 31
0.0
  0
LINE
  5
273
100
AcDbEntity
  8
0
  6
CENTER
 62
             200
100
AcDbLine
 10
1.8999999954791633
 20
34.510895800239041
 30
0.0
 11
1.8999999954795044
 21
46.410609842086501
 31
0.0
  0
LINE
  5
274
100
AcDbEntity
  8
0
  6
CONTINUOUS
 62
               4
100
AcDbLine
 10
-5.1000000288909746
 20
36.999999991088657
 30
0.0
 11
3.3999999954785949
 21
36.999999991088657
 31
0.0
  0
ARC
  5
275
100
AcDbEntity
  8
0
  6
CONTINUOUS
 62
               4
100
AcDbCircle
 10
-5.1000000045331149
 20
14.131652503172177
 30
0.0
 40
1.0
100
AcDbArc
 50
179.99999999999963
 51
194.99999999999955
  0
ARC
  5
276
100
AcDbEntity
  8
0
  6
CONTINUOUS
 62
               4
100
AcDbCircle
 10
3.3999999954785949
 20
37.500000000000114
 30
0.0
 40
0.5
100
AcDbArc
 50
269.99999999999937
 51
0.0
  0
LINE
  5
277
100
AcDbEntity
  8
0
  6
CONTINUOUS
 62
               4
100
AcDbLine
 10
3.8999999954785949
 20
39.000000000000114
 30
0.0
 11
3.8999999954785949
 21
37.500000000000114
 31
0.0
  0
ARC
  5
278
100
AcDbEntity
  8
0
  6
CONTINUOUS
 62
               4
100
AcDbCircle
 10
4.8999999954785949
 20
39.000000000000114
 30
0.0
 40
1.0
100
AcDbArc
 50
89.999999999999815
 51
179.99999999999963
  0
ARC
  5
279
100
AcDbEntity
  8
0
  6
CONTINUOUS
 62
               4
100
AcDbCircle
 10
-5.1000000045208367
 20
36.000000000000114
 30
0.0
 40
1.0
100
AcDbArc
 50
89.999999999999815
 51
179.99999999999963
  0
LINE
  5
27A
100
AcDbEntity
  8
0
  6
CONTINUOUS
 62
               4
100
AcDbLine
 10
7.8999999999974193
 20
40.000000000000057
 30
0.0
 11
4.8999999954785949
 21
40.000000000000057
 31
0.0
  0
ENDBLK
  5
27B
100
AcDbEntity
  8
0
100
AcDbBlockEnd
  0
BLOCK
  5
27C
100
AcDbEntity
  8
0
100
AcDbBlockBegin
  2
PA24A6-7
 70
               0
 10
0.0
 20
0.0
 30
0.0
  3
PA24A6-7
  1

  0
LINE
  5
27D
100
AcDbEntity
  8
0
  6
CENTER
 62
               2
100
AcDbLine
 10
-5.0
 20
0.0
 30
0.0
 11
5.0
 21
0.0
 31
0.0
  0
LINE
  5
27E
100
AcDbEntity
  8
0
  6
CENTER
 62
               2
100
AcDbLine
 10
-5.0
 20
74.999999999999943
 30
0.0
 11
5.0
 21
74.999999999999943
 31
0.0
  0
LINE
  5
27F
100
AcDbEntity
  8
0
  6
CONTINUOUS
 62
               7
100
AcDbLine
 10
61.70000000000681
 20
-2.4999998807901989
 30
0.0
 11
62.000000000000568
 21
-1.9803845882410656
 31
0.0
  0
LINE
  5
280
100
AcDbEntity
  8
0
  6
CONTINUOUS
 62
               7
100
AcDbLine
 10
61.700000000008515
 20
4.5000001192098011
 30
0.0
 11
62.000000000000568
 21
3.9803850650792469
 31
0.0
  0
LINE
  5
281
100
AcDbEntity
  8
0
  6
CONTINUOUS
 62
               7
100
AcDbLine
 10
61.70000000000681
 20
-2.4999998807901989
 30
0.0
 11
58.000000000006821
 21
-2.4999998807901989
 31
0.0
  0
LINE
  5
282
100
AcDbEntity
  8
0
  6
CONTINUOUS
 62
               7
100
AcDbLine
 10
61.700000000008515
 20
4.5000001192098011
 30
0.0
 11
58.000000000008527
 21
4.5000001192098011
 31
0.0
  0
LINE
  5
283
100
AcDbEntity
  8
0
  6
CONTINUOUS
 62
               7
100
AcDbLine
 10
62.000000000000568
 20
-2.9999998807901989
 30
0.0
 11
58.000000000006708
 21
-2.9999998807901989
 31
0.0
  0
LINE
  5
284
100
AcDbEntity
  8
0
  6
CONTINUOUS
 62
               7
100
AcDbLine
 10
62.000000000000568
 20
5.0000001192098011
 30
0.0
 11
58.00000000000864
 21
5.0000001192098011
 31
0.0
  0
LINE
  5
285
100
AcDbEntity
  8
0
  6
CONTINUOUS
 62
               7
100
AcDbLine
 10
61.700000000008515
 20
4.5000001192098011
 30
0.0
 11
61.70000000000681
 21
-2.4999998807901989
 31
0.0
  0
LINE
  5
286
100
AcDbEntity
  8
0
  6
CONTINUOUS
 62
               7
100
AcDbLine
 10
58.00000000000864
 20
5.0000001192098011
 30
0.0
 11
58.000000000006708
 21
-2.9999998807901989
 31
0.0
  0
LINE
  5
287
100
AcDbEntity
  8
0
  6
CONTINUOUS
 62
             200
100
AcDbLine
 10
14.31912739113011
 20
99.700000000002376
 30
0.0
 11
13.45912739113021
 21
102.90000000000242
 31
0.0
  0
LINE
  5
288
100
AcDbEntity
  8
0
  6
CONTINUOUS
 62
             200
100
AcDbLine
 10
15.349127391130082
 20
99.700000000002376
 30
0.0
 11
14.489127391130182
 21
102.90000000000242
 31
0.0
  0
LINE
  5
289
100
AcDbEntity
  8
0
  6
CONTINUOUS
 62
               4
100
AcDbLine
 10
17.899999999997931
 20
99.600000000002353
 30
0.0
 11
17.899999999998158
 21
103.00000000000244
 31
0.0
  0
ARC
  5
28A
100
AcDbEntity
  8
0
  6
CONTINUOUS
 62
               4
100
AcDbCircle
 10
18.199999999998113
 20
103.00000000000233
 30
0.0
 40
0.3
100
AcDbArc
 50
89.999999999999815
 51
179.99999999999963
  0
LINE
  5
28B
100
AcDbEntity
  8
0
  6
CONTINUOUS
 62
               4
100
AcDbLine
 10
18.199999999998113
 20
103.3000000000024
 30
0.0
 11
18.899999999998158
 21
103.3000000000024
 31
0.0
  0
LINE
  5
28C
100
AcDbEntity
  8
0
  6
CONTINUOUS
 62
               4
100
AcDbLine
 10
19.899999998700991
 20
118.99999998217748
 30
0.0
 11
28.399999998700991
 21
118.99999998217748
 31
0.0
  0
ARC
  5
28D
100
AcDbEntity
  8
0
  6
CONTINUOUS
 62
               4
100
AcDbCircle
 10
19.899999999985425
 20
117.99999998217748
 30
0.0
 40
1.0
100
AcDbArc
 50
89.999999999999815
 51
179.99999999999963
  0
ARC
  5
28E
100
AcDbEntity
  8
0
  6
CONTINUOUS
 62
               4
100
AcDbCircle
 10
29.899999999984743
 20
121.0000000000021
 30
0.0
 40
1.0
100
AcDbArc
 50
89.999999999999815
 51
179.99999999999963
  0
ARC
  5
28F
100
AcDbEntity
  8
0
  6
CONTINUOUS
 62
               4
100
AcDbCircle
 10
28.399999999984743
 20
119.49999998217748
 30
0.0
 40
0.5
100
AcDbArc
 50
269.99999999999937
 51
0.0
  0
LINE
  5
290
100
AcDbEntity
  8
0
  6
CONTINUOUS
 62
               4
100
AcDbLine
 10
28.899999999984743
 20
121.0000000000021
 30
0.0
 11
28.899999999984743
 21
119.49999998217748
 31
0.0
  0
LINE
  5
291
100
AcDbEntity
  8
0
  6
CONTINUOUS
 62
               4
100
AcDbLine
 10
7.3991273911301505
 20
101.55000000000251
 30
0.0
 11
7.3991273911301505
 21
101.05000000000251
 31
0.0
  0
LINE
  5
292
100
AcDbEntity
  8
0
  6
CONTINUOUS
 62
               4
100
AcDbLine
 10
10.89912739113015
 20
102.0500000000024
 30
0.0
 11
10.89912739113015
 21
100.55000000000251
 31
0.0
  0
LINE
  5
293
100
AcDbEntity
  8
0
  6
CONTINUOUS
 62
               4
100
AcDbLine
 10
10.89912739113015
 20
101.55000000000251
 30
0.0
 11
7.3991273911301505
 21
101.55000000000251
 31
0.0
  0
LINE
  5
294
100
AcDbEntity
  8
0
  6
CONTINUOUS
 62
               4
100
AcDbLine
 10
10.89912739113015
 20
101.05000000000251
 30
0.0
 11
7.3991273911301505
 21
101.05000000000251
 31
0.0
  0
LINE
  5
295
100
AcDbEntity
  8
0
  6
CONTINUOUS
 62
               4
100
AcDbLine
 10
14.059127391130119
 20
100.55000000000251
 30
0.0
 11
10.89912739113015
 21
100.55000000000251
 31
0.0
  0
LINE
  5
296
100
AcDbEntity
  8
0
  6
CONTINUOUS
 62
               4
100
AcDbLine
 10
13.687564891130137
 20
102.0500000000024
 30
0.0
 11
10.89912739113015
 21
102.0500000000024
 31
0.0
  0
ARC
  5
297
100
AcDbEntity
  8
0
  6
CONTINUOUS
 62
               4
100
AcDbCircle
 10
18.199999999998113
 20
99.600000000002353
 30
0.0
 40
0.3
100
AcDbArc
 50
179.99999999999963
 51
269.99999999999937
  0
LINE
  5
298
100
AcDbEntity
  8
0
  6
CONTINUOUS
 62
               4
100
AcDbLine
 10
18.199999999998113
 20
99.300000000002399
 30
0.0
 11
18.899999999998158
 21
99.300000000002399
 31
0.0
  0
LINE
  5
299
100
AcDbEntity
  8
0
  6
CONTINUOUS
 62
               4
100
AcDbLine
 10
17.899999999998045
 20
100.5500000000024
 30
0.0
 11
15.120689891130155
 21
100.5500000000024
 31
0.0
  0
LINE
  5
29A
100
AcDbEntity
  8
0
  6
CONTINUOUS
 62
               4
100
AcDbLine
 10
17.899999999998158
 20
102.0500000000024
 30
0.0
 11
14.71756489113011
 21
102.0500000000024
 31
0.0
  0
LINE
  5
29B
100
AcDbEntity
  8
0
  6
CENTER
 62
             200
100
AcDbLine
 10
20.389104190847661
 20
101.30000000000251
 30
0.0
 11
6.4893901490002008
 21
101.30000000000285
 31
0.0
  0
LINE
  5
29C
100
AcDbEntity
  8
0
  6
CONTINUOUS
 62
               4
100
AcDbLine
 10
29.899999999984743
 20
122.0000000000021
 30
0.0
 11
60.799999999985516
 21
122.00000000000233
 31
0.0
  0
LINE
  5
29D
100
AcDbEntity
  8
0
  6
CONTINUOUS
 62
               4
100
AcDbLine
 10
18.899999999986335
 20
96.065826257582955
 30
0.0
 11
18.899999999985425
 21
117.99999997340166
 31
0.0
  0
LINE
  5
29E
100
AcDbEntity
  8
0
  6
CONTINUOUS
 62
               7
100
AcDbLine
 10
24.0
 20
79.999999999999943
 30
0.0
 11
24.0
 21
-11.0
 31
0.0
  0
CIRCLE
  5
29F
100
AcDbEntity
  8
0
  6
CONTINUOUS
 62
               7
100
AcDbCircle
 10
17.0
 20
71.999999999999943
 30
0.0
 40
2.1000000000000001
  0
CIRCLE
  5
2A0
100
AcDbEntity
  8
0
  6
CONTINUOUS
 62
               2
100
AcDbCircle
 10
17.0
 20
71.999999999999943
 30
0.0
 40
2.5
  0
LINE
  5
2A1
100
AcDbEntity
  8
0
  6
CENTER
 62
               2
100
AcDbLine
 10
12.497207413440492
 20
71.999999999999943
 30
0.0
 11
20.338886667077531
 21
71.999999999999943
 31
0.0
  0
LINE
  5
2A2
100
AcDbEntity
  8
0
  6
CENTER
 62
               2
100
AcDbLine
 10
17.0
 20
68.228826014182516
 30
0.0
 11
17.0
 21
74.213222225910556
 31
0.0
  0
LINE
  5
2A3
100
AcDbEntity
  8
0
  6
CENTER
 62
               2
100
AcDbLine
 10
12.999999999999943
 20
5.9754920106165059
 30
0.0
 11
12.999999999999943
 21
53.462447983071399
 31
0.0
  0
LINE
  5
2A4
100
AcDbEntity
  8
0
  6
CONTINUOUS
 62
               7
100
AcDbLine
 10
62.000000000000455
 20
76.00000000000631
 30
0.0
 11
62.000000000000568
 21
-12.499999999990678
 31
0.0
  0
LINE
  5
2A5
100
AcDbEntity
  8
0
  6
CONTINUOUS
 62
               7
100
AcDbLine
 10
24.999999999998863
 20
61.732050867692863
 30
0.0
 11
61.999999999999318
 21
61.732050867692863
 31
0.0
  0
LINE
  5
2A6
100
AcDbEntity
  8
0
  6
CONTINUOUS
 62
               7
100
AcDbLine
 10
24.999999999998749
 20
60.000000000015632
 30
0.0
 11
61.999999999999091
 21
60.000000000015632
 31
0.0
  0
LINE
  5
2A7
100
AcDbEntity
  8
0
  6
CONTINUOUS
 62
               7
100
AcDbLine
 10
24.999999999998181
 20
56.000000000015632
 30
0.0
 11
62.000000000000455
 21
56.000000000015632
 31
0.0
  0
LINE
  5
2A8
100
AcDbEntity
  8
0
  6
CONTINUOUS
 62
               7
100
AcDbLine
 10
24.999999999997954
 20
54.267949172766464
 30
0.0
 11
61.999999999998408
 21
54.267949172766464
 31
0.0
  0
LINE
  5
2A9
100
AcDbEntity
  8
0
  6
CONTINUOUS
 62
               7
100
AcDbLine
 10
60.799999999989154
 20
76.000000000006196
 30
0.0
 11
60.7999999999887
 21
82.000000000004036
 31
0.0
  0
LINE
  5
2AA
100
AcDbEntity
  8
0
  6
CENTER
 62
               2
100
AcDbLine
 10
57.328629636664459
 20
1.0000000000090381
 30
0.0
 11
63.239852399631673
 21
1.0000000000075602
 31
0.0
  0
ARC
  5
2AB
100
AcDbEntity
  8
0
  6
CONTINUOUS
 62
               7
100
AcDbCircle
 10
25.500000000000114
 20
-12.499999999999886
 30
0.0
 40
0.5
100
AcDbArc
 50
179.99999999999963
 51
269.99999999999937
  0
LINE
  5
2AC
100
AcDbEntity
  8
0
  6
CONTINUOUS
 62
               7
100
AcDbLine
 10
61.707106781187235
 20
-10.292893212520198
 30
0.0
 11
59.292893219040934
 21
-12.707106774667068
 31
0.0
  0
LINE
  5
2AD
100
AcDbEntity
  8
0
  6
CONTINUOUS
 62
               7
100
AcDbLine
 10
59.620607155608354
 20
-12.803656906811682
 30
0.0
 11
59.620607155608127
 21
-12.379392838099761
 31
0.0
  0
LINE
  5
2AE
100
AcDbEntity
  8
0
  6
CONTINUOUS
 62
               7
100
AcDbLine
 10
61.600506144808264
 20
-10.823757917610578
 30
0.0
 11
61.600506144808264
 21
-10.399493848898715
 31
0.0
  0
LINE
  5
2AF
100
AcDbEntity
  8
0
  6
CONTINUOUS
 62
               7
100
AcDbLine
 10
59.620607155608354
 20
-12.803656906811682
 30
0.0
 11
61.600506144808264
 21
-10.823757917610578
 31
0.0
  0
ARC
  5
2B0
100
AcDbEntity
  8
0
  6
CONTINUOUS
 62
               7
100
AcDbCircle
 10
61.000000000000341
 20
-9.5857864313335313
 30
0.0
 40
1.0
100
AcDbArc
 50
315.00000000001398
 51
0.0000000000144524
  0
ARC
  5
2B1
100
AcDbEntity
  8
0
  6
CONTINUOUS
 62
               7
100
AcDbCircle
 10
58.585786431343536
 20
-11.99999999999153
 30
0.0
 40
1.0
100
AcDbArc
 50
270.00000000001387
 51
315.00000052756724
  0
ARC
  5
2B2
100
AcDbEntity
  8
0
  6
CONTINUOUS
 62
               7
100
AcDbCircle
 10
61.500432867765198
 20
-12.500432867755137
 30
0.0
 40
0.499567319772501
100
AcDbArc
 50
269.9503540401912
 51
0.0496459598379113
  0
LINE
  5
2B3
100
AcDbEntity
  8
0
  6
CONTINUOUS
 62
               7
100
AcDbLine
 10
25.500000000000114
 20
-12.999999999999886
 30
0.0
 11
61.500000000001023
 21
-12.999999999990791
 31
0.0
  0
LINE
  5
2B4
100
AcDbEntity
  8
0
  6
CONTINUOUS
 62
               7
100
AcDbLine
 10
24.0
 20
-7.9999999999972147
 30
0.0
 11
61.99999999999045
 21
-7.9999999999935767
 31
0.0
  0
LINE
  5
2B5
100
AcDbEntity
  8
0
  6
CONTINUOUS
 62
               7
100
AcDbLine
 10
61.899999995455801
 20
76.499999994251027
 30
0.0
 11
61.899999995455687
 21
82.000000000004107
 31
0.0
  0
LINE
  5
2B6
100
AcDbEntity
  8
0
  6
CONTINUOUS
 62
               4
100
AcDbLine
 10
61.89999999545455
 20
120.1000000000044
 30
0.0
 11
60.799999999985289
 21
120.1000000000044
 31
0.0
  0
LINE
  5
2B7
100
AcDbEntity
  8
0
  6
CONTINUOUS
 62
               4
100
AcDbLine
 10
61.899999995454777
 20
116.90000000000435
 30
0.0
 11
60.799999999985857
 21
116.90000000000435
 31
0.0
  0
LINE
  5
2B8
100
AcDbEntity
  8
0
  6
CONTINUOUS
 62
               4
100
AcDbLine
 10
60.799999999985516
 20
122.00000000000244
 30
0.0
 11
61.399999999985653
 21
122.00000000000244
 31
0.0
  0
ARC
  5
2B9
100
AcDbEntity
  8
0
  6
CONTINUOUS
 62
               4
100
AcDbCircle
 10
61.399999999985653
 20
121.50000000000244
 30
0.0
 40
0.5
100
AcDbArc
 50
0.0000000000006361
 51
90.000000000000441
  0
LINE
  5
2BA
100
AcDbEntity
  8
0
  6
CONTINUOUS
 62
               7
100
AcDbLine
 10
57.899999999986221
 20
81.800000000002171
 30
0.0
 11
60.7999999999887
 21
81.800000000002171
 31
0.0
  0
ARC
  5
2BB
100
AcDbEntity
  8
0
  6
CONTINUOUS
 62
               7
100
AcDbCircle
 10
59.399999999986335
 20
72.000000000002217
 30
0.0
 40
2.0
100
AcDbArc
 50
180.00000000000196
 51
0.0000000000015267
  0
LINE
  5
2BC
100
AcDbEntity
  8
0
  6
CONTINUOUS
 62
               7
100
AcDbLine
 10
61.399999999986335
 20
71.999999994251027
 30
0.0
 11
61.399999999986335
 21
75.999999994251027
 31
0.0
  0
ARC
  5
2BD
100
AcDbEntity
  8
0
  6
CONTINUOUS
 62
               7
100
AcDbCircle
 10
61.399999999986335
 20
76.500000000001762
 30
0.0
 40
0.5
100
AcDbArc
 50
270.00000000000091
 51
0.0000000000015267
  0
ARC
  5
2BE
100
AcDbEntity
  8
0
  6
CONTINUOUS
 62
               7
100
AcDbCircle
 10
57.899999999986221
 20
81.300000000002171
 30
0.0
 40
0.5
100
AcDbArc
 50
90.00000000000135
 51
180.00000000000114
  0
LINE
  5
2BF
100
AcDbEntity
  8
0
  6
CONTINUOUS
 62
               4
100
AcDbLine
 10
61.999999995454573
 20
108.60000000000235
 30
0.0
 11
61.999999995454459
 21
115.39999999547166
 31
0.0
  0
LINE
  5
2C0
100
AcDbEntity
  8
0
  6
CONTINUOUS
 62
               4
100
AcDbLine
 10
61.899999990923675
 20
115.50000000000244
 30
0.0
 11
61.999999995454459
 21
115.39999999547166
 31
0.0
  0
LINE
  5
2C1
100
AcDbEntity
  8
0
  6
CONTINUOUS
 62
               4
100
AcDbLine
 10
61.999999995454573
 20
108.60000000000235
 30
0.0
 11
61.89999999545455
 21
108.50000000000244
 31
0.0
  0
LINE
  5
2C2
100
AcDbEntity
  8
0
  6
CONTINUOUS
 62
               4
100
AcDbLine
 10
29.99999999998829
 20
90.200000009395751
 30
0.0
 11
29.99999999998829
 21
90.000000000002217
 31
0.0
  0
ARC
  5
2C3
100
AcDbEntity
  8
0
  6
CONTINUOUS
 62
               4
100
AcDbCircle
 10
32.09999999999161
 20
90.700000009395751
 30
0.0
 40
0.5
100
AcDbArc
 50
270.00000000000267
 51
0.0000000000025444
  0
ARC
  5
2C4
100
AcDbEntity
  8
0
  6
CONTINUOUS
 62
               4
100
AcDbCircle
 10
32.099999999990928
 20
93.500000000002217
 30
0.0
 40
0.5
100
AcDbArc
 50
0.000000000002519
 51
90.000000000002316
  0
LINE
  5
2C5
100
AcDbEntity
  8
0
  6
CONTINUOUS
 62
               4
100
AcDbLine
 10
32.59999999999161
 20
90.700000009395751
 30
0.0
 11
32.599999999990928
 21
93.500000000002217
 31
0.0
  0
LINE
  5
2C6
100
AcDbEntity
  8
0
  6
CONTINUOUS
 62
               4
100
AcDbLine
 10
26.499999999990109
 20
94.00000000000199
 30
0.0
 11
26.499999999990109
 21
95.00000000000199
 31
0.0
  0
LINE
  5
2C7
100
AcDbEntity
  8
0
  6
CONTINUOUS
 62
               4
100
AcDbLine
 10
25.499999999990109
 20
94.00000000000199
 30
0.0
 11
25.499999999990109
 21
95.00000000000199
 31
0.0
  0
LINE
  5
2C8
100
AcDbEntity
  8
0
  6
CONTINUOUS
 62
               4
100
AcDbLine
 10
20.087511073623887
 20
94.000000000001535
 30
0.0
 11
32.099999999990928
 21
94.000000000002217
 31
0.0
  0
LINE
  5
2C9
100
AcDbEntity
  8
0
  6
CONTINUOUS
 62
               4
100
AcDbLine
 10
21.221432297654815
 20
90.200000009395524
 30
0.0
 11
32.09999999999161
 21
90.200000009395751
 31
0.0
  0
ARC
  5
2CA
100
AcDbEntity
  8
0
  6
CONTINUOUS
 62
               4
100
AcDbCircle
 10
32.400000000000318
 20
95.500000000002217
 30
0.0
 40
0.5
100
AcDbArc
 50
270.00000000000193
 51
0.0000000000025444
  0
LINE
  5
2CB
100
AcDbEntity
  8
0
  6
CONTINUOUS
 62
               4
100
AcDbLine
 10
19.16794919477195
 20
95.000000000001535
 30
0.0
 11
32.400000000000432
 21
95.000000000002217
 31
0.0
  0
LINE
  5
2CC
100
AcDbEntity
  8
0
  6
CONTINUOUS
 62
               4
100
AcDbLine
 10
20.255506476348501
 20
90.941180969017012
 30
0.0
 11
18.917037086841788
 21
95.936416735031742
 31
0.0
  0
ARC
  5
2CD
100
AcDbEntity
  8
0
  6
CONTINUOUS
 62
               4
100
AcDbCircle
 10
21.221432297654019
 20
91.200000009398025
 30
0.0
 40
1.0
100
AcDbArc
 50
194.99999981259796
 51
269.99999999999937
  0
ARC
  5
2CE
100
AcDbEntity
  8
0
  6
CONTINUOUS
 62
               4
100
AcDbCircle
 10
31.900000000000659
 20
95.300000000002171
 30
0.0
 40
1.0
100
AcDbArc
 50
197.4576031237236
 51
11.309932474184668
  0
ARC
  5
2CF
100
AcDbEntity
  8
0
  6
CONTINUOUS
 62
               4
100
AcDbCircle
 10
20.087511073623887
 20
93.500000000001535
 30
0.0
 40
0.5
100
AcDbArc
 50
89.999999999999815
 51
194.99999999999952
  0
ARC
  5
2D0
100
AcDbEntity
  8
0
  6
CONTINUOUS
 62
               4
100
AcDbCircle
 10
19.399999999986335
 20
96.065826257583183
 30
0.0
 40
0.5
100
AcDbArc
 50
179.99999999999963
 51
194.99999999999918
  0
LINE
  5
2D1
100
AcDbEntity
  8
0
  6
CONTINUOUS
 62
               4
100
AcDbLine
 10
25.749999999988404
 20
88.50000000000108
 30
0.0
 11
30.249999999988404
 21
88.500000000000625
 31
0.0
  0
ARC
  5
2D2
100
AcDbEntity
  8
0
  6
CONTINUOUS
 62
               4
100
AcDbCircle
 10
61.399999999985653
 20
117.50000000000449
 30
0.0
 40
0.5
100
AcDbArc
 50
270.00000000000125
 51
0.000000000001832
  0
ARC
  5
2D3
100
AcDbEntity
  8
0
  6
CONTINUOUS
 62
               4
100
AcDbCircle
 10
61.399999999985653
 20
119.50000000000449
 30
0.0
 40
0.5
100
AcDbArc
 50
0.0000000000018066
 51
90.000000000001606
  0
LINE
  5
2D4
100
AcDbEntity
  8
0
  6
CONTINUOUS
 62
               4
100
AcDbLine
 10
60.799999999985744
 20
119.99999998576499
 30
0.0
 11
60.799999999985516
 21
121.99999998576499
 31
0.0
  0
LINE
  5
2D5
100
AcDbEntity
  8
0
  6
CONTINUOUS
 62
               4
100
AcDbLine
 10
60.799999999985744
 20
120.00000000000449
 30
0.0
 11
61.399999999985653
 21
120.00000000000449
 31
0.0
  0
LINE
  5
2D6
100
AcDbEntity
  8
0
  6
CONTINUOUS
 62
               4
100
AcDbLine
 10
60.799999999985744
 20
117.00000000000449
 30
0.0
 11
61.39999999998588
 21
117.00000000000449
 31
0.0
  0
LINE
  5
2D7
100
AcDbEntity
  8
0
  6
CONTINUOUS
 62
               4
100
AcDbLine
 10
28.099999999995475
 20
94.00000000000199
 30
0.0
 11
28.65355339058226
 21
94.553553390588775
 31
0.0
  0
LINE
  5
2D8
100
AcDbEntity
  8
0
  6
CONTINUOUS
 62
               4
100
AcDbLine
 10
30.799999999988472
 20
94.199999991715856
 30
0.0
 11
30.799999999988472
 21
94.699999999995669
 31
0.0
  0
LINE
  5
2D9
100
AcDbEntity
  8
0
  6
CONTINUOUS
 62
               4
100
AcDbLine
 10
29.007106781175366
 20
94.699999999995441
 30
0.0
 11
30.799999999988472
 21
94.699999999995669
 31
0.0
  0
LINE
  5
2DA
100
AcDbEntity
  8
0
  6
CONTINUOUS
 62
               4
100
AcDbLine
 10
30.799999999988472
 20
94.199999999995669
 30
0.0
 11
32.899999999988495
 21
94.199999999996123
 31
0.0
  0
LINE
  5
2DB
100
AcDbEntity
  8
0
  6
CONTINUOUS
 62
               4
100
AcDbLine
 10
32.899999999989745
 20
90.000000000002217
 30
0.0
 11
32.899999999985425
 21
122.00000000000222
 31
0.0
  0
LINE
  5
2DC
100
AcDbEntity
  8
0
  6
CONTINUOUS
 62
               4
100
AcDbLine
 10
32.899999999986107
 20
116.09999999890277
 30
0.0
 11
32.799999999986198
 21
116.09999999890277
 31
0.0
  0
LINE
  5
2DD
100
AcDbEntity
  8
0
  6
CONTINUOUS
 62
               7
100
AcDbLine
 10
24.999999999988972
 20
82.000000000001762
 30
0.0
 11
60.799999999988927
 21
82.000000000004036
 31
0.0
  0
LINE
  5
2DE
100
AcDbEntity
  8
0
  6
CONTINUOUS
 62
               4
100
AcDbLine
 10
32.799999999987108
 20
96.300000000002171
 30
0.0
 11
32.899999999987699
 21
96.300000000002171
 31
0.0
  0
LINE
  5
2DF
100
AcDbEntity
  8
0
  6
CONTINUOUS
 62
               4
100
AcDbLine
 10
24.99999999998829
 20
82.000000000001535
 30
0.0
 11
24.999999999988518
 21
87.300000000001262
 31
0.0
  0
LINE
  5
2E0
100
AcDbEntity
  8
0
  6
CONTINUOUS
 62
               4
100
AcDbLine
 10
25.749999999988518
 20
89.193745613098997
 30
0.0
 11
25.749999999988404
 21
87.800000000000807
 31
0.0
  0
LINE
  5
2E1
100
AcDbEntity
  8
0
  6
CONTINUOUS
 62
               4
100
AcDbLine
 10
30.249999999988518
 20
89.193745613098542
 30
0.0
 11
30.249999999988404
 21
87.80000000000058
 31
0.0
  0
ARC
  5
2E2
100
AcDbEntity
  8
0
  6
CONTINUOUS
 62
               4
100
AcDbCircle
 10
27.999999999988063
 20
84.199999809265762
 30
0.0
 40
6.0
100
AcDbArc
 50
73.80871737482147
 51
106.19135456952553
  0
ARC
  5
2E3
100
AcDbEntity
  8
0
  6
CONTINUOUS
 62
               4
100
AcDbCircle
 10
26.550000190723381
 20
89.193745613098997
 30
0.0
 40
0.800000011920929
100
AcDbArc
 50
106.19135456952553
 51
180.00001798608395
  0
ARC
  5
2E4
100
AcDbEntity
  8
0
  6
CONTINUOUS
 62
               4
100
AcDbCircle
 10
29.449999809253654
 20
89.19374561309877
 30
0.0
 40
0.800000011920929
100
AcDbArc
 50
359.99998201390565
 51
73.808645430464111
  0
LINE
  5
2E5
100
AcDbEntity
  8
0
  6
CONTINUOUS
 62
               4
100
AcDbLine
 10
26.999999999989086
 20
90.116079592365566
 30
0.0
 11
26.999999999989086
 21
90.200000009395524
 31
0.0
  0
LINE
  5
2E6
100
AcDbEntity
  8
0
  6
CONTINUOUS
 62
               4
100
AcDbLine
 10
25.499999999988518
 20
87.800000000001035
 30
0.0
 11
30.799999999988472
 21
87.80000000000058
 31
0.0
  0
ARC
  5
2E7
100
AcDbEntity
  8
0
  6
CONTINUOUS
 62
               4
100
AcDbCircle
 10
29.007106781176162
 20
94.199999999994759
 30
0.0
 40
0.5
100
AcDbArc
 50
89.999999999994813
 51
134.9999999999944
  0
LINE
  5
2E8
100
AcDbEntity
  8
0
  6
CONTINUOUS
 62
               4
100
AcDbLine
 10
29.999999999988745
 20
94.699999999994759
 30
0.0
 11
29.999999999988745
 21
94.00000000000199
 31
0.0
  0
ARC
  5
2E9
100
AcDbEntity
  8
0
  6
CONTINUOUS
 62
               4
100
AcDbCircle
 10
25.499999999988518
 20
87.300000000001035
 30
0.0
 40
0.5
100
AcDbArc
 50
89.999999999999815
 51
179.99999999999963
  0
LINE
  5
2EA
100
AcDbEntity
  8
0
  6
CONTINUOUS
 62
               4
100
AcDbLine
 10
30.799999999988472
 20
87.80000000000058
 30
0.0
 11
30.799999999988586
 21
89.500000000001535
 31
0.0
  0
ARC
  5
2EB
100
AcDbEntity
  8
0
  6
CONTINUOUS
 62
               4
100
AcDbCircle
 10
31.299999999988586
 20
89.500000000001535
 30
0.0
 40
0.5
100
AcDbArc
 50
89.999999999999815
 51
179.99999999999963
  0
LINE
  5
2EC
100
AcDbEntity
  8
0
  6
CONTINUOUS
 62
               4
100
AcDbLine
 10
29.536228429443213
 20
90.000000000001535
 30
0.0
 11
32.899999999989973
 21
90.000000000001535
 31
0.0
  0
LINE
  5
2ED
100
AcDbEntity
  8
0
  6
CONTINUOUS
 62
               7
100
AcDbLine
 10
24.999999999990109
 20
67.000000000002899
 30
0.0
 11
61.99999999999045
 21
67.00000000000631
 31
0.0
  0
LINE
  5
2EE
100
AcDbEntity
  8
0
  6
CONTINUOUS
 62
               7
100
AcDbLine
 10
25.000000000000114
 20
-12.499999999999943
 30
0.0
 11
24.99999999998829
 21
82.000000000001762
 31
0.0
  0
LINE
  5
2EF
100
AcDbEntity
  8
0
  6
CONTINUOUS
 62
               7
100
AcDbLine
 10
61.999999999989313
 20
76.00000000000631
 30
0.0
 11
60.799999999989154
 21
76.000000000006196
 31
0.0
  0
LINE
  5
2F0
100
AcDbEntity
  8
0
  6
CONTINUOUS
 62
               7
100
AcDbLine
 10
57.399999999988495
 20
82.000000000005855
 30
0.0
 11
57.399999999989859
 21
71.919155751120968
 31
0.0
  0
LINE
  5
2F1
100
AcDbEntity
  8
0
  6
CONTINUOUS
 62
               7
100
AcDbLine
 10
61.999999999558554
 20
68.50000000000631
 30
0.0
 11
58.55476355508506
 21
70.10654014349592
 31
0.0
  0
ARC
  5
2F2
100
AcDbEntity
  8
0
  6
CONTINUOUS
 62
               7
100
AcDbCircle
 10
59.399999999989859
 20
71.919155751121195
 30
0.0
 40
2.0
100
AcDbArc
 50
180.00000000000682
 51
245.00000149217658
  0
LINE
  5
2F3
100
AcDbEntity
  8
0
  6
CONTINUOUS
 62
               7
100
AcDbLine
 10
0.0000000177801667
 20
-5.0
 30
0.0
 11
24.000000017780167
 21
-5.0
 31
0.0
  0
LINE
  5
2F4
100
AcDbEntity
  8
0
  6
CONTINUOUS
 62
               7
100
AcDbLine
 10
0.0000000177801667
 20
59.999999999999943
 30
0.0
 11
24.000000017780167
 21
59.999999999999943
 31
0.0
  0
LINE
  5
2F5
100
AcDbEntity
  8
0
  6
CONTINUOUS
 62
               7
100
AcDbLine
 10
0.0
 20
79.999999999999943
 30
0.0
 11
24.999999999988518
 21
79.999999999999943
 31
0.0
  0
LINE
  5
2F6
100
AcDbEntity
  8
0
  6
CONTINUOUS
 62
               7
100
AcDbLine
 10
0.0
 20
-11.0
 30
0.0
 11
24.0
 21
-11.0
 31
0.0
  0
LINE
  5
2F7
100
AcDbEntity
  8
0
  6
CONTINUOUS
 62
               7
100
AcDbLine
 10
17.5
 20
75.000000002253444
 30
0.0
 11
17.5
 21
75.001316017355464
 31
0.0
  0
LINE
  5
2F8
100
AcDbEntity
  8
0
  6
CONTINUOUS
 62
               7
100
AcDbLine
 10
0.0
 20
-11.0
 30
0.0
 11
0.0
 21
79.999999999999943
 31
0.0
  0
LINE
  5
2F9
100
AcDbEntity
  8
0
  6
CENTER
 62
               2
100
AcDbLine
 10
22.758704414923898
 20
43.0
 30
0.0
 11
1.5389823340298676
 21
43.0
 31
0.0
  0
CIRCLE
  5
2FA
100
AcDbEntity
  8
0
  6
DASHED
 62
               7
100
AcDbCircle
 10
12.999999999999943
 20
43.0
 30
0.0
 40
7.4000000000000004
  0
CIRCLE
  5
2FB
100
AcDbEntity
  8
0
  6
DASHED
 62
               2
100
AcDbCircle
 10
12.999999999999943
 20
43.0
 30
0.0
 40
8.3000001907348633
  0
LINE
  5
2FC
100
AcDbEntity
  8
0
  6
CENTER
 62
               2
100
AcDbLine
 10
22.758704414923898
 20
18.0
 30
0.0
 11
1.5389823340298676
 21
18.0
 31
0.0
  0
CIRCLE
  5
2FD
100
AcDbEntity
  8
0
  6
DASHED
 62
               7
100
AcDbCircle
 10
12.999999999999943
 20
18.0
 30
0.0
 40
7.4000000000000004
  0
CIRCLE
  5
2FE
100
AcDbEntity
  8
0
  6
DASHED
 62
               2
100
AcDbCircle
 10
12.999999999999943
 20
18.0
 30
0.0
 40
8.3000001907348633
  0
LINE
  5
2FF
100
AcDbEntity
  8
0
  6
CONTINUOUS
 62
               4
100
AcDbLine
 10
60.7999999999887
 20
82.000000000004036
 30
0.0
 11
60.799999999985857
 21
117.00000000000449
 31
0.0
  0
LINE
  5
300
100
AcDbEntity
  8
0
  6
CONTINUOUS
 62
               4
100
AcDbLine
 10
61.899999995455687
 20
82.000000000004107
 30
0.0
 11
61.89999999545455
 21
121.50000000000244
 31
0.0
  0
CIRCLE
  5
301
100
AcDbEntity
  8
0
  6
CONTINUOUS
 62
               7
100
AcDbCircle
 10
12.999999999973817
 20
43.0
 30
0.0
 40
5.6800003051757812
  0
CIRCLE
  5
302
100
AcDbEntity
  8
0
  6
CONTINUOUS
 62
               2
100
AcDbCircle
 10
12.999999999973817
 20
43.0
 30
0.0
 40
6.5
  0
CIRCLE
  5
303
100
AcDbEntity
  8
0
  6
CONTINUOUS
 62
               7
100
AcDbCircle
 10
12.999999999973817
 20
18.0
 30
0.0
 40
5.6800003051757812
  0
CIRCLE
  5
304
100
AcDbEntity
  8
0
  6
CONTINUOUS
 62
               2
100
AcDbCircle
 10
12.999999999973817
 20
18.0
 30
0.0
 40
6.5
  0
LINE
  5
305
100
AcDbEntity
  8
0
  6
CENTER
 62
               2
100
AcDbLine
 10
17.0
 20
-15.0
 30
0.0
 11
17.0
 21
-7.0
 31
0.0
  0
ENDBLK
  5
306
100
AcDbEntity
  8
0
100
AcDbBlockEnd
  0
BLOCK
  5
307
100
AcDbEntity
  8
0
100
AcDbBlockBegin
  2
PA24A6-8
 70
               0
 10
0.0
 20
0.0
 30
0.0
  3
PA24A6-8
  1

  0
LINE
  5
308
100
AcDbEntity
  8
0
  6
CENTER
 62
               2
100
AcDbLine
 10
-5.0
 20
0.0
 30
0.0
 11
5.0
 21
0.0
 31
0.0
  0
LINE
  5
309
100
AcDbEntity
  8
0
  6
CENTER
 62
               2
100
AcDbLine
 10
-5.0
 20
74.999999999999943
 30
0.0
 11
5.0
 21
74.999999999999943
 31
0.0
  0
ARC
  5
30A
100
AcDbEntity
  8
0
  6
CONTINUOUS
 62
               4
100
AcDbCircle
 10
-27.999999999987722
 20
84.199999809258372
 30
0.0
 40
6.0
100
AcDbArc
 50
73.808645430493712
 51
106.19128262519777
  0
LINE
  5
30B
100
AcDbEntity
  8
0
  6
CONTINUOUS
 62
               4
100
AcDbLine
 10
-29.999999999990052
 20
90.200000009387566
 30
0.0
 11
-29.999999999989939
 21
89.999999999994031
 31
0.0
  0
LINE
  5
30C
100
AcDbEntity
  8
0
  6
CONTINUOUS
 62
               4
100
AcDbLine
 10
-29.536228429444861
 20
89.999999999993577
 30
0.0
 11
-32.899999999991621
 21
89.999999999992326
 31
0.0
  0
ARC
  5
30D
100
AcDbEntity
  8
0
  6
CONTINUOUS
 62
               4
100
AcDbCircle
 10
-31.299999999990064
 20
89.499999999992895
 30
0.0
 40
0.5
100
AcDbArc
 50
0.0000000000196431
 51
90.00000000001944
  0
LINE
  5
30E
100
AcDbEntity
  8
0
  6
CONTINUOUS
 62
               4
100
AcDbLine
 10
-30.799999999989382
 20
87.799999999992167
 30
0.0
 11
-30.799999999990064
 21
89.499999999993122
 31
0.0
  0
LINE
  5
30F
100
AcDbEntity
  8
0
  6
CONTINUOUS
 62
               4
100
AcDbLine
 10
-30.249999999989882
 20
89.193745613090357
 30
0.0
 11
-30.249999999989313
 21
87.799999999992281
 31
0.0
  0
LINE
  5
310
100
AcDbEntity
  8
0
  6
CONTINUOUS
 62
               4
100
AcDbLine
 10
-25.749999999989882
 20
89.193745613092403
 30
0.0
 11
-25.749999999989313
 21
87.799999999994213
 31
0.0
  0
LINE
  5
311
100
AcDbEntity
  8
0
  6
CONTINUOUS
 62
               4
100
AcDbLine
 10
-25.749999999989541
 20
88.499999999994486
 30
0.0
 11
-30.249999999989541
 21
88.49999999999244
 31
0.0
  0
ARC
  5
312
100
AcDbEntity
  8
0
  6
CONTINUOUS
 62
               4
100
AcDbCircle
 10
-29.449999809255019
 20
89.193745613090812
 30
0.0
 40
0.800000011920929
100
AcDbArc
 50
106.19135456955514
 51
180.00001798611356
  0
LINE
  5
313
100
AcDbEntity
  8
0
  6
CONTINUOUS
 62
               4
100
AcDbLine
 10
-25.499999999989427
 20
87.799999999994441
 30
0.0
 11
-30.799999999989382
 21
87.799999999992167
 31
0.0
  0
ARC
  5
314
100
AcDbEntity
  8
0
  6
CONTINUOUS
 62
               4
100
AcDbCircle
 10
-25.499999999989257
 20
87.299999999994441
 30
0.0
 40
0.5
100
AcDbArc
 50
0.0000000000196431
 51
90.00000000001944
  0
ARC
  5
315
100
AcDbEntity
  8
0
  6
CONTINUOUS
 62
               4
100
AcDbCircle
 10
-26.550000190724745
 20
89.193745613091949
 30
0.0
 40
0.800000011920929
100
AcDbArc
 50
359.99998201393447
 51
73.808645430493726
  0
LINE
  5
316
100
AcDbEntity
  8
0
  6
CONTINUOUS
 62
               7
100
AcDbLine
 10
-58.000000000000995
 20
53.999999880798157
 30
0.0
 11
-57.999999999999062
 21
61.999999880798157
 31
0.0
  0
LINE
  5
317
100
AcDbEntity
  8
0
  6
CONTINUOUS
 62
               7
100
AcDbLine
 10
-61.70000000000087
 20
54.499999880798157
 30
0.0
 11
-61.699999999999164
 21
61.499999880798157
 31
0.0
  0
LINE
  5
318
100
AcDbEntity
  8
0
  6
CONTINUOUS
 62
               7
100
AcDbLine
 10
-61.999999999992895
 20
53.999999880798157
 30
0.0
 11
-58.000000000000995
 21
53.999999880798157
 31
0.0
  0
LINE
  5
319
100
AcDbEntity
  8
0
  6
CONTINUOUS
 62
               7
100
AcDbLine
 10
-61.999999999992895
 20
61.999999880798157
 30
0.0
 11
-57.999999999999062
 21
61.999999880798157
 31
0.0
  0
LINE
  5
31A
100
AcDbEntity
  8
0
  6
CONTINUOUS
 62
               7
100
AcDbLine
 10
-61.70000000000087
 20
54.499999880798157
 30
0.0
 11
-58.000000000000881
 21
54.499999880798157
 31
0.0
  0
LINE
  5
31B
100
AcDbEntity
  8
0
  6
CONTINUOUS
 62
               7
100
AcDbLine
 10
-61.699999999999164
 20
61.499999880798157
 30
0.0
 11
-57.999999999999176
 21
61.499999880798157
 31
0.0
  0
LINE
  5
31C
100
AcDbEntity
  8
0
  6
CONTINUOUS
 62
               7
100
AcDbLine
 10
-61.70000000000087
 20
54.499999880798157
 30
0.0
 11
-61.999999999992895
 21
55.019614934928711
 31
0.0
  0
LINE
  5
31D
100
AcDbEntity
  8
0
  6
CONTINUOUS
 62
               7
100
AcDbLine
 10
-61.699999999999164
 20
61.499999880798157
 30
0.0
 11
-61.999999999992923
 21
60.980384588249024
 31
0.0
  0
LINE
  5
31E
100
AcDbEntity
  8
0
  6
CONTINUOUS
 62
               4
100
AcDbLine
 10
-24.999999999988574
 20
81.999999999995055
 30
0.0
 11
-24.999999999988802
 21
87.299999999994554
 31
0.0
  0
LINE
  5
31F
100
AcDbEntity
  8
0
  6
CONTINUOUS
 62
               4
100
AcDbLine
 10
-32.899999999989348
 20
89.999999999992326
 30
0.0
 11
-32.899999999985027
 21
121.99999999999574
 31
0.0
  0
LINE
  5
320
100
AcDbEntity
  8
0
  6
CONTINUOUS
 62
               4
100
AcDbLine
 10
-28.899999999984345
 20
120.99999999999574
 30
0.0
 11
-28.899999999984345
 21
119.49999998217112
 31
0.0
  0
ARC
  5
321
100
AcDbEntity
  8
0
  6
CONTINUOUS
 62
               4
100
AcDbCircle
 10
-28.399999999984345
 20
119.49999998217112
 30
0.0
 40
0.5
100
AcDbArc
 50
179.99999999999963
 51
269.99999999999937
  0
ARC
  5
322
100
AcDbEntity
  8
0
  6
CONTINUOUS
 62
               4
100
AcDbCircle
 10
-29.899999999984345
 20
120.99999999999574
 30
0.0
 40
1.0
100
AcDbArc
 50
0.0
 51
89.999999999999815
  0
LINE
  5
323
100
AcDbEntity
  8
0
  6
CONTINUOUS
 62
               4
100
AcDbLine
 10
-29.899999999984345
 20
121.99999999999574
 30
0.0
 11
-60.799999999985118
 21
121.99999999999596
 31
0.0
  0
LINE
  5
324
100
AcDbEntity
  8
0
  6
CENTER
 62
             200
100
AcDbLine
 10
-20.389104190847263
 20
101.29999999999626
 30
0.0
 11
-6.4893901489998029
 21
101.29999999999649
 31
0.0
  0
LINE
  5
325
100
AcDbEntity
  8
0
  6
CONTINUOUS
 62
               4
100
AcDbLine
 10
-17.89999999999776
 20
102.04999999999603
 30
0.0
 11
-14.717564891129712
 21
102.04999999999603
 31
0.0
  0
LINE
  5
326
100
AcDbEntity
  8
0
  6
CONTINUOUS
 62
               4
100
AcDbLine
 10
-17.899999999997647
 20
100.54999999999603
 30
0.0
 11
-15.120689891129757
 21
100.54999999999603
 31
0.0
  0
LINE
  5
327
100
AcDbEntity
  8
0
  6
CONTINUOUS
 62
               4
100
AcDbLine
 10
-18.199999999997715
 20
99.299999999996032
 30
0.0
 11
-18.89999999999776
 21
99.299999999996032
 31
0.0
  0
ARC
  5
328
100
AcDbEntity
  8
0
  6
CONTINUOUS
 62
               4
100
AcDbCircle
 10
-18.199999999997715
 20
99.599999999995987
 30
0.0
 40
0.3
100
AcDbArc
 50
270.00000000000023
 51
0.0
  0
LINE
  5
329
100
AcDbEntity
  8
0
  6
CONTINUOUS
 62
               4
100
AcDbLine
 10
-13.687564891129739
 20
102.04999999999603
 30
0.0
 11
-10.899127391129753
 21
102.04999999999603
 31
0.0
  0
LINE
  5
32A
100
AcDbEntity
  8
0
  6
CONTINUOUS
 62
               4
100
AcDbLine
 10
-14.059127391129721
 20
100.54999999999626
 30
0.0
 11
-10.899127391129753
 21
100.54999999999626
 31
0.0
  0
LINE
  5
32B
100
AcDbEntity
  8
0
  6
CONTINUOUS
 62
               4
100
AcDbLine
 10
-10.899127391129753
 20
101.04999999999626
 30
0.0
 11
-7.3991273911297526
 21
101.04999999999626
 31
0.0
  0
LINE
  5
32C
100
AcDbEntity
  8
0
  6
CONTINUOUS
 62
               4
100
AcDbLine
 10
-10.899127391129753
 20
101.54999999999626
 30
0.0
 11
-7.3991273911297526
 21
101.54999999999626
 31
0.0
  0
LINE
  5
32D
100
AcDbEntity
  8
0
  6
CONTINUOUS
 62
               4
100
AcDbLine
 10
-10.899127391129753
 20
102.04999999999603
 30
0.0
 11
-10.899127391129753
 21
100.54999999999626
 31
0.0
  0
LINE
  5
32E
100
AcDbEntity
  8
0
  6
CONTINUOUS
 62
               4
100
AcDbLine
 10
-7.3991273911297526
 20
101.54999999999626
 30
0.0
 11
-7.3991273911297526
 21
101.04999999999626
 31
0.0
  0
ARC
  5
32F
100
AcDbEntity
  8
0
  6
CONTINUOUS
 62
               4
100
AcDbCircle
 10
-19.899999999985027
 20
117.99999998217112
 30
0.0
 40
1.0
100
AcDbArc
 50
0.0
 51
89.999999999999815
  0
LINE
  5
330
100
AcDbEntity
  8
0
  6
CONTINUOUS
 62
               4
100
AcDbLine
 10
-18.199999999997715
 20
103.29999999999603
 30
0.0
 11
-18.89999999999776
 21
103.29999999999603
 31
0.0
  0
ARC
  5
331
100
AcDbEntity
  8
0
  6
CONTINUOUS
 62
               4
100
AcDbCircle
 10
-18.199999999997715
 20
102.99999999999608
 30
0.0
 40
0.3
100
AcDbArc
 50
0.0
 51
89.999999999999815
  0
LINE
  5
332
100
AcDbEntity
  8
0
  6
CONTINUOUS
 62
               4
100
AcDbLine
 10
-17.899999999997533
 20
99.599999999995987
 30
0.0
 11
-17.89999999999776
 21
102.99999999999608
 31
0.0
  0
LINE
  5
333
100
AcDbEntity
  8
0
  6
CONTINUOUS
 62
             200
100
AcDbLine
 10
-15.349127391129684
 20
99.699999999996123
 30
0.0
 11
-14.489127391129784
 21
102.89999999999617
 31
0.0
  0
LINE
  5
334
100
AcDbEntity
  8
0
  6
CONTINUOUS
 62
             200
100
AcDbLine
 10
-14.319127391129712
 20
99.699999999996123
 30
0.0
 11
-13.459127391129812
 21
102.89999999999617
 31
0.0
  0
LINE
  5
335
100
AcDbEntity
  8
0
  6
CONTINUOUS
 62
               4
100
AcDbLine
 10
-18.899999999985937
 20
96.065826257576589
 30
0.0
 11
-18.899999999985027
 21
117.99999997339529
 31
0.0
  0
LINE
  5
336
100
AcDbEntity
  8
0
  6
CONTINUOUS
 62
               4
100
AcDbLine
 10
-19.899999998700594
 20
118.99999998217112
 30
0.0
 11
-28.399999998700594
 21
118.99999998217112
 31
0.0
  0
LINE
  5
337
100
AcDbEntity
  8
0
  6
CONTINUOUS
 62
               7
100
AcDbLine
 10
-24.0
 20
79.999999999999943
 30
0.0
 11
-24.0
 21
-11.0
 31
0.0
  0
LINE
  5
338
100
AcDbEntity
  8
0
  6
CONTINUOUS
 62
               7
100
AcDbLine
 10
-62.0
 20
75.999999999999829
 30
0.0
 11
-62.000000000000171
 21
-12.499999999997158
 31
0.0
  0
LINE
  5
339
100
AcDbEntity
  8
0
  6
CONTINUOUS
 62
               7
100
AcDbLine
 10
-62.000000000000114
 20
-2.732050748467941
 30
0.0
 11
-24.999999999991473
 21
-2.732050748467941
 31
0.0
  0
LINE
  5
33A
100
AcDbEntity
  8
0
  6
CONTINUOUS
 62
               7
100
AcDbLine
 10
-62.000000000000114
 20
-0.9999998807912789
 30
0.0
 11
-24.999999999991246
 21
-0.9999998807912789
 31
0.0
  0
LINE
  5
33B
100
AcDbEntity
  8
0
  6
CONTINUOUS
 62
               7
100
AcDbLine
 10
-62.000000000000114
 20
3.0000001083848815
 30
0.0
 11
-25.000000000000114
 21
3.0000001083848815
 31
0.0
  0
LINE
  5
33C
100
AcDbEntity
  8
0
  6
CONTINUOUS
 62
               7
100
AcDbLine
 10
-62.000000000000114
 20
4.7320509159537778
 30
0.0
 11
-24.999999999990507
 21
4.7320509159537778
 31
0.0
  0
ARC
  5
33E
100
AcDbEntity
  8
0
  6
PHANTOM
 62
             200
100
AcDbCircle
 10
-60.900000006121161
 20
99.399999999997419
 30
0.0
 40
9.4000000000000004
100
AcDbArc
 50
178.7811247648682
 51
263.9275436570785
  0
LINE
  5
33F
100
AcDbEntity
  8
0
  6
PHANTOM
 62
             200
100
AcDbLine
 10
-62.500000006120842
 20
99.899999999997533
 30
0.0
 11
-60.90000000612141
 21
99.899999999997419
 31
0.0
  0
LINE
  5
340
100
AcDbEntity
  8
0
  6
PHANTOM
 62
             200
100
AcDbLine
 10
-62.500000006120956
 20
99.899999999997533
 30
0.0
 11
-62.50000000612107
 21
98.89999999999435
 31
0.0
  0
LINE
  5
341
100
AcDbEntity
  8
0
  6
PHANTOM
 62
             200
100
AcDbLine
 10
-69.800000006121479
 20
98.899999999994122
 30
0.0
 11
-60.90000000612141
 21
98.899999999994236
 31
0.0
  0
LINE
  5
342
100
AcDbEntity
  8
0
  6
PHANTOM
 62
             200
100
AcDbLine
 10
-69.300000006121479
 20
96.7999999999941
 30
0.0
 11
-63.500000006121525
 21
96.799999999994213
 31
0.0
  0
LINE
  5
343
100
AcDbEntity
  8
0
  6
PHANTOM
 62
             200
100
AcDbLine
 10
-69.800000006121707
 20
97.499999999994259
 30
0.0
 11
-63.000000006121525
 21
97.499999999994145
 31
0.0
  0
LINE
  5
344
100
AcDbEntity
  8
0
  6
PHANTOM
 62
             200
100
AcDbLine
 10
-69.800000006121593
 20
98.699999999994077
 30
0.0
 11
-63.000000006121525
 21
98.699999999994077
 31
0.0
  0
LINE
  5
345
100
AcDbEntity
  8
0
  6
PHANTOM
 62
             200
100
AcDbLine
 10
-63.600000006121434
 20
98.699999999994304
 30
0.0
 11
-63.600000006121434
 21
97.499999999994031
 31
0.0
  0
LINE
  5
346
100
AcDbEntity
  8
0
  6
PHANTOM
 62
             200
100
AcDbLine
 10
-63.000000006121525
 20
97.499999999994145
 30
0.0
 11
-63.000000006121525
 21
97.2999999999941
 31
0.0
  0
LINE
  5
347
100
AcDbEntity
  8
0
  6
PHANTOM
 62
             200
100
AcDbLine
 10
-63.000000006121411
 20
98.899999995466999
 30
0.0
 11
-63.000000006121411
 21
98.700000013348415
 31
0.0
  0
LINE
  5
348
100
AcDbEntity
  8
0
  6
PHANTOM
 62
             200
100
AcDbLine
 10
-69.250000006121752
 20
98.699999999994191
 30
0.0
 11
-69.250000006121866
 21
97.499999999994031
 31
0.0
  0
LINE
  5
349
100
AcDbEntity
  8
0
  6
PHANTOM
 62
             200
100
AcDbLine
 10
-69.800000006121707
 20
97.499999999994259
 30
0.0
 11
-69.800000006121479
 21
97.299999999993645
 31
0.0
  0
LINE
  5
34A
100
AcDbEntity
  8
0
  6
PHANTOM
 62
             200
100
AcDbLine
 10
-69.800000006121365
 20
99.599999999997465
 30
0.0
 11
-69.800000006121479
 21
98.70000001334796
 31
0.0
  0
LINE
  5
34B
100
AcDbEntity
  8
0
  6
PHANTOM
 62
             200
100
AcDbLine
 10
-70.300000006122161
 20
100.09999999999746
 30
0.0
 11
-70.300000006122275
 21
99.599999999997465
 31
0.0
  0
LINE
  5
34C
100
AcDbEntity
  8
0
  6
PHANTOM
 62
             200
100
AcDbLine
 10
-70.000000006122207
 20
100.39999999999742
 30
0.0
 11
-62.800000006120911
 21
100.39999999999742
 31
0.0
  0
ARC
  5
34D
100
AcDbEntity
  8
0
  6
PHANTOM
 62
             200
100
AcDbCircle
 10
-62.800000006120911
 20
100.09999999999746
 30
0.0
 40
0.3
100
AcDbArc
 50
0.0
 51
89.999999999999815
  0
ARC
  5
34E
100
AcDbEntity
  8
0
  6
PHANTOM
 62
             200
100
AcDbCircle
 10
-70.000000006122207
 20
100.09999999999746
 30
0.0
 40
0.3
100
AcDbArc
 50
89.999999999999815
 51
179.99999999999963
  0
LINE
  5
34F
100
AcDbEntity
  8
0
  6
CENTER
 62
             200
100
AcDbLine
 10
-66.400000006121616
 20
101.02757406876896
 30
0.0
 11
-66.400000006121616
 21
95.721963881074714
 31
0.0
  0
ARC
  5
350
100
AcDbEntity
  8
0
  6
PHANTOM
 62
             200
100
AcDbCircle
 10
-63.500000006121525
 20
97.299999999994213
 30
0.0
 40
0.5
100
AcDbArc
 50
269.99999999999937
 51
0.0
  0
ARC
  5
351
100
AcDbEntity
  8
0
  6
PHANTOM
 62
             200
100
AcDbCircle
 10
-69.300000006121479
 20
97.2999999999941
 30
0.0
 40
0.5
100
AcDbArc
 50
179.99999999999963
 51
269.99999999999937
  0
LINE
  5
352
100
AcDbEntity
  8
0
  6
PHANTOM
 62
             200
100
AcDbLine
 10
-70.300000006122275
 20
99.599999999997465
 30
0.0
 11
-69.800000006121365
 21
99.599999999997465
 31
0.0
  0
LINE
  5
353
100
AcDbEntity
  8
0
  6
PHANTOM
 62
             200
100
AcDbLine
 10
-62.500000006120842
 20
100.09999999422513
 30
0.0
 11
-62.500000006120842
 21
99.900000006146058
 31
0.0
  0
LINE
  5
354
100
AcDbEntity
  8
0
  6
CONTINUOUS
 62
               7
100
AcDbLine
 10
-60.799999999988756
 20
75.999999999999829
 30
0.0
 11
-60.799999999988273
 21
81.999999999997556
 31
0.0
  0
LINE
  5
355
100
AcDbEntity
  8
0
  6
CENTER
 62
               2
100
AcDbLine
 10
-57.328629636672758
 20
57.999999999999034
 30
0.0
 11
-63.239852399639972
 21
58.000000000000398
 31
0.0
  0
ARC
  5
356
100
AcDbEntity
  8
0
  6
CONTINUOUS
 62
               7
100
AcDbCircle
 10
-25.499999999999716
 20
-12.50000000000631
 30
0.0
 40
0.5
100
AcDbArc
 50
269.99999999999937
 51
0.0
  0
LINE
  5
357
100
AcDbEntity
  8
0
  6
CONTINUOUS
 62
               7
100
AcDbLine
 10
-25.292893218811173
 20
-10.292893212542197
 30
0.0
 11
-27.707106780959577
 21
-12.70710677468702
 31
0.0
  0
LINE
  5
358
100
AcDbEntity
  8
0
  6
CONTINUOUS
 62
               7
100
AcDbLine
 10
-27.379392844392214
 20
-12.803656906831861
 30
0.0
 11
-27.3793928443921
 21
-12.379392838119941
 31
0.0
  0
LINE
  5
359
100
AcDbEntity
  8
0
  6
CONTINUOUS
 62
               7
100
AcDbLine
 10
-25.399493855190599
 20
-10.823757917632463
 30
0.0
 11
-25.399493855190258
 21
-10.399493848920486
 31
0.0
  0
LINE
  5
35A
100
AcDbEntity
  8
0
  6
CONTINUOUS
 62
               7
100
AcDbLine
 10
-27.379392844392214
 20
-12.803656906831861
 30
0.0
 11
-25.399493855190599
 21
-10.823757917632463
 31
0.0
  0
ARC
  5
35B
100
AcDbEntity
  8
0
  6
CONTINUOUS
 62
               7
100
AcDbCircle
 10
-25.999999999997499
 20
-9.5857864313548475
 30
0.0
 40
1.0
100
AcDbArc
 50
314.99999999996515
 51
359.99999999996481
  0
ARC
  5
35C
100
AcDbEntity
  8
0
  6
CONTINUOUS
 62
               7
100
AcDbCircle
 10
-28.414213568656351
 20
-12.0000000000108
 30
0.0
 40
1.0
100
AcDbArc
 50
269.99999999996498
 51
315.00000052751835
  0
ARC
  5
35D
100
AcDbEntity
  8
0
  6
CONTINUOUS
 62
               7
100
AcDbCircle
 10
-61.5004328677648
 20
-12.50043286776156
 30
0.0
 40
0.499567319772501
100
AcDbArc
 50
179.9503540401617
 51
270.04964595980834
  0
LINE
  5
35E
100
AcDbEntity
  8
0
  6
CONTINUOUS
 62
               7
100
AcDbLine
 10
-25.499999999999716
 20
-13.000000000006366
 30
0.0
 11
-61.500000000000625
 21
-12.999999999997215
 31
0.0
  0
LINE
  5
35F
100
AcDbEntity
  8
0
  6
CONTINUOUS
 62
               7
100
AcDbLine
 10
-24.0
 20
-8.000000000003638
 30
0.0
 11
-61.999999999990052
 21
-8.0
 31
0.0
  0
LINE
  5
360
100
AcDbEntity
  8
0
  6
CONTINUOUS
 62
               7
100
AcDbLine
 10
-61.899999995455403
 20
76.499999994244661
 30
0.0
 11
-61.899999995455232
 21
81.999999999997627
 31
0.0
  0
LINE
  5
361
100
AcDbEntity
  8
0
  6
CONTINUOUS
 62
               4
100
AcDbLine
 10
-61.899999995454152
 20
120.09999999999803
 30
0.0
 11
-60.799999999984891
 21
120.09999999999792
 31
0.0
  0
LINE
  5
362
100
AcDbEntity
  8
0
  6
CONTINUOUS
 62
               4
100
AcDbLine
 10
-61.89999999545438
 20
116.89999999999799
 30
0.0
 11
-60.799999999985459
 21
116.89999999999799
 31
0.0
  0
LINE
  5
363
100
AcDbEntity
  8
0
  6
CONTINUOUS
 62
               4
100
AcDbLine
 10
-60.799999999985118
 20
121.99999999999596
 30
0.0
 11
-61.399999999985255
 21
121.99999999999608
 31
0.0
  0
ARC
  5
364
100
AcDbEntity
  8
0
  6
CONTINUOUS
 62
               4
100
AcDbCircle
 10
-61.399999999985255
 20
121.49999999999608
 30
0.0
 40
0.5
100
AcDbArc
 50
89.999999999999162
 51
179.99999999999895
  0
LINE
  5
365
100
AcDbEntity
  8
0
  6
CONTINUOUS
 62
               7
100
AcDbLine
 10
-57.899999999985823
 20
81.799999999995691
 30
0.0
 11
-60.799999999988302
 21
81.799999999995805
 31
0.0
  0
ARC
  5
366
100
AcDbEntity
  8
0
  6
CONTINUOUS
 62
               7
100
AcDbCircle
 10
-59.399999999985937
 20
71.999999999995737
 30
0.0
 40
2.0
100
AcDbArc
 50
179.99999999999804
 51
359.99999999999767
  0
LINE
  5
367
100
AcDbEntity
  8
0
  6
CONTINUOUS
 62
               7
100
AcDbLine
 10
-61.399999999985937
 20
71.999999994244547
 30
0.0
 11
-61.399999999985937
 21
75.999999994244547
 31
0.0
  0
ARC
  5
368
100
AcDbEntity
  8
0
  6
CONTINUOUS
 62
               7
100
AcDbCircle
 10
-61.399999999985937
 20
76.499999999995396
 30
0.0
 40
0.5
100
AcDbArc
 50
179.99999999999807
 51
269.9999999999979
  0
ARC
  5
369
100
AcDbEntity
  8
0
  6
CONTINUOUS
 62
               7
100
AcDbCircle
 10
-57.899999999985823
 20
81.299999999995691
 30
0.0
 40
0.5
100
AcDbArc
 50
359.99999999999767
 51
89.999999999998266
  0
LINE
  5
36A
100
AcDbEntity
  8
0
  6
CONTINUOUS
 62
               4
100
AcDbLine
 10
-61.999999995454175
 20
108.59999999999599
 30
0.0
 11
-61.999999995454061
 21
115.39999999546518
 31
0.0
  0
LINE
  5
36B
100
AcDbEntity
  8
0
  6
CONTINUOUS
 62
               4
100
AcDbLine
 10
-61.899999990923277
 20
115.49999999999596
 30
0.0
 11
-61.999999995454061
 21
115.39999999546518
 31
0.0
  0
LINE
  5
36C
100
AcDbEntity
  8
0
  6
CONTINUOUS
 62
               4
100
AcDbLine
 10
-61.999999995454175
 20
108.59999999999599
 30
0.0
 11
-61.899999995454152
 21
108.49999999999596
 31
0.0
  0
ARC
  5
36D
100
AcDbEntity
  8
0
  6
CONTINUOUS
 62
               4
100
AcDbCircle
 10
-32.099999999991212
 20
90.700000009389271
 30
0.0
 40
0.5
100
AcDbArc
 50
179.99999999999707
 51
269.99999999999687
  0
ARC
  5
36E
100
AcDbEntity
  8
0
  6
CONTINUOUS
 62
               4
100
AcDbCircle
 10
-32.09999999999053
 20
93.499999999995737
 30
0.0
 40
0.5
100
AcDbArc
 50
89.999999999997286
 51
179.99999999999707
  0
LINE
  5
36F
100
AcDbEntity
  8
0
  6
CONTINUOUS
 62
               4
100
AcDbLine
 10
-32.599999999991212
 20
90.700000009389385
 30
0.0
 11
-32.59999999999053
 21
93.49999999999585
 31
0.0
  0
LINE
  5
370
100
AcDbEntity
  8
0
  6
CONTINUOUS
 62
               4
100
AcDbLine
 10
-26.499999999989711
 20
93.999999999995509
 30
0.0
 11
-26.499999999989711
 21
94.999999999995509
 31
0.0
  0
LINE
  5
371
100
AcDbEntity
  8
0
  6
CONTINUOUS
 62
               4
100
AcDbLine
 10
-25.499999999989711
 20
93.999999999995509
 30
0.0
 11
-25.499999999989711
 21
94.999999999995509
 31
0.0
  0
LINE
  5
372
100
AcDbEntity
  8
0
  6
CONTINUOUS
 62
               4
100
AcDbLine
 10
-20.087511073623489
 20
93.999999999995168
 30
0.0
 11
-32.09999999999053
 21
93.999999999995737
 31
0.0
  0
LINE
  5
373
100
AcDbEntity
  8
0
  6
CONTINUOUS
 62
               4
100
AcDbLine
 10
-21.221432297654417
 20
90.200000009389043
 30
0.0
 11
-32.099999999991212
 21
90.200000009389271
 31
0.0
  0
ARC
  5
374
100
AcDbEntity
  8
0
  6
CONTINUOUS
 62
               4
100
AcDbCircle
 10
-32.39999999999992
 20
95.499999999995737
 30
0.0
 40
0.5
100
AcDbArc
 50
179.99999999999704
 51
269.99999999999687
  0
LINE
  5
375
100
AcDbEntity
  8
0
  6
CONTINUOUS
 62
               4
100
AcDbLine
 10
-19.167949194771552
 20
94.999999999995168
 30
0.0
 11
-32.400000000000034
 21
94.999999999995737
 31
0.0
  0
LINE
  5
376
100
AcDbEntity
  8
0
  6
CONTINUOUS
 62
               4
100
AcDbLine
 10
-20.255506476348103
 20
90.941180969010531
 30
0.0
 11
-18.91703708684139
 21
95.936416735025375
 31
0.0
  0
ARC
  5
377
100
AcDbEntity
  8
0
  6
CONTINUOUS
 62
               4
100
AcDbCircle
 10
-21.221432297653621
 20
91.200000009391545
 30
0.0
 40
1.0
100
AcDbArc
 50
269.99999999999937
 51
345.00000018740081
  0
ARC
  5
378
100
AcDbEntity
  8
0
  6
CONTINUOUS
 62
               4
100
AcDbCircle
 10
-31.900000000000261
 20
95.299999999995691
 30
0.0
 40
1.0
100
AcDbArc
 50
168.69006752581495
 51
342.54239687627518
  0
ARC
  5
379
100
AcDbEntity
  8
0
  6
CONTINUOUS
 62
               4
100
AcDbCircle
 10
-20.087511073623489
 20
93.499999999995168
 30
0.0
 40
0.5
100
AcDbArc
 50
345.00000000000006
 51
89.999999999999801
  0
ARC
  5
37A
100
AcDbEntity
  8
0
  6
CONTINUOUS
 62
               4
100
AcDbCircle
 10
-19.399999999985937
 20
96.065826257576703
 30
0.0
 40
0.5
100
AcDbArc
 50
344.99999999999966
 51
0.0
  0
ARC
  5
37B
100
AcDbEntity
  8
0
  6
CONTINUOUS
 62
               4
100
AcDbCircle
 10
-61.399999999985255
 20
117.49999999999801
 30
0.0
 40
0.5
100
AcDbArc
 50
179.99999999999775
 51
269.99999999999756
  0
ARC
  5
37C
100
AcDbEntity
  8
0
  6
CONTINUOUS
 62
               4
100
AcDbCircle
 10
-61.399999999985255
 20
119.49999999999801
 30
0.0
 40
0.5
100
AcDbArc
 50
89.999999999997996
 51
179.99999999999778
  0
LINE
  5
37D
100
AcDbEntity
  8
0
  6
CONTINUOUS
 62
               4
100
AcDbLine
 10
-60.799999999985346
 20
119.99999998575862
 30
0.0
 11
-60.799999999985118
 21
121.99999998575862
 31
0.0
  0
LINE
  5
37E
100
AcDbEntity
  8
0
  6
CONTINUOUS
 62
               4
100
AcDbLine
 10
-60.799999999985346
 20
119.99999999999801
 30
0.0
 11
-61.399999999985255
 21
119.99999999999801
 31
0.0
  0
LINE
  5
37F
100
AcDbEntity
  8
0
  6
CONTINUOUS
 62
               4
100
AcDbLine
 10
-60.799999999985346
 20
116.99999999999801
 30
0.0
 11
-61.399999999985482
 21
116.99999999999801
 31
0.0
  0
LINE
  5
380
100
AcDbEntity
  8
0
  6
CONTINUOUS
 62
               4
100
AcDbLine
 10
-28.099999999995077
 20
93.999999999995509
 30
0.0
 11
-28.653553390581862
 21
94.553553390582294
 31
0.0
  0
LINE
  5
381
100
AcDbEntity
  8
0
  6
CONTINUOUS
 62
               4
100
AcDbLine
 10
-30.799999999988074
 20
94.19999999170949
 30
0.0
 11
-30.799999999988074
 21
94.699999999989302
 31
0.0
  0
LINE
  5
382
100
AcDbEntity
  8
0
  6
CONTINUOUS
 62
               4
100
AcDbLine
 10
-29.007106781174969
 20
94.699999999989075
 30
0.0
 11
-30.799999999988074
 21
94.699999999989302
 31
0.0
  0
LINE
  5
383
100
AcDbEntity
  8
0
  6
CONTINUOUS
 62
               4
100
AcDbLine
 10
-30.799999999988074
 20
94.199999999989302
 30
0.0
 11
-32.899999999988097
 21
94.199999999989643
 31
0.0
  0
LINE
  5
384
100
AcDbEntity
  8
0
  6
CONTINUOUS
 62
               4
100
AcDbLine
 10
-32.89999999998571
 20
116.09999999889629
 30
0.0
 11
-32.799999999985801
 21
116.09999999889629
 31
0.0
  0
LINE
  5
385
100
AcDbEntity
  8
0
  6
CONTINUOUS
 62
               7
100
AcDbLine
 10
-24.999999999988574
 20
81.999999999995396
 30
0.0
 11
-60.799999999988529
 21
81.999999999997556
 31
0.0
  0
ARC
  5
386
100
AcDbEntity
  8
0
  6
CONTINUOUS
 62
               4
100
AcDbCircle
 10
-29.007106781175764
 20
94.199999999988279
 30
0.0
 40
0.5
100
AcDbArc
 50
45.000000000005194
 51
90.000000000004789
  0
LINE
  5
387
100
AcDbEntity
  8
0
  6
CONTINUOUS
 62
               4
100
AcDbLine
 10
-29.999999999988347
 20
94.699999999988279
 30
0.0
 11
-29.999999999988347
 21
93.999999999995623
 31
0.0
  0
LINE
  5
388
100
AcDbEntity
  8
0
  6
CONTINUOUS
 62
               7
100
AcDbLine
 10
-24.999999999989711
 20
66.999999999996419
 30
0.0
 11
-61.999999999990052
 21
66.999999999999943
 31
0.0
  0
LINE
  5
389
100
AcDbEntity
  8
0
  6
CONTINUOUS
 62
               7
100
AcDbLine
 10
-24.999999999999716
 20
-12.500000000006366
 30
0.0
 11
-24.999999999987892
 21
81.999999999995396
 31
0.0
  0
LINE
  5
38A
100
AcDbEntity
  8
0
  6
CONTINUOUS
 62
               7
100
AcDbLine
 10
-61.999999999988916
 20
75.999999999999943
 30
0.0
 11
-60.799999999988756
 21
75.999999999999829
 31
0.0
  0
LINE
  5
38B
100
AcDbEntity
  8
0
  6
CONTINUOUS
 62
               7
100
AcDbLine
 10
-57.399999999988097
 20
81.999999999999375
 30
0.0
 11
-57.399999999989461
 21
71.919155751114602
 31
0.0
  0
LINE
  5
38C
100
AcDbEntity
  8
0
  6
CONTINUOUS
 62
               7
100
AcDbLine
 10
-61.999999999558156
 20
68.499999999999943
 30
0.0
 11
-58.554763555084662
 21
70.10654014348944
 31
0.0
  0
ARC
  5
38D
100
AcDbEntity
  8
0
  6
CONTINUOUS
 62
               7
100
AcDbCircle
 10
-59.399999999989461
 20
71.919155751114829
 30
0.0
 40
2.0
100
AcDbArc
 50
294.99999850782217
 51
359.99999999999199
  0
LINE
  5
38E
100
AcDbEntity
  8
0
  6
CENTER
 62
               2
100
AcDbLine
 10
-22.99217516670322
 20
5.5
 30
0.0
 11
-1.8777172809047329
 21
5.5
 31
0.0
  0
LINE
  5
38F
100
AcDbEntity
  8
0
  6
CENTER
 62
               2
100
AcDbLine
 10
-22.99217516670322
 20
30.5
 30
0.0
 11
-1.8777172809047329
 21
30.5
 31
0.0
  0
LINE
  5
390
100
AcDbEntity
  8
0
  6
CENTER
 62
               2
100
AcDbLine
 10
-22.99217516670322
 20
55.499999999999943
 30
0.0
 11
-1.8777172809047329
 21
55.499999999999943
 31
0.0
  0
LINE
  5
391
100
AcDbEntity
  8
0
  6
CONTINUOUS
 62
               7
100
AcDbLine
 10
0.0
 20
-11.0
 30
0.0
 11
-24.0
 21
-11.0
 31
0.0
  0
LINE
  5
392
100
AcDbEntity
  8
0
  6
CONTINUOUS
 62
               7
100
AcDbLine
 10
0.0
 20
79.999999999999943
 30
0.0
 11
-24.99999999998812
 21
79.999999999999943
 31
0.0
  0
LINE
  5
393
100
AcDbEntity
  8
0
  6
CENTER
 62
               2
100
AcDbLine
 10
-12.999999999999943
 20
-8.0453779354449466
 30
0.0
 11
-12.999999999999943
 21
66.786371353768288
 31
0.0
  0
CIRCLE
  5
394
100
AcDbEntity
  8
0
  6
DASHED
 62
               7
100
AcDbCircle
 10
-12.999999999999943
 20
55.499999999999943
 30
0.0
 40
7.4000000000000004
  0
CIRCLE
  5
395
100
AcDbEntity
  8
0
  6
DASHED
 62
               2
100
AcDbCircle
 10
-12.999999999999943
 20
55.499999999999943
 30
0.0
 40
8.3000001907348633
  0
CIRCLE
  5
396
100
AcDbEntity
  8
0
  6
DASHED
 62
               7
100
AcDbCircle
 10
-12.999999999999943
 20
30.5
 30
0.0
 40
7.4000000000000004
  0
CIRCLE
  5
397
100
AcDbEntity
  8
0
  6
DASHED
 62
               2
100
AcDbCircle
 10
-12.999999999999943
 20
30.5
 30
0.0
 40
8.3000001907348633
  0
CIRCLE
  5
398
100
AcDbEntity
  8
0
  6
DASHED
 62
               7
100
AcDbCircle
 10
-12.999999999999943
 20
5.5
 30
0.0
 40
7.4000000000000004
  0
CIRCLE
  5
399
100
AcDbEntity
  8
0
  6
DASHED
 62
               2
100
AcDbCircle
 10
-12.999999999999943
 20
5.5
 30
0.0
 40
8.3000001907348633
  0
LINE
  5
39A
100
AcDbEntity
  8
0
  6
CONTINUOUS
 62
               7
100
AcDbLine
 10
0.0
 20
-11.0
 30
0.0
 11
0.0
 21
79.999999999999943
 31
0.0
  0
LINE
  5
39B
100
AcDbEntity
  8
0
  6
CONTINUOUS
 62
               4
100
AcDbLine
 10
-60.799999999988273
 20
81.999999999997556
 30
0.0
 11
-60.799999999985459
 21
116.99999999999801
 31
0.0
  0
LINE
  5
39C
100
AcDbEntity
  8
0
  6
CONTINUOUS
 62
               4
100
AcDbLine
 10
-61.899999995455232
 20
81.999999999997627
 30
0.0
 11
-61.899999995454152
 21
121.49999999999608
 31
0.0
  0
CIRCLE
  5
39D
100
AcDbEntity
  8
0
  6
CONTINUOUS
 62
               7
100
AcDbCircle
 10
-13.00000000002607
 20
55.499999999999943
 30
0.0
 40
5.6800003051757812
  0
CIRCLE
  5
39E
100
AcDbEntity
  8
0
  6
CONTINUOUS
 62
               2
100
AcDbCircle
 10
-13.00000000002607
 20
55.499999999999943
 30
0.0
 40
6.5
  0
CIRCLE
  5
39F
100
AcDbEntity
  8
0
  6
CONTINUOUS
 62
               7
100
AcDbCircle
 10
-13.00000000002607
 20
30.5
 30
0.0
 40
5.6800003051757812
  0
CIRCLE
  5
3A0
100
AcDbEntity
  8
0
  6
CONTINUOUS
 62
               2
100
AcDbCircle
 10
-13.00000000002607
 20
30.5
 30
0.0
 40
6.5
  0
CIRCLE
  5
3A1
100
AcDbEntity
  8
0
  6
CONTINUOUS
 62
               7
100
AcDbCircle
 10
-13.00000000002607
 20
5.5
 30
0.0
 40
5.6800003051757812
  0
CIRCLE
  5
3A2
100
AcDbEntity
  8
0
  6
CONTINUOUS
 62
               2
100
AcDbCircle
 10
-13.00000000002607
 20
5.5
 30
0.0
 40
6.5
  0
ARC
  5
3A3
100
AcDbEntity
  8
0
  6
PHANTOM
 62
             200
100
AcDbCircle
 10
-60.900000006121161
 20
99.399999999997419
 30
0.0
 40
0.5
100
AcDbArc
 50
269.9999999999709
 51
90.000000000028294
  0
ENDBLK
  5
3A4
100
AcDbEntity
  8
0
100
AcDbBlockEnd
  0
BLOCK
  5
3A5
100
AcDbEntity
  8
0
100
AcDbBlockBegin
  2
PA24A6-9
 70
               0
 10
0.0
 20
0.0
 30
0.0
  3
PA24A6-9
  1

  0
LINE
  5
3A6
100
AcDbEntity
  8
0
  6
CENTER
 62
               2
100
AcDbLine
 10
33.999999999999943
 20
-5.0
 30
0.0
 11
33.999999999999943
 21
5.0
 31
0.0
  0
LINE
  5
3A7
100
AcDbEntity
  8
0
  6
CENTER
 62
               2
100
AcDbLine
 10
0.0
 20
-5.0
 30
0.0
 11
0.0
 21
5.0
 31
0.0
  0
CIRCLE
  5
3A8
100
AcDbEntity
  8
0
  6
DASHED
 62
               7
100
AcDbCircle
 10
24.999999999999943
 20
17.0
 30
0.0
 40
2.1000000000000001
  0
CIRCLE
  5
3A9
100
AcDbEntity
  8
0
  6
DASHED
 62
               2
100
AcDbCircle
 10
24.999999999999943
 20
17.0
 30
0.0
 40
2.5
  0
LINE
  5
3AA
100
AcDbEntity
  8
0
  6
CENTER
 62
               2
100
AcDbLine
 10
21.318436273870844
 20
17.0
 30
0.0
 11
29.255089448080014
 21
17.0
 31
0.0
  0
LINE
  5
3AB
100
AcDbEntity
  8
0
  6
CENTER
 62
               2
100
AcDbLine
 10
24.999999999999943
 20
12.07670978547327
 30
0.0
 11
24.999999999999943
 21
21.213222225910613
 31
0.0
  0
LINE
  5
3AC
100
AcDbEntity
  8
0
  6
CONTINUOUS
 62
               7
100
AcDbLine
 10
4.5999999999991132
 20
25.0
 30
0.0
 11
4.5999999999991132
 21
24.0
 31
0.0
  0
LINE
  5
3AD
100
AcDbEntity
  8
0
  6
CONTINUOUS
 62
               7
100
AcDbLine
 10
5.5999999999987722
 20
25.0
 30
0.0
 11
4.5999999999991132
 21
25.0
 31
0.0
  0
LINE
  5
3AE
100
AcDbEntity
  8
0
  6
CONTINUOUS
 62
               7
100
AcDbLine
 10
28.399999999999068
 20
25.0
 30
0.0
 11
27.39999999999884
 21
25.0
 31
0.0
  0
LINE
  5
3AF
100
AcDbEntity
  8
0
  6
CONTINUOUS
 62
               7
100
AcDbLine
 10
28.399999999999068
 20
25.0
 30
0.0
 11
28.399999999999068
 21
24.0
 31
0.0
  0
LINE
  5
3B0
100
AcDbEntity
  8
0
  6
CONTINUOUS
 62
               7
100
AcDbLine
 10
4.0000000000004547
 20
-0.0000000214458282
 30
0.0
 11
4.0000000000004547
 21
23.999999978554172
 31
0.0
  0
LINE
  5
3B1
100
AcDbEntity
  8
0
  6
CONTINUOUS
 62
               7
100
AcDbLine
 10
-4.9999999991091499
 20
0.0
 30
0.0
 11
38.999999999999943
 21
0.0
 31
0.0
  0
LINE
  5
3B2
100
AcDbEntity
  8
0
  6
CONTINUOUS
 62
               7
100
AcDbLine
 10
-4.9999999991091499
 20
24.0
 30
0.0
 11
38.999999999999943
 21
24.0
 31
0.0
  0
LINE
  5
3B3
100
AcDbEntity
  8
0
  6
CONTINUOUS
 62
               7
100
AcDbLine
 10
38.999999999999943
 20
-0.0000000214458282
 30
0.0
 11
38.999999999999943
 21
24.0
 31
0.0
  0
LINE
  5
3B4
100
AcDbEntity
  8
0
  6
CONTINUOUS
 62
               7
100
AcDbLine
 10
-4.9999999999995453
 20
-0.0000000214458282
 30
0.0
 11
-4.9999999999995453
 21
23.999999978554172
 31
0.0
  0
LINE
  5
3B5
100
AcDbEntity
  8
0
  6
CENTER
 62
               2
100
AcDbLine
 10
16.499999999998749
 20
62.75
 30
0.0
 11
16.499999999998579
 21
21.477281603828828
 31
0.0
  0
LINE
  5
3B6
100
AcDbEntity
  8
0
  6
CONTINUOUS
 62
               7
100
AcDbLine
 10
28.40000000000191
 20
61.0
 30
0.0
 11
28.399999999999068
 21
25.999999999999943
 31
0.0
  0
LINE
  5
3B7
100
AcDbEntity
  8
0
  6
CONTINUOUS
 62
               7
100
AcDbLine
 10
4.6000000000019554
 20
61.000000000000114
 30
0.0
 11
4.5999999999992269
 21
26.000000000000057
 31
0.0
  0
CIRCLE
  5
3B8
100
AcDbEntity
  8
0
  6
CONTINUOUS
 62
               7
100
AcDbCircle
 10
16.499999999998749
 20
29.25
 30
0.0
 40
4.0
  0
CIRCLE
  5
3B9
100
AcDbEntity
  8
0
  6
CONTINUOUS
 62
               7
100
AcDbCircle
 10
16.499999999998749
 20
57.75
 30
0.0
 40
4.0
  0
LINE
  5
3BA
100
AcDbEntity
  8
0
  6
CONTINUOUS
 62
               7
100
AcDbLine
 10
14.802943880883618
 20
56.052944023936107
 30
0.0
 11
18.197056793463503
 21
59.447056650413629
 31
0.0
  0
LINE
  5
3BB
100
AcDbEntity
  8
0
  6
CONTINUOUS
 62
               7
100
AcDbLine
 10
18.197055871754628
 20
56.05294377657674
 30
0.0
 11
14.802943245277106
 21
59.447056689156625
 31
0.0
  0
LINE
  5
3BC
100
AcDbEntity
  8
0
  6
CONTINUOUS
 62
               7
100
AcDbLine
 10
14.802943880883618
 20
30.947055976064121
 30
0.0
 11
18.197056793463503
 21
27.552943349586485
 31
0.0
  0
LINE
  5
3BD
100
AcDbEntity
  8
0
  6
CONTINUOUS
 62
               7
100
AcDbLine
 10
18.197055871754628
 20
30.94705622342326
 30
0.0
 11
14.802943245277106
 21
27.552943310843375
 31
0.0
  0
CIRCLE
  5
3BE
100
AcDbEntity
  8
0
  6
CONTINUOUS
 62
               7
100
AcDbCircle
 10
16.499999999998749
 20
29.25
 30
0.0
 40
4.0999999999999996
  0
CIRCLE
  5
3BF
100
AcDbEntity
  8
0
  6
CONTINUOUS
 62
               7
100
AcDbCircle
 10
16.499999999998749
 20
57.75
 30
0.0
 40
4.0999999999999996
  0
ARC
  5
3C0
100
AcDbEntity
  8
0
  6
CONTINUOUS
 62
               7
100
AcDbCircle
 10
27.89999999999884
 20
28.914213568657374
 30
0.0
 40
0.5
100
AcDbArc
 50
269.99999999999937
 51
0.0
  0
ARC
  5
3C1
100
AcDbEntity
  8
0
  6
CONTINUOUS
 62
               7
100
AcDbCircle
 10
5.0999999999987722
 20
58.08578643134274
 30
0.0
 40
0.5
100
AcDbArc
 50
89.999999999999815
 51
179.99999999999963
  0
CIRCLE
  5
3C2
100
AcDbEntity
  8
0
  6
CONTINUOUS
 62
               7
100
AcDbCircle
 10
8.9999999999987494
 20
30.549999999751208
 30
0.0
 40
2.25
  0
CIRCLE
  5
3C3
100
AcDbEntity
  8
0
  6
CONTINUOUS
 62
               7
100
AcDbCircle
 10
23.999999999998749
 20
56.450000000248906
 30
0.0
 40
2.25
  0
ARC
  5
3C4
100
AcDbEntity
  8
0
  6
CONTINUOUS
 62
               7
100
AcDbCircle
 10
21.89999999999884
 20
25.5
 30
0.0
 40
0.5
100
AcDbArc
 50
269.99999999999937
 51
0.0
  0
ARC
  5
3C5
100
AcDbEntity
  8
0
  6
CONTINUOUS
 62
               7
100
AcDbCircle
 10
22.89999999999884
 20
27.914213568657374
 30
0.0
 40
0.5
100
AcDbArc
 50
89.999999999999815
 51
179.99999999999963
  0
LINE
  5
3C6
100
AcDbEntity
  8
0
  6
CONTINUOUS
 62
               7
100
AcDbLine
 10
22.89999999999884
 20
28.414213568657374
 30
0.0
 11
27.89999999999884
 21
28.414213568657374
 31
0.0
  0
LINE
  5
3C7
100
AcDbEntity
  8
0
  6
CONTINUOUS
 62
               7
100
AcDbLine
 10
22.39999999999884
 20
27.914213568657374
 30
0.0
 11
22.39999999999884
 21
25.5
 31
0.0
  0
ARC
  5
3C8
100
AcDbEntity
  8
0
  6
CONTINUOUS
 62
               7
100
AcDbCircle
 10
11.099999999998772
 20
61.5
 30
0.0
 40
0.5
100
AcDbArc
 50
89.999999999999815
 51
179.99999999999963
  0
ARC
  5
3C9
100
AcDbEntity
  8
0
  6
CONTINUOUS
 62
               7
100
AcDbCircle
 10
10.099999999998772
 20
59.08578643134274
 30
0.0
 40
0.5
100
AcDbArc
 50
269.99999999999937
 51
0.0
  0
LINE
  5
3CA
100
AcDbEntity
  8
0
  6
CONTINUOUS
 62
               7
100
AcDbLine
 10
10.099999999998772
 20
58.58578643134274
 30
0.0
 11
5.0999999999987722
 21
58.58578643134274
 31
0.0
  0
LINE
  5
3CB
100
AcDbEntity
  8
0
  6
CONTINUOUS
 62
               7
100
AcDbLine
 10
10.599999999998772
 20
59.08578643134274
 30
0.0
 11
10.599999999998772
 21
61.5
 31
0.0
  0
LINE
  5
3CC
100
AcDbEntity
  8
0
  6
CENTER
 62
               2
100
AcDbLine
 10
27.188191971272431
 20
56.500000000248974
 30
0.0
 11
21.245776841576458
 21
56.500000000248974
 31
0.0
  0
LINE
  5
3CD
100
AcDbEntity
  8
0
  6
CENTER
 62
               2
100
AcDbLine
 10
23.999999999998749
 20
53.715034761150264
 30
0.0
 11
23.999999999998749
 21
59.694866788804347
 31
0.0
  0
LINE
  5
3CE
100
AcDbEntity
  8
0
  6
CENTER
 62
               2
100
AcDbLine
 10
5.8118080287250677
 20
30.499999999751253
 30
0.0
 11
12.16083105737323
 21
30.499999999751253
 31
0.0
  0
LINE
  5
3CF
100
AcDbEntity
  8
0
  6
CENTER
 62
               2
100
AcDbLine
 10
8.9999999999987494
 20
33.78496523884985
 30
0.0
 11
8.9999999999987494
 21
27.305133211195766
 31
0.0
  0
LINE
  5
3D0
100
AcDbEntity
  8
0
  6
CENTER
 62
               2
100
AcDbLine
 10
2.8842427451352251
 20
43.5
 30
0.0
 11
29.705902948465337
 21
43.5
 31
0.0
  0
ARC
  5
3D1
100
AcDbEntity
  8
0
  6
CONTINUOUS
 62
               7
100
AcDbCircle
 10
5.5999999999987722
 20
26.0
 30
0.0
 40
1.0
100
AcDbArc
 50
179.99999999999963
 51
269.99999999999937
  0
ARC
  5
3D2
100
AcDbEntity
  8
0
  6
CONTINUOUS
 62
               7
100
AcDbCircle
 10
5.5999999999987722
 20
61.0
 30
0.0
 40
1.0
100
AcDbArc
 50
89.999999999999815
 51
179.99999999999963
  0
ARC
  5
3D3
100
AcDbEntity
  8
0
  6
CONTINUOUS
 62
               7
100
AcDbCircle
 10
27.39999999999884
 20
61.0
 30
0.0
 40
1.0
100
AcDbArc
 50
0.0
 51
89.999999999999815
  0
ARC
  5
3D4
100
AcDbEntity
  8
0
  6
CONTINUOUS
 62
               7
100
AcDbCircle
 10
27.39999999999884
 20
26.0
 30
0.0
 40
1.0
100
AcDbArc
 50
269.99999999999937
 51
0.0
  0
LINE
  5
3D5
100
AcDbEntity
  8
0
  6
CONTINUOUS
 62
               7
100
AcDbLine
 10
5.5999999999987722
 20
62.0
 30
0.0
 11
27.39999999999884
 21
62.0
 31
0.0
  0
LINE
  5
3D6
100
AcDbEntity
  8
0
  6
CONTINUOUS
 62
               7
100
AcDbLine
 10
5.5999999999987722
 20
25.0
 30
0.0
 11
27.39999999999884
 21
25.0
 31
0.0
  0
ENDBLK
  5
3D7
100
AcDbEntity
  8
0
100
AcDbBlockEnd
  0
BLOCK
  5
3D8
100
AcDbEntity
  8
0
100
AcDbBlockBegin
  2
PA24A6-10
 70
               0
 10
0.0
 20
0.0
 30
0.0
  3
PA24A6-10
  1

  0
CIRCLE
  5
3D9
100
AcDbEntity
  8
0
  6
CONTINUOUS
 62
               7
100
AcDbCircle
 10
0.0
 20
0.0
 30
0.0
 40
2.7000000000000002
  0
CIRCLE
  5
3DA
100
AcDbEntity
  8
0
  6
CONTINUOUS
 62
               7
100
AcDbCircle
 10
33.999999999999943
 20
74.999999999999943
 30
0.0
 40
2.7000000000000002
  0
ARC
  5
3DB
100
AcDbEntity
  8
0
  6
CONTINUOUS
 62
               7
100
AcDbCircle
 10
-4.0
 20
58.999999999999943
 30
0.0
 40
1.0
100
AcDbArc
 50
89.999999999999815
 51
179.99999999999963
  0
LINE
  5
3DC
100
AcDbEntity
  8
0
  6
CENTER
 62
               2
100
AcDbLine
 10
30.042568627498838
 20
74.999999999999943
 30
0.0
 11
39.196056725389951
 21
74.999999999999943
 31
0.0
  0
ARC
  5
3DD
100
AcDbEntity
  8
0
  6
CONTINUOUS
 62
               7
100
AcDbCircle
 10
37.999999999999943
 20
-10.0
 30
0.0
 40
1.0
100
AcDbArc
 50
270.00000000000023
 51
0.0
  0
ARC
  5
3DE
100
AcDbEntity
  8
0
  6
CONTINUOUS
 62
               7
100
AcDbCircle
 10
3.0000000000004547
 20
-6.0
 30
0.0
 40
1.0
100
AcDbArc
 50
0.0
 51
89.999999999999815
  0
LINE
  5
3DF
100
AcDbEntity
  8
0
  6
CONTINUOUS
 62
               7
100
AcDbLine
 10
3.0000000119212018
 20
-5.0
 30
0.0
 11
0.0
 21
-5.0
 31
0.0
  0
ARC
  5
3E0
100
AcDbEntity
  8
0
  6
CONTINUOUS
 62
               7
100
AcDbCircle
 10
0.0
 20
0.0
 30
0.0
 40
5.0
100
AcDbArc
 50
179.99999999999963
 51
269.99999999999937
  0
ARC
  5
3E1
100
AcDbEntity
  8
0
  6
CONTINUOUS
 62
               7
100
AcDbCircle
 10
5.0000000000004547
 20
-10.0
 30
0.0
 40
1.0
100
AcDbArc
 50
179.99999999999963
 51
246.4218215216647
  0
LINE
  5
3E2
100
AcDbEntity
  8
0
  6
CONTINUOUS
 62
               7
100
AcDbLine
 10
4.0000000000004547
 20
-10.0
 30
0.0
 11
4.0000000000004547
 21
-6.0
 31
0.0
  0
ARC
  5
3E3
100
AcDbEntity
  8
0
  6
CONTINUOUS
 62
               7
100
AcDbCircle
 10
3.0
 20
60.999999999999943
 30
0.0
 40
1.0
100
AcDbArc
 50
269.99999999999937
 51
0.0
  0
LINE
  5
3E4
100
AcDbEntity
  8
0
  6
CONTINUOUS
 62
               7
100
AcDbLine
 10
-4.0
 20
59.999999999999943
 30
0.0
 11
3.0
 21
59.999999999999943
 31
0.0
  0
LINE
  5
3E5
100
AcDbEntity
  8
0
  6
CONTINUOUS
 62
               7
100
AcDbLine
 10
4.0
 20
60.999999999999943
 30
0.0
 11
4.0
 21
74.999999999999943
 31
0.0
  0
LINE
  5
3E6
100
AcDbEntity
  8
0
  6
CENTER
 62
               2
100
AcDbLine
 10
6.6782932201736003
 20
0.0
 30
0.0
 11
-4.6277648756251892
 21
0.0
 31
0.0
  0
LINE
  5
3E7
100
AcDbEntity
  8
0
  6
CENTER
 62
               2
100
AcDbLine
 10
0.0
 20
-4.240734955477194
 30
0.0
 11
0.0
 21
4.4336281086322629
 31
0.0
  0
LINE
  5
3E8
100
AcDbEntity
  8
0
  6
CENTER
 62
               2
100
AcDbLine
 10
33.999999999999943
 20
71.269653850984184
 30
0.0
 11
33.999999999999943
 21
78.904177219395876
 31
0.0
  0
LINE
  5
3E9
100
AcDbEntity
  8
0
  6
CONTINUOUS
 62
               7
100
AcDbLine
 10
38.999999999999943
 20
-10.0
 30
0.0
 11
38.999999999999943
 21
74.999999999999943
 31
0.0
  0
LINE
  5
3EA
100
AcDbEntity
  8
0
  6
CONTINUOUS
 62
               7
100
AcDbLine
 10
-4.9999999999995453
 20
0.0
 30
0.0
 11
-5.0
 21
58.999999999999943
 31
0.0
  0
LINE
  5
3EB
100
AcDbEntity
  8
0
  6
CONTINUOUS
 62
               7
100
AcDbLine
 10
37.999999999999943
 20
-11.0
 30
0.0
 11
28.399999999998954
 21
-11.0
 31
0.0
  0
LINE
  5
3EC
100
AcDbEntity
  8
0
  6
CONTINUOUS
 62
               7
100
AcDbLine
 10
28.400000000001
 20
79.999999999999943
 30
0.0
 11
33.999999999999943
 21
79.999999999999943
 31
0.0
  0
ARC
  5
3ED
100
AcDbEntity
  8
0
  6
CONTINUOUS
 62
               7
100
AcDbCircle
 10
33.999999999999943
 20
74.999999999999943
 30
0.0
 40
5.0
100
AcDbArc
 50
0.0
 51
89.999999999999815
  0
ARC
  5
3EE
100
AcDbEntity
  8
0
  6
CONTINUOUS
 62
               7
100
AcDbCircle
 10
9.0
 20
74.999999999999943
 30
0.0
 40
5.0
100
AcDbArc
 50
151.64236342367738
 51
179.99999999999963
  0
LINE
  5
3EF
100
AcDbEntity
  8
0
  6
CONTINUOUS
 62
               4
100
AcDbLine
 10
25.800000000000118
 20
97.799999999999443
 30
0.0
 11
7.2000000000000455
 21
97.799999999999443
 31
0.0
  0
LINE
  5
3F0
100
AcDbEntity
  8
0
  6
CONTINUOUS
 62
               4
100
AcDbLine
 10
24.400000000000091
 20
99.899999999998897
 30
0.0
 11
25.800000000000182
 21
99.899999999998897
 31
0.0
  0
LINE
  5
3F1
100
AcDbEntity
  8
0
  6
CONTINUOUS
 62
               4
100
AcDbLine
 10
24.400000000000091
 20
97.799999999999443
 30
0.0
 11
24.400000000000091
 21
99.899999999998897
 31
0.0
  0
ARC
  5
3F2
100
AcDbEntity
  8
0
  6
CONTINUOUS
 62
               4
100
AcDbCircle
 10
25.299999999999955
 20
90.499999999999034
 30
0.0
 40
0.5
100
AcDbArc
 50
269.9999999999979
 51
359.99999999999767
  0
LINE
  5
3F3
100
AcDbEntity
  8
0
  6
CONTINUOUS
 62
               4
100
AcDbLine
 10
25.299999999999955
 20
89.999999999999261
 30
0.0
 11
7.7000000000000455
 21
89.999999999999261
 31
0.0
  0
ARC
  5
3F4
100
AcDbEntity
  8
0
  6
CONTINUOUS
 62
               4
100
AcDbCircle
 10
7.7000000000000455
 20
90.499999999999261
 30
0.0
 40
0.5
100
AcDbArc
 50
179.99999999999963
 51
269.99999999999937
  0
LINE
  5
3F5
100
AcDbEntity
  8
0
  6
CONTINUOUS
 62
               4
100
AcDbLine
 10
8.6000000000001364
 20
99.899999999999352
 30
0.0
 11
7.2000000000002728
 21
99.899999999999352
 31
0.0
  0
LINE
  5
3F6
100
AcDbEntity
  8
0
  6
CONTINUOUS
 62
               4
100
AcDbLine
 10
8.6000000000001364
 20
97.799999999999443
 30
0.0
 11
8.6000000000001364
 21
99.899999999999352
 31
0.0
  0
LINE
  5
3F7
100
AcDbEntity
  8
0
  6
CONTINUOUS
 62
               4
100
AcDbLine
 10
20.017157286864631
 20
91.499999999999261
 30
0.0
 11
12.982842713135369
 21
91.499999999999261
 31
0.0
  0
LINE
  5
3F8
100
AcDbEntity
  8
0
  6
CONTINUOUS
 62
               4
100
AcDbLine
 10
16.358578643762712
 20
95.358578643100998
 30
0.0
 11
12.841421356898081
 21
91.841421356236594
 31
0.0
  0
LINE
  5
3F9
100
AcDbEntity
  8
0
  6
CONTINUOUS
 62
               4
100
AcDbLine
 10
16.641421356237288
 20
95.358578643100998
 30
0.0
 11
20.158578643101919
 21
91.841421356236594
 31
0.0
  0
ARC
  5
3FA
100
AcDbEntity
  8
0
  6
CONTINUOUS
 62
               4
100
AcDbCircle
 10
16.5
 20
95.21715728686371
 30
0.0
 40
0.2
100
AcDbArc
 50
44.99999999999919
 51
134.99999999999898
  0
ARC
  5
3FB
100
AcDbEntity
  8
0
  6
CONTINUOUS
 62
               4
100
AcDbCircle
 10
12.982842713135369
 20
91.699999999999307
 30
0.0
 40
0.2
100
AcDbArc
 50
134.99999999999793
 51
269.99999999999937
  0
ARC
  5
3FC
100
AcDbEntity
  8
0
  6
CONTINUOUS
 62
               4
100
AcDbCircle
 10
20.017157286864631
 20
91.699999999999307
 30
0.0
 40
0.2
100
AcDbArc
 50
269.99999999999937
 51
45.000000000000966
  0
LINE
  5
3FD
100
AcDbEntity
  8
0
  6
CONTINUOUS
 62
               4
100
AcDbLine
 10
27.199999999373404
 20
116.9000000000014
 30
0.0
 11
28.399999993412848
 21
116.9000000000014
 31
0.0
  0
LINE
  5
3FE
100
AcDbEntity
  8
0
  6
CONTINUOUS
 62
               4
100
AcDbLine
 10
27.199999999373404
 20
120.10000000000144
 30
0.0
 11
28.399999993413076
 21
120.10000000000144
 31
0.0
  0
ARC
  5
3FF
100
AcDbEntity
  8
0
  6
CONTINUOUS
 62
               4
100
AcDbCircle
 10
27.400000000000318
 20
120.99999999999926
 30
0.0
 40
1.0
100
AcDbArc
 50
359.99999999999847
 51
89.999999999998266
  0
LINE
  5
400
100
AcDbEntity
  8
0
  6
CONTINUOUS
 62
               4
100
AcDbLine
 10
5.6000000000005912
 20
121.99999999999949
 30
0.0
 11
27.400000000000546
 21
121.99999999999926
 31
0.0
  0
LINE
  5
401
100
AcDbEntity
  8
0
  6
CONTINUOUS
 62
               4
100
AcDbLine
 10
27.200000000000273
 20
116.9000000000014
 30
0.0
 11
27.2000000000005
 21
120.10000000000144
 31
0.0
  0
ARC
  5
402
100
AcDbEntity
  8
0
  6
CONTINUOUS
 62
               4
100
AcDbCircle
 10
5.6000000000005912
 20
120.99999999999949
 30
0.0
 40
1.0
100
AcDbArc
 50
89.999999999999815
 51
179.99999999999963
  0
LINE
  5
403
100
AcDbEntity
  8
0
  6
CONTINUOUS
 62
               4
100
AcDbLine
 10
5.8000000006275059
 20
120.10000000000167
 30
0.0
 11
4.6000000065878339
 21
120.10000000000167
 31
0.0
  0
LINE
  5
404
100
AcDbEntity
  8
0
  6
CONTINUOUS
 62
               4
100
AcDbLine
 10
24.500000000000455
 20
115.49999999999926
 30
0.0
 11
24.500000000000227
 21
108.49999999999926
 31
0.0
  0
LINE
  5
405
100
AcDbEntity
  8
0
  6
CONTINUOUS
 62
               4
100
AcDbLine
 10
18.500000000000455
 20
115.49999999999926
 30
0.0
 11
18.500000000000227
 21
108.49999999999926
 31
0.0
  0
LINE
  5
406
100
AcDbEntity
  8
0
  6
CONTINUOUS
 62
               4
100
AcDbLine
 10
5.8000000000004093
 20
116.90000000000185
 30
0.0
 11
5.8000000000004093
 21
120.10000000000167
 31
0.0
  0
LINE
  5
407
100
AcDbEntity
  8
0
  6
CONTINUOUS
 62
               4
100
AcDbLine
 10
5.8000000006275059
 20
116.90000000000185
 30
0.0
 11
4.6000000065878339
 21
116.90000000000185
 31
0.0
  0
LINE
  5
408
100
AcDbEntity
  8
0
  6
CONTINUOUS
 62
               7
100
AcDbLine
 10
4.5999999999996817
 20
75.999999999999261
 30
0.0
 11
28.399999999999864
 21
75.999999999998806
 31
0.0
  0
LINE
  5
409
100
AcDbEntity
  8
0
  6
CONTINUOUS
 62
               7
100
AcDbLine
 10
5.8999999999994088
 20
68.49999999979849
 30
0.0
 11
5.8999999999998636
 21
75.999999999999261
 31
0.0
  0
LINE
  5
40A
100
AcDbEntity
  8
0
  6
CONTINUOUS
 62
               7
100
AcDbLine
 10
5.8999999887064405
 20
69.999999999999488
 30
0.0
 11
5.1000000065878339
 21
69.999999999999488
 31
0.0
  0
ARC
  5
40B
100
AcDbEntity
  8
0
  6
CONTINUOUS
 62
               7
100
AcDbCircle
 10
5.0999999999996817
 20
70.499999999999488
 30
0.0
 40
0.5
100
AcDbArc
 50
179.99999999999963
 51
269.99999999999937
  0
LINE
  5
40C
100
AcDbEntity
  8
0
  6
CONTINUOUS
 62
               7
100
AcDbLine
 10
27.099999999999909
 20
68.49999999979849
 30
0.0
 11
27.099999999999909
 21
75.999999999999034
 31
0.0
  0
ARC
  5
40D
100
AcDbEntity
  8
0
  6
CONTINUOUS
 62
               7
100
AcDbCircle
 10
27.899999999999864
 20
70.499999999999261
 30
0.0
 40
0.5
100
AcDbArc
 50
269.9999999999979
 51
359.99999999999767
  0
LINE
  5
40E
100
AcDbEntity
  8
0
  6
CONTINUOUS
 62
               7
100
AcDbLine
 10
27.100000011293105
 20
69.999999999999261
 30
0.0
 11
27.899999993411711
 21
69.999999999999261
 31
0.0
  0
LINE
  5
40F
100
AcDbEntity
  8
0
  6
CONTINUOUS
 62
               4
100
AcDbLine
 10
23.100000000000136
 20
97.900000000000489
 30
0.0
 11
9.9000000000000909
 21
97.900000000000489
 31
0.0
  0
LINE
  5
410
100
AcDbEntity
  8
0
  6
CONTINUOUS
 62
               4
100
AcDbLine
 10
25.299999999999955
 20
89.900000000000489
 30
0.0
 11
20.5
 21
89.900000000000489
 31
0.0
  0
ARC
  5
411
100
AcDbEntity
  8
0
  6
CONTINUOUS
 62
               4
100
AcDbCircle
 10
25.299999999999955
 20
90.400000000000489
 30
0.0
 40
0.5
100
AcDbArc
 50
269.99999999999937
 51
0.0
  0
LINE
  5
412
100
AcDbEntity
  8
0
  6
CONTINUOUS
 62
               4
100
AcDbLine
 10
7.2000000000000455
 20
90.400000000000944
 30
0.0
 11
7.2000000000002728
 21
100.70020753607963
 31
0.0
  0
ARC
  5
413
100
AcDbEntity
  8
0
  6
CONTINUOUS
 62
               4
100
AcDbCircle
 10
7.7000000000000455
 20
90.400000000000489
 30
0.0
 40
0.5
100
AcDbArc
 50
179.99999999999963
 51
269.99999999999937
  0
LINE
  5
414
100
AcDbEntity
  8
0
  6
CONTINUOUS
 62
               4
100
AcDbLine
 10
9.4000000000000909
 20
98.400000000000489
 30
0.0
 11
9.4000000000000909
 21
99.999999994248526
 31
0.0
  0
ARC
  5
415
100
AcDbEntity
  8
0
  6
CONTINUOUS
 62
               4
100
AcDbCircle
 10
9.9000000000000909
 20
98.400000000000489
 30
0.0
 40
0.5
100
AcDbArc
 50
179.99999999999963
 51
269.99999999999937
  0
ARC
  5
416
100
AcDbEntity
  8
0
  6
CONTINUOUS
 62
               4
100
AcDbCircle
 10
23.100000000000136
 20
98.400000000000489
 30
0.0
 40
0.5
100
AcDbArc
 50
269.99999999999937
 51
0.0
  0
LINE
  5
417
100
AcDbEntity
  8
0
  6
CONTINUOUS
 62
               4
100
AcDbLine
 10
20.0
 20
88.700000000000671
 30
0.0
 11
13.0
 21
88.700000000000671
 31
0.0
  0
LINE
  5
418
100
AcDbEntity
  8
0
  6
CONTINUOUS
 62
               4
100
AcDbLine
 10
20.5
 20
89.200000000000671
 30
0.0
 11
20.5
 21
89.900000000000489
 31
0.0
  0
ARC
  5
419
100
AcDbEntity
  8
0
  6
CONTINUOUS
 62
               4
100
AcDbCircle
 10
20.0
 20
89.200000000000671
 30
0.0
 40
0.5
100
AcDbArc
 50
269.99999999999937
 51
0.0
  0
LINE
  5
41A
100
AcDbEntity
  8
0
  6
CONTINUOUS
 62
               4
100
AcDbLine
 10
12.5
 20
89.200000000000671
 30
0.0
 11
12.5
 21
89.900000000000716
 31
0.0
  0
ARC
  5
41B
100
AcDbEntity
  8
0
  6
CONTINUOUS
 62
               4
100
AcDbCircle
 10
13.0
 20
89.200000000000671
 30
0.0
 40
0.5
100
AcDbArc
 50
179.99999999999807
 51
269.9999999999979
  0
LINE
  5
41C
100
AcDbEntity
  8
0
  6
CONTINUOUS
 62
               4
100
AcDbLine
 10
25.799999999999955
 20
90.400000000000489
 30
0.0
 11
25.800000000000182
 21
100.7002075360794
 31
0.0
  0
LINE
  5
41D
100
AcDbEntity
  8
0
  6
CONTINUOUS
 62
               4
100
AcDbLine
 10
9.4000000000000909
 20
99.999999994248526
 30
0.0
 11
7.2000000000002728
 21
99.999999994248526
 31
0.0
  0
LINE
  5
41E
100
AcDbEntity
  8
0
  6
CONTINUOUS
 62
               4
100
AcDbLine
 10
8.6000000000001364
 20
100.70020753607963
 30
0.0
 11
7.2000000125483439
 21
100.70020753607963
 31
0.0
  0
LINE
  5
41F
100
AcDbEntity
  8
0
  6
CONTINUOUS
 62
               4
100
AcDbLine
 10
23.600000000000136
 20
99.999999994248299
 30
0.0
 11
25.800000000000182
 21
99.999999994248071
 31
0.0
  0
LINE
  5
420
100
AcDbEntity
  8
0
  6
CONTINUOUS
 62
               4
100
AcDbLine
 10
8.6000000000001364
 20
100.29999999424848
 30
0.0
 11
8.6000000000001364
 21
100.70020753607963
 31
0.0
  0
LINE
  5
421
100
AcDbEntity
  8
0
  6
CONTINUOUS
 62
               4
100
AcDbLine
 10
23.600000000000136
 20
98.400000000000261
 30
0.0
 11
23.600000000000136
 21
99.999999994248299
 31
0.0
  0
ARC
  5
422
100
AcDbEntity
  8
0
  6
CONTINUOUS
 62
               4
100
AcDbCircle
 10
8.9000000000000909
 20
100.29999999424848
 30
0.0
 40
0.3
100
AcDbArc
 50
179.99999999999963
 51
269.99999999999937
  0
LINE
  5
423
100
AcDbEntity
  8
0
  6
CONTINUOUS
 62
               4
100
AcDbLine
 10
24.400000000000091
 20
100.7002075360794
 30
0.0
 11
25.799999987451883
 21
100.7002075360794
 31
0.0
  0
ARC
  5
424
100
AcDbEntity
  8
0
  6
CONTINUOUS
 62
               4
100
AcDbCircle
 10
24.100000000000136
 20
100.29999999424825
 30
0.0
 40
0.3
100
AcDbArc
 50
269.9999999999979
 51
359.99999999999767
  0
LINE
  5
425
100
AcDbEntity
  8
0
  6
CONTINUOUS
 62
               4
100
AcDbLine
 10
24.400000000000091
 20
100.29999999424825
 30
0.0
 11
24.400000000000091
 21
100.7002075360794
 31
0.0
  0
LINE
  5
426
100
AcDbEntity
  8
0
  6
CONTINUOUS
 62
               4
100
AcDbLine
 10
18.500000000000455
 20
115.49999999999926
 30
0.0
 11
24.500000000000455
 21
115.49999999999926
 31
0.0
  0
LINE
  5
427
100
AcDbEntity
  8
0
  6
CONTINUOUS
 62
               4
100
AcDbLine
 10
18.500000000000227
 20
108.49999999999926
 30
0.0
 11
24.500000000000227
 21
108.49999999999926
 31
0.0
  0
LINE
  5
428
100
AcDbEntity
  8
0
  6
CONTINUOUS
 62
               4
100
AcDbLine
 10
14.500000000000227
 20
115.49999999999949
 30
0.0
 11
8.5000000000002274
 21
115.49999999999949
 31
0.0
  0
LINE
  5
429
100
AcDbEntity
  8
0
  6
CONTINUOUS
 62
               4
100
AcDbLine
 10
14.500000000000227
 20
108.49999999999949
 30
0.0
 11
8.5000000000002274
 21
108.49999999999949
 31
0.0
  0
LINE
  5
42A
100
AcDbEntity
  8
0
  6
CONTINUOUS
 62
               4
100
AcDbLine
 10
14.500000000000227
 20
115.49999999999949
 30
0.0
 11
14.500000000000227
 21
108.49999999999949
 31
0.0
  0
LINE
  5
42B
100
AcDbEntity
  8
0
  6
CONTINUOUS
 62
               4
100
AcDbLine
 10
8.5000000000002274
 20
115.49999999999949
 30
0.0
 11
8.5000000000002274
 21
108.49999999999949
 31
0.0
  0
LINE
  5
42C
100
AcDbEntity
  8
0
  6
CONTINUOUS
 62
               4
100
AcDbLine
 10
18.600000000000364
 20
115.39999999999935
 30
0.0
 11
24.400000000000318
 21
115.39999999999912
 31
0.0
  0
LINE
  5
42D
100
AcDbEntity
  8
0
  6
CONTINUOUS
 62
               4
100
AcDbLine
 10
24.400000000000318
 20
115.39999999999912
 30
0.0
 11
24.400000000000318
 21
108.59999999999917
 31
0.0
  0
LINE
  5
42E
100
AcDbEntity
  8
0
  6
CONTINUOUS
 62
               4
100
AcDbLine
 10
18.600000000000364
 20
115.39999999999935
 30
0.0
 11
18.600000000000364
 21
108.5999999999994
 31
0.0
  0
LINE
  5
42F
100
AcDbEntity
  8
0
  6
CONTINUOUS
 62
               4
100
AcDbLine
 10
18.600000000000364
 20
108.5999999999994
 30
0.0
 11
24.400000000000318
 21
108.59999999999917
 31
0.0
  0
LINE
  5
430
100
AcDbEntity
  8
0
  6
CONTINUOUS
 62
               4
100
AcDbLine
 10
14.400000000000318
 20
115.39999999999935
 30
0.0
 11
8.6000000000003638
 21
115.39999999999935
 31
0.0
  0
LINE
  5
431
100
AcDbEntity
  8
0
  6
CONTINUOUS
 62
               4
100
AcDbLine
 10
8.6000000000003638
 20
115.39999999999935
 30
0.0
 11
8.6000000000001364
 21
108.5999999999994
 31
0.0
  0
LINE
  5
432
100
AcDbEntity
  8
0
  6
CONTINUOUS
 62
               4
100
AcDbLine
 10
14.400000000000318
 20
115.39999999999935
 30
0.0
 11
14.400000000000091
 21
108.5999999999994
 31
0.0
  0
LINE
  5
433
100
AcDbEntity
  8
0
  6
CONTINUOUS
 62
               4
100
AcDbLine
 10
14.400000000000091
 20
108.5999999999994
 30
0.0
 11
8.6000000000001364
 21
108.5999999999994
 31
0.0
  0
LINE
  5
434
100
AcDbEntity
  8
0
  6
CONTINUOUS
 62
               4
100
AcDbLine
 10
12.5
 20
89.900000000000489
 30
0.0
 11
7.7000000000000455
 21
89.900000000000489
 31
0.0
  0
LINE
  5
435
100
AcDbEntity
  8
0
  6
CONTINUOUS
 62
               7
100
AcDbLine
 10
4.5999999775428932
 20
66.999999999999943
 30
0.0
 11
28.399999989463822
 21
66.999999999999943
 31
0.0
  0
LINE
  5
436
100
AcDbEntity
  8
0
  6
CONTINUOUS
 62
               7
100
AcDbLine
 10
27.099999977542893
 20
68.49999999979849
 30
0.0
 11
28.399999999999864
 21
68.49999999979849
 31
0.0
  0
LINE
  5
437
100
AcDbEntity
  8
0
  6
CONTINUOUS
 62
               7
100
AcDbLine
 10
4.5999999775428932
 20
68.49999999979849
 30
0.0
 11
5.8999999894638222
 21
68.49999999979849
 31
0.0
  0
LINE
  5
438
100
AcDbEntity
  8
0
  6
CONTINUOUS
 62
               7
100
AcDbLine
 10
4.5999999775428932
 20
-7.9999999999998863
 30
0.0
 11
28.399999989463822
 21
-7.9999999999998863
 31
0.0
  0
ARC
  5
439
100
AcDbEntity
  8
0
  6
CONTINUOUS
 62
               7
100
AcDbCircle
 10
27.899999999999181
 20
-12.499999999999773
 30
0.0
 40
0.5
100
AcDbArc
 50
269.99999999999937
 51
0.0
  0
ARC
  5
43A
100
AcDbEntity
  8
0
  6
CONTINUOUS
 62
               7
100
AcDbCircle
 10
5.0999999999978627
 20
-12.499999999999773
 30
0.0
 40
0.5
100
AcDbArc
 50
179.99999999999963
 51
269.99999999999937
  0
LINE
  5
43B
100
AcDbEntity
  8
0
  6
CONTINUOUS
 62
               7
100
AcDbLine
 10
27.400000000000205
 20
3.0000002384190338
 30
0.0
 11
27.400000000000432
 21
-0.9999997615809662
 31
0.0
  0
LINE
  5
43C
100
AcDbEntity
  8
0
  6
CONTINUOUS
 62
               4
100
AcDbLine
 10
28.400000000002137
 20
120.99999999999903
 30
0.0
 11
28.400000000001114
 21
82.000000000000597
 31
0.0
  0
LINE
  5
43D
100
AcDbEntity
  8
0
  6
CONTINUOUS
 62
               7
100
AcDbLine
 10
28.400000000000318
 20
55.656925097226406
 30
0.0
 11
28.399999999999181
 21
4.7320510547090748
 31
0.0
  0
LINE
  5
43E
100
AcDbEntity
  8
0
  6
CONTINUOUS
 62
               4
100
AcDbLine
 10
4.6000000000001364
 20
120.99999999999949
 30
0.0
 11
4.5999999999997669
 21
82.000000000002046
 31
0.0
  0
LINE
  5
43F
100
AcDbEntity
  8
0
  6
CONTINUOUS
 62
               7
100
AcDbLine
 10
5.5999999999980901
 20
60.000000238418522
 30
0.0
 11
5.5999999999983174
 21
56.000000238418522
 31
0.0
  0
LINE
  5
440
100
AcDbEntity
  8
0
  6
CONTINUOUS
 62
               7
100
AcDbLine
 10
4.5999999999984311
 20
-1.3430747835614056
 30
0.0
 11
4.5999999999983174
 21
-12.499999999999488
 31
0.0
  0
LINE
  5
441
100
AcDbEntity
  8
0
  6
CENTER
 62
               2
100
AcDbLine
 10
25.800000000001546
 20
63.704087708488885
 30
0.0
 11
25.800000000001091
 21
52.015545225571316
 31
0.0
  0
LINE
  5
442
100
AcDbEntity
  8
0
  6
CENTER
 62
               2
100
AcDbLine
 10
29.646656126441371
 20
57.999999999999488
 30
0.0
 11
20.436389519384534
 21
57.999999999999943
 31
0.0
  0
ARC
  5
443
100
AcDbEntity
  8
0
  6
CONTINUOUS
 62
               7
100
AcDbCircle
 10
5.0999999999989996
 20
-9.4999999999995453
 30
0.0
 40
0.5
100
AcDbArc
 50
179.99999999999801
 51
269.99999999999784
  0
ARC
  5
444
100
AcDbEntity
  8
0
  6
CONTINUOUS
 62
               7
100
AcDbCircle
 10
11.099999999999
 20
-12.499999999999716
 30
0.0
 40
0.5
100
AcDbArc
 50
179.99999999999798
 51
269.99999999999778
  0
ARC
  5
445
100
AcDbEntity
  8
0
  6
CONTINUOUS
 62
               7
100
AcDbCircle
 10
10.099999999999
 20
-10.499999999999659
 30
0.0
 40
0.5
100
AcDbArc
 50
359.99999999999761
 51
89.999999999998224
  0
LINE
  5
446
100
AcDbEntity
  8
0
  6
CONTINUOUS
 62
               7
100
AcDbLine
 10
10.099999999999
 20
-9.9999999999996589
 30
0.0
 11
5.0999999999989996
 21
-9.9999999999995453
 31
0.0
  0
LINE
  5
447
100
AcDbEntity
  8
0
  6
CONTINUOUS
 62
               7
100
AcDbLine
 10
10.599999999999
 20
-10.500000011874818
 30
0.0
 11
10.599999999999
 21
-12.499999999999659
 31
0.0
  0
LINE
  5
448
100
AcDbEntity
  8
0
  6
CONTINUOUS
 62
               7
100
AcDbLine
 10
5.0999999999983174
 20
-12.999999999999886
 30
0.0
 11
27.899999999998272
 21
-12.999999999999886
 31
0.0
  0
LINE
  5
449
100
AcDbEntity
  8
0
  6
CONTINUOUS
 62
               7
100
AcDbLine
 10
27.300000000001319
 20
58.866025686263526
 30
0.0
 11
27.300000000001319
 21
57.13397431373545
 31
0.0
  0
LINE
  5
44A
100
AcDbEntity
  8
0
  6
CONTINUOUS
 62
               7
100
AcDbLine
 10
24.300000000001319
 20
58.86602538824053
 30
0.0
 11
24.300000000001319
 21
57.133974611758902
 31
0.0
  0
LINE
  5
44B
100
AcDbEntity
  8
0
  6
CONTINUOUS
 62
               7
100
AcDbLine
 10
27.300000399863393
 20
58.866025261045536
 30
0.0
 11
25.800000247231651
 21
59.732050605652887
 31
0.0
  0
LINE
  5
44C
100
AcDbEntity
  8
0
  6
CONTINUOUS
 62
               7
100
AcDbLine
 10
25.800000642561145
 20
56.267949981834079
 30
0.0
 11
24.300000489929403
 21
57.13397532644143
 31
0.0
  0
LINE
  5
44D
100
AcDbEntity
  8
0
  6
CONTINUOUS
 62
               7
100
AcDbLine
 10
25.800000642561372
 20
59.732050018165239
 30
0.0
 11
24.300000489929516
 21
58.866024673558002
 31
0.0
  0
LINE
  5
44E
100
AcDbEntity
  8
0
  6
CONTINUOUS
 62
               7
100
AcDbLine
 10
27.300000399863393
 20
57.133974738953441
 30
0.0
 11
25.800000247231424
 21
56.267949394346431
 31
0.0
  0
CIRCLE
  5
44F
100
AcDbEntity
  8
0
  6
CONTINUOUS
 62
               7
100
AcDbCircle
 10
25.800000000001319
 20
57.999999999999602
 30
0.0
 40
3.5
  0
CIRCLE
  5
450
100
AcDbEntity
  8
0
  6
CONTINUOUS
 62
               7
100
AcDbCircle
 10
25.800000000001319
 20
58.000000119208892
 30
0.0
 40
2.9803848266601563
  0
ARC
  5
451
100
AcDbEntity
  8
0
  6
CONTINUOUS
 62
               7
100
AcDbCircle
 10
25.800000000001319
 20
57.999999999999602
 30
0.0
 40
4.0
100
AcDbArc
 50
89.999999999999844
 51
269.99999999999937
  0
LINE
  5
452
100
AcDbEntity
  8
0
  6
CONTINUOUS
 62
               7
100
AcDbLine
 10
4.5999999999994543
 20
54.267949411170036
 30
0.0
 11
4.5999999999989996
 21
3.3430750219816332
 31
0.0
  0
LINE
  5
453
100
AcDbEntity
  8
0
  6
CONTINUOUS
 62
               7
100
AcDbLine
 10
28.399999999999068
 20
-2.7320505583235786
 30
0.0
 11
28.399999999998954
 21
-12.500000000000114
 31
0.0
  0
LINE
  5
454
100
AcDbEntity
  8
0
  6
CONTINUOUS
 62
               7
100
AcDbLine
 10
27.400000000000546
 20
-0.9999997507572402
 30
0.0
 11
28.400000000000546
 21
-2.7320505583261934
 31
0.0
  0
LINE
  5
455
100
AcDbEntity
  8
0
  6
CONTINUOUS
 62
               7
100
AcDbLine
 10
28.400000029667353
 20
4.732051106095696
 30
0.0
 11
27.400000000000205
 21
3.000000247141827
 31
0.0
  0
LINE
  5
456
100
AcDbEntity
  8
0
  6
CONTINUOUS
 62
               7
100
AcDbLine
 10
4.5999999581417796
 20
61.732051106095753
 30
0.0
 11
5.5999999999980901
 21
60.000000226029613
 31
0.0
  0
LINE
  5
457
100
AcDbEntity
  8
0
  6
CONTINUOUS
 62
               7
100
AcDbLine
 10
5.6000000177464244
 20
56.00000027000948
 30
0.0
 11
4.6000000475487468
 21
54.267949493527851
 31
0.0
  0
LINE
  5
458
100
AcDbEntity
  8
0
  6
CENTER
 62
               2
100
AcDbLine
 10
16.499999999998636
 20
-15.189318247902861
 30
0.0
 11
16.500000000001393
 21
82.000000000001322
 31
0.0
  0
LINE
  5
459
100
AcDbEntity
  8
0
  6
CONTINUOUS
 62
               7
100
AcDbLine
 10
7.199999999999477
 20
5.0000001192098011
 30
0.0
 11
4.5999999999989996
 21
5.0000001192098011
 31
0.0
  0
LINE
  5
45A
100
AcDbEntity
  8
0
  6
CONTINUOUS
 62
               7
100
AcDbLine
 10
7.199999999999136
 20
-2.9999998807901989
 30
0.0
 11
4.5999999999984311
 21
-2.9999998807901989
 31
0.0
  0
LINE
  5
45B
100
AcDbEntity
  8
0
  6
CONTINUOUS
 62
               7
100
AcDbLine
 10
5.699999999999136
 20
1.866025507450729
 30
0.0
 11
5.699999999999136
 21
0.1339747309691006
 31
0.0
  0
LINE
  5
45C
100
AcDbEntity
  8
0
  6
CONTINUOUS
 62
               7
100
AcDbLine
 10
7.2000006425591891
 20
2.7320501373753814
 30
0.0
 11
5.7000004899273335
 21
1.8660247927682576
 31
0.0
  0
CIRCLE
  5
45D
100
AcDbEntity
  8
0
  6
CONTINUOUS
 62
               7
100
AcDbCircle
 10
7.199999999999136
 20
1.0000001192098011
 30
0.0
 40
3.5
  0
CIRCLE
  5
45E
100
AcDbEntity
  8
0
  6
CONTINUOUS
 62
               7
100
AcDbCircle
 10
7.199999999999136
 20
1.0000002384190907
 30
0.0
 40
2.9803848266601563
  0
LINE
  5
45F
100
AcDbEntity
  8
0
  6
CONTINUOUS
 62
               7
100
AcDbLine
 10
7.2000006425589618
 20
-0.7320498989557791
 30
0.0
 11
5.7000004899272199
 21
0.133975445651572
 31
0.0
  0
LINE
  5
460
100
AcDbEntity
  8
0
  6
CONTINUOUS
 62
               7
100
AcDbLine
 10
8.7000003998612101
 20
0.1339748581636968
 30
0.0
 11
7.2000002472292408
 21
-0.732050486443427
 31
0.0
  0
LINE
  5
461
100
AcDbEntity
  8
0
  6
CONTINUOUS
 62
               7
100
AcDbLine
 10
8.699999999999136
 20
1.8660258054737824
 30
0.0
 11
8.699999999999136
 21
0.1339744329457062
 31
0.0
  0
LINE
  5
462
100
AcDbEntity
  8
0
  6
CONTINUOUS
 62
               7
100
AcDbLine
 10
8.7000003998612101
 20
1.8660253802557918
 30
0.0
 11
7.2000002472294682
 21
2.7320507248630292
 31
0.0
  0
ARC
  5
463
100
AcDbEntity
  8
0
  6
CONTINUOUS
 62
               7
100
AcDbCircle
 10
7.199999999999136
 20
1.000000119209858
 30
0.0
 40
4.0
100
AcDbArc
 50
0.0
 51
89.999999999999815
  0
ARC
  5
464
100
AcDbEntity
  8
0
  6
CONTINUOUS
 62
               7
100
AcDbCircle
 10
7.199999999999136
 20
1.0000002384190907
 30
0.0
 40
4.0000000000000018
100
AcDbArc
 50
269.99999999999937
 51
0.0
  0
LINE
  5
465
100
AcDbEntity
  8
0
  6
CENTER
 62
               2
100
AcDbLine
 10
7.1999999999993634
 20
6.7040879469083166
 30
0.0
 11
7.1999999999989086
 21
-4.9844545360092525
 31
0.0
  0
LINE
  5
466
100
AcDbEntity
  8
0
  6
CENTER
 62
               2
100
AcDbLine
 10
12.609427912452816
 20
1.0000002384188633
 30
0.0
 11
1.836389519382351
 21
1.0000002384193181
 31
0.0
  0
LINE
  5
467
100
AcDbEntity
  8
0
  6
CONTINUOUS
 62
               7
100
AcDbLine
 10
25.800000000001489
 20
61.999999999999602
 30
0.0
 11
28.400000000000603
 21
61.999999999999602
 31
0.0
  0
LINE
  5
468
100
AcDbEntity
  8
0
  6
CONTINUOUS
 62
               7
100
AcDbLine
 10
25.800000000001319
 20
53.999999999999602
 30
0.0
 11
28.400000000000261
 21
53.999999999999602
 31
0.0
  0
LINE
  5
469
100
AcDbEntity
  8
0
  6
CONTINUOUS
 62
               7
100
AcDbLine
 10
28.400000000001114
 20
82.000000000000597
 30
0.0
 11
28.400000000000546
 21
60.343074902772457
 31
0.0
  0
LINE
  5
46A
100
AcDbEntity
  8
0
  6
CONTINUOUS
 62
               7
100
AcDbLine
 10
4.5999999999997669
 20
82.000000000002046
 30
0.0
 11
4.599999999999568
 21
61.732051033595951
 31
0.0
  0
LINE
  5
46B
100
AcDbEntity
  8
0
  6
CENTER
 62
             200
100
AcDbLine
 10
16.500000000001393
 20
82.000000000001322
 30
0.0
 11
16.500000000002615
 21
124.7686818489471
 31
0.0
  0
LINE
  5
46C
100
AcDbEntity
  8
0
  6
DASHED
 62
               2
100
AcDbLine
 10
4.5999999999997669
 20
82.000000000002046
 30
0.0
 11
28.400000000001114
 21
82.000000000000597
 31
0.0
  0
ENDBLK
  5
46D
100
AcDbEntity
  8
0
100
AcDbBlockEnd
  0
BLOCK
  5
46E
100
AcDbEntity
  8
0
100
AcDbBlockBegin
  2
PA24A6-11
 70
               0
 10
0.0
 20
0.0
 30
0.0
  3
PA24A6-11
  1

  0
LINE
  5
46F
100
AcDbEntity
  8
0
  6
CENTER
 62
               2
100
AcDbLine
 10
-5.0
 20
0.0
 30
0.0
 11
5.0
 21
0.0
 31
0.0
  0
LINE
  5
470
100
AcDbEntity
  8
0
  6
CENTER
 62
               2
100
AcDbLine
 10
-5.0
 20
74.999999999999943
 30
0.0
 11
5.0
 21
74.999999999999943
 31
0.0
  0
ARC
  5
471
100
AcDbEntity
  8
0
  6
CONTINUOUS
 62
               7
100
AcDbCircle
 10
33.500000000000114
 20
-12.499999999999886
 30
0.0
 40
0.5
100
AcDbArc
 50
179.99999999999963
 51
269.99999999999937
  0
LINE
  5
472
100
AcDbEntity
  8
0
  6
CONTINUOUS
 62
               7
100
AcDbLine
 10
33.000000000000114
 20
-12.499999999999943
 30
0.0
 11
32.99999999998829
 21
82.000000000001762
 31
0.0
  0
ARC
  5
473
100
AcDbEntity
  8
0
  6
CONTINUOUS
 62
               7
100
AcDbCircle
 10
67.399999999989859
 20
71.919155751121195
 30
0.0
 40
2.0
100
AcDbArc
 50
180.00000000000682
 51
245.00000149217658
  0
LINE
  5
474
100
AcDbEntity
  8
0
  6
CONTINUOUS
 62
               7
100
AcDbLine
 10
69.999999999558554
 20
68.50000000000631
 30
0.0
 11
66.55476355508506
 21
70.10654014349592
 31
0.0
  0
LINE
  5
475
100
AcDbEntity
  8
0
  6
CONTINUOUS
 62
               7
100
AcDbLine
 10
65.399999999988495
 20
82.000000000005855
 30
0.0
 11
65.399999999989859
 21
71.919155751120968
 31
0.0
  0
LINE
  5
476
100
AcDbEntity
  8
0
  6
CONTINUOUS
 62
               7
100
AcDbLine
 10
69.999999999989313
 20
76.00000000000631
 30
0.0
 11
68.799999999989154
 21
76.00000000000631
 31
0.0
  0
ARC
  5
477
100
AcDbEntity
  8
0
  6
CONTINUOUS
 62
               7
100
AcDbCircle
 10
65.899999999986221
 20
81.300000000002171
 30
0.0
 40
0.5
100
AcDbArc
 50
90.00000000000135
 51
180.00000000000114
  0
ARC
  5
478
100
AcDbEntity
  8
0
  6
CONTINUOUS
 62
               7
100
AcDbCircle
 10
69.399999999986335
 20
76.500000000001762
 30
0.0
 40
0.5
100
AcDbArc
 50
270.00000000000091
 51
0.0000000000015267
  0
LINE
  5
479
100
AcDbEntity
  8
0
  6
CONTINUOUS
 62
               7
100
AcDbLine
 10
69.399999999986335
 20
71.999999994251027
 30
0.0
 11
69.399999999986335
 21
75.999999994251027
 31
0.0
  0
ARC
  5
47A
100
AcDbEntity
  8
0
  6
CONTINUOUS
 62
               7
100
AcDbCircle
 10
67.399999999986335
 20
72.000000000002217
 30
0.0
 40
2.0
100
AcDbArc
 50
180.00000000000196
 51
0.0000000000015267
  0
LINE
  5
47B
100
AcDbEntity
  8
0
  6
CONTINUOUS
 62
               7
100
AcDbLine
 10
65.899999999986221
 20
81.800000000002171
 30
0.0
 11
68.7999999999887
 21
81.800000000002171
 31
0.0
  0
ARC
  5
47C
100
AcDbEntity
  8
0
  6
CONTINUOUS
 62
               7
100
AcDbCircle
 10
69.500432867765198
 20
-12.500432867755137
 30
0.0
 40
0.499567319772501
100
AcDbArc
 50
269.9503540401912
 51
0.0496459598379113
  0
ARC
  5
47D
100
AcDbEntity
  8
0
  6
CONTINUOUS
 62
               7
100
AcDbCircle
 10
66.585786431343536
 20
-11.99999999999153
 30
0.0
 40
1.0
100
AcDbArc
 50
270.00000000001387
 51
315.00000052756724
  0
ARC
  5
47E
100
AcDbEntity
  8
0
  6
CONTINUOUS
 62
               7
100
AcDbCircle
 10
69.000000000000341
 20
-9.5857864313335313
 30
0.0
 40
1.0
100
AcDbArc
 50
315.00000000001398
 51
0.0000000000144524
  0
LINE
  5
47F
100
AcDbEntity
  8
0
  6
CONTINUOUS
 62
               7
100
AcDbLine
 10
67.620607155608354
 20
-12.803656906811682
 30
0.0
 11
69.600506144808264
 21
-10.823757917610578
 31
0.0
  0
LINE
  5
480
100
AcDbEntity
  8
0
  6
CONTINUOUS
 62
               7
100
AcDbLine
 10
69.600506144808264
 20
-10.823757917610578
 30
0.0
 11
69.600506144808264
 21
-10.399493848898715
 31
0.0
  0
LINE
  5
481
100
AcDbEntity
  8
0
  6
CONTINUOUS
 62
               7
100
AcDbLine
 10
67.620607155608354
 20
-12.803656906811682
 30
0.0
 11
67.620607155608127
 21
-12.379392838099761
 31
0.0
  0
LINE
  5
482
100
AcDbEntity
  8
0
  6
CONTINUOUS
 62
               7
100
AcDbLine
 10
69.707106781187235
 20
-10.292893212520198
 30
0.0
 11
67.292893219040934
 21
-12.707106774667068
 31
0.0
  0
LINE
  5
483
100
AcDbEntity
  8
0
  6
CENTER
 62
               2
100
AcDbLine
 10
65.328629636664459
 20
1.0000000000090381
 30
0.0
 11
71.239852399631673
 21
1.0000000000075602
 31
0.0
  0
LINE
  5
484
100
AcDbEntity
  8
0
  6
CONTINUOUS
 62
               7
100
AcDbLine
 10
70.000000000000455
 20
76.00000000000631
 30
0.0
 11
70.000000000000568
 21
-12.499999999990678
 31
0.0
  0
LINE
  5
485
100
AcDbEntity
  8
0
  6
CONTINUOUS
 62
               7
100
AcDbLine
 10
66.00000000000864
 20
5.0000001192098011
 30
0.0
 11
66.000000000006708
 21
-2.9999998807901989
 31
0.0
  0
LINE
  5
486
100
AcDbEntity
  8
0
  6
CONTINUOUS
 62
               7
100
AcDbLine
 10
69.700000000008515
 20
4.5000001192098011
 30
0.0
 11
69.70000000000681
 21
-2.4999998807901989
 31
0.0
  0
LINE
  5
487
100
AcDbEntity
  8
0
  6
CONTINUOUS
 62
               7
100
AcDbLine
 10
70.000000000000568
 20
5.0000001192098011
 30
0.0
 11
66.00000000000864
 21
5.0000001192098011
 31
0.0
  0
LINE
  5
488
100
AcDbEntity
  8
0
  6
CONTINUOUS
 62
               7
100
AcDbLine
 10
70.000000000000568
 20
-2.9999998807901989
 30
0.0
 11
66.000000000006708
 21
-2.9999998807901989
 31
0.0
  0
LINE
  5
489
100
AcDbEntity
  8
0
  6
CONTINUOUS
 62
               7
100
AcDbLine
 10
69.700000000008515
 20
4.5000001192098011
 30
0.0
 11
66.000000000008527
 21
4.5000001192098011
 31
0.0
  0
LINE
  5
48A
100
AcDbEntity
  8
0
  6
CONTINUOUS
 62
               7
100
AcDbLine
 10
69.70000000000681
 20
-2.4999998807901989
 30
0.0
 11
66.000000000006821
 21
-2.4999998807901989
 31
0.0
  0
LINE
  5
48B
100
AcDbEntity
  8
0
  6
CONTINUOUS
 62
               7
100
AcDbLine
 10
69.700000000008515
 20
4.5000001192098011
 30
0.0
 11
70.000000000000568
 21
3.9803850650792469
 31
0.0
  0
LINE
  5
48C
100
AcDbEntity
  8
0
  6
CONTINUOUS
 62
               7
100
AcDbLine
 10
69.70000000000681
 20
-2.4999998807901989
 30
0.0
 11
70.000000000000568
 21
-1.9803845882410656
 31
0.0
  0
LINE
  5
48D
100
AcDbEntity
  8
0
  6
CONTINUOUS
 62
               7
100
AcDbLine
 10
32.999999999998863
 20
61.732050867692863
 30
0.0
 11
69.999999999999318
 21
61.732050867692863
 31
0.0
  0
LINE
  5
48E
100
AcDbEntity
  8
0
  6
CONTINUOUS
 62
               7
100
AcDbLine
 10
32.999999999998749
 20
60.000000000015632
 30
0.0
 11
69.999999999999091
 21
60.000000000015632
 31
0.0
  0
LINE
  5
48F
100
AcDbEntity
  8
0
  6
CONTINUOUS
 62
               7
100
AcDbLine
 10
32.999999999998181
 20
56.000000000015632
 30
0.0
 11
70.000000000000455
 21
56.000000000015632
 31
0.0
  0
LINE
  5
490
100
AcDbEntity
  8
0
  6
CONTINUOUS
 62
               7
100
AcDbLine
 10
32.999999999997954
 20
54.267949172766464
 30
0.0
 11
69.999999999998408
 21
54.267949172766464
 31
0.0
  0
LINE
  5
491
100
AcDbEntity
  8
0
  6
CONTINUOUS
 62
               7
100
AcDbLine
 10
33.500000000000114
 20
-12.999999999999886
 30
0.0
 11
69.500000000001023
 21
-12.999999999990791
 31
0.0
  0
LINE
  5
492
100
AcDbEntity
  8
0
  6
CONTINUOUS
 62
               7
100
AcDbLine
 10
32.0
 20
-7.9999999999972147
 30
0.0
 11
69.99999999999045
 21
-7.9999999999935767
 31
0.0
  0
LINE
  5
493
100
AcDbEntity
  8
0
  6
CONTINUOUS
 62
               7
100
AcDbLine
 10
32.999999999988972
 20
82.000000000001762
 30
0.0
 11
68.799999999988927
 21
82.000000000004036
 31
0.0
  0
LINE
  5
494
100
AcDbEntity
  8
0
  6
CONTINUOUS
 62
               7
100
AcDbLine
 10
32.999999999990109
 20
67.000000000002899
 30
0.0
 11
69.99999999999045
 21
67.00000000000631
 31
0.0
  0
LINE
  5
495
100
AcDbEntity
  8
0
  6
CONTINUOUS
 62
               4
100
AcDbLine
 10
37.536228429443213
 20
90.000000000001535
 30
0.0
 11
40.899999999989973
 21
90.000000000001535
 31
0.0
  0
ARC
  5
496
100
AcDbEntity
  8
0
  6
CONTINUOUS
 62
               4
100
AcDbCircle
 10
39.299999999988586
 20
89.500000000001535
 30
0.0
 40
0.5
100
AcDbArc
 50
89.999999999999815
 51
179.99999999999963
  0
LINE
  5
497
100
AcDbEntity
  8
0
  6
CONTINUOUS
 62
               4
100
AcDbLine
 10
38.799999999988472
 20
87.80000000000058
 30
0.0
 11
38.799999999988586
 21
89.500000000001535
 31
0.0
  0
ARC
  5
498
100
AcDbEntity
  8
0
  6
CONTINUOUS
 62
               4
100
AcDbCircle
 10
33.499999999988518
 20
87.300000000001035
 30
0.0
 40
0.5
100
AcDbArc
 50
89.999999999999815
 51
179.99999999999963
  0
LINE
  5
499
100
AcDbEntity
  8
0
  6
CONTINUOUS
 62
               4
100
AcDbLine
 10
37.999999999988745
 20
94.699999999994759
 30
0.0
 11
37.999999999988745
 21
94.00000000000199
 31
0.0
  0
ARC
  5
49A
100
AcDbEntity
  8
0
  6
CONTINUOUS
 62
               4
100
AcDbCircle
 10
37.007106781176162
 20
94.199999999994759
 30
0.0
 40
0.5
100
AcDbArc
 50
89.999999999994813
 51
134.9999999999944
  0
LINE
  5
49B
100
AcDbEntity
  8
0
  6
CONTINUOUS
 62
               4
100
AcDbLine
 10
33.499999999988518
 20
87.800000000001035
 30
0.0
 11
38.799999999988472
 21
87.80000000000058
 31
0.0
  0
LINE
  5
49C
100
AcDbEntity
  8
0
  6
CONTINUOUS
 62
               4
100
AcDbLine
 10
34.999999999989086
 20
90.116079592365566
 30
0.0
 11
34.999999999989086
 21
90.200000009395524
 31
0.0
  0
ARC
  5
49D
100
AcDbEntity
  8
0
  6
CONTINUOUS
 62
               4
100
AcDbCircle
 10
37.449999809253654
 20
89.19374561309877
 30
0.0
 40
0.800000011920929
100
AcDbArc
 50
359.99998201390565
 51
73.808645430464111
  0
ARC
  5
49E
100
AcDbEntity
  8
0
  6
CONTINUOUS
 62
               4
100
AcDbCircle
 10
34.550000190723381
 20
89.193745613098997
 30
0.0
 40
0.800000011920929
100
AcDbArc
 50
106.19135456952553
 51
180.00001798608395
  0
ARC
  5
49F
100
AcDbEntity
  8
0
  6
CONTINUOUS
 62
               4
100
AcDbCircle
 10
35.999999999988063
 20
84.199999809265762
 30
0.0
 40
6.0
100
AcDbArc
 50
73.80871737482147
 51
106.19135456952553
  0
LINE
  5
4A0
100
AcDbEntity
  8
0
  6
CONTINUOUS
 62
               4
100
AcDbLine
 10
38.249999999988518
 20
89.193745613098542
 30
0.0
 11
38.249999999988404
 21
87.80000000000058
 31
0.0
  0
LINE
  5
4A1
100
AcDbEntity
  8
0
  6
CONTINUOUS
 62
               4
100
AcDbLine
 10
33.749999999988518
 20
89.193745613098997
 30
0.0
 11
33.749999999988404
 21
87.800000000000807
 31
0.0
  0
LINE
  5
4A2
100
AcDbEntity
  8
0
  6
CONTINUOUS
 62
               4
100
AcDbLine
 10
40.799999999987108
 20
96.300000000002171
 30
0.0
 11
40.899999999987699
 21
96.300000000002171
 31
0.0
  0
LINE
  5
4A3
100
AcDbEntity
  8
0
  6
CONTINUOUS
 62
               4
100
AcDbLine
 10
40.899999999986107
 20
116.09999999890277
 30
0.0
 11
40.799999999986198
 21
116.09999999890277
 31
0.0
  0
LINE
  5
4A4
100
AcDbEntity
  8
0
  6
CONTINUOUS
 62
               4
100
AcDbLine
 10
40.899999999989745
 20
90.000000000002217
 30
0.0
 11
40.899999999985425
 21
122.00000000000222
 31
0.0
  0
LINE
  5
4A5
100
AcDbEntity
  8
0
  6
CONTINUOUS
 62
               4
100
AcDbLine
 10
38.799999999988472
 20
94.199999999995669
 30
0.0
 11
40.899999999988495
 21
94.199999999996123
 31
0.0
  0
LINE
  5
4A6
100
AcDbEntity
  8
0
  6
CONTINUOUS
 62
               4
100
AcDbLine
 10
37.007106781175366
 20
94.699999999995441
 30
0.0
 11
38.799999999988472
 21
94.699999999995669
 31
0.0
  0
LINE
  5
4A7
100
AcDbEntity
  8
0
  6
CONTINUOUS
 62
               4
100
AcDbLine
 10
38.799999999988472
 20
94.199999991715856
 30
0.0
 11
38.799999999988472
 21
94.699999999995669
 31
0.0
  0
LINE
  5
4A8
100
AcDbEntity
  8
0
  6
CONTINUOUS
 62
               4
100
AcDbLine
 10
36.099999999995475
 20
94.00000000000199
 30
0.0
 11
36.65355339058226
 21
94.553553390588775
 31
0.0
  0
LINE
  5
4A9
100
AcDbEntity
  8
0
  6
CONTINUOUS
 62
               4
100
AcDbLine
 10
68.799999999985744
 20
117.00000000000449
 30
0.0
 11
69.39999999998588
 21
117.00000000000449
 31
0.0
  0
LINE
  5
4AA
100
AcDbEntity
  8
0
  6
CONTINUOUS
 62
               4
100
AcDbLine
 10
68.799999999985744
 20
120.00000000000449
 30
0.0
 11
69.399999999985653
 21
120.00000000000449
 31
0.0
  0
LINE
  5
4AB
100
AcDbEntity
  8
0
  6
CONTINUOUS
 62
               4
100
AcDbLine
 10
68.799999999985744
 20
119.99999998576499
 30
0.0
 11
68.799999999985516
 21
121.99999998576499
 31
0.0
  0
ARC
  5
4AC
100
AcDbEntity
  8
0
  6
CONTINUOUS
 62
               4
100
AcDbCircle
 10
69.399999999985653
 20
119.50000000000449
 30
0.0
 40
0.5
100
AcDbArc
 50
0.0000000000018066
 51
90.000000000001606
  0
ARC
  5
4AD
100
AcDbEntity
  8
0
  6
CONTINUOUS
 62
               4
100
AcDbCircle
 10
69.399999999985653
 20
117.50000000000449
 30
0.0
 40
0.5
100
AcDbArc
 50
270.00000000000125
 51
0.000000000001832
  0
LINE
  5
4AE
100
AcDbEntity
  8
0
  6
CONTINUOUS
 62
               4
100
AcDbLine
 10
33.749999999988404
 20
88.50000000000108
 30
0.0
 11
38.249999999988404
 21
88.500000000000625
 31
0.0
  0
ARC
  5
4AF
100
AcDbEntity
  8
0
  6
CONTINUOUS
 62
               4
100
AcDbCircle
 10
27.399999999986335
 20
96.065826257583183
 30
0.0
 40
0.5
100
AcDbArc
 50
179.99999999999963
 51
194.99999999999918
  0
ARC
  5
4B0
100
AcDbEntity
  8
0
  6
CONTINUOUS
 62
               4
100
AcDbCircle
 10
28.087511073623887
 20
93.500000000001535
 30
0.0
 40
0.5
100
AcDbArc
 50
89.999999999999815
 51
194.99999999999952
  0
ARC
  5
4B1
100
AcDbEntity
  8
0
  6
CONTINUOUS
 62
               4
100
AcDbCircle
 10
39.900000000000659
 20
95.300000000002171
 30
0.0
 40
1.0
100
AcDbArc
 50
197.4576031237236
 51
11.309932474184668
  0
ARC
  5
4B2
100
AcDbEntity
  8
0
  6
CONTINUOUS
 62
               4
100
AcDbCircle
 10
29.221432297654019
 20
91.200000009398025
 30
0.0
 40
1.0
100
AcDbArc
 50
194.99999981259796
 51
269.99999999999937
  0
LINE
  5
4B3
100
AcDbEntity
  8
0
  6
CONTINUOUS
 62
               4
100
AcDbLine
 10
28.255506476348501
 20
90.941180969017012
 30
0.0
 11
26.917037086841788
 21
95.936416735031742
 31
0.0
  0
LINE
  5
4B4
100
AcDbEntity
  8
0
  6
CONTINUOUS
 62
               4
100
AcDbLine
 10
27.16794919477195
 20
95.000000000001535
 30
0.0
 11
40.400000000000432
 21
95.000000000002217
 31
0.0
  0
ARC
  5
4B5
100
AcDbEntity
  8
0
  6
CONTINUOUS
 62
               4
100
AcDbCircle
 10
40.400000000000318
 20
95.500000000002217
 30
0.0
 40
0.5
100
AcDbArc
 50
270.00000000000193
 51
0.0000000000025444
  0
LINE
  5
4B6
100
AcDbEntity
  8
0
  6
CONTINUOUS
 62
               4
100
AcDbLine
 10
29.221432297654815
 20
90.200000009395524
 30
0.0
 11
40.09999999999161
 21
90.200000009395751
 31
0.0
  0
LINE
  5
4B7
100
AcDbEntity
  8
0
  6
CONTINUOUS
 62
               4
100
AcDbLine
 10
28.087511073623887
 20
94.000000000001535
 30
0.0
 11
40.099999999990928
 21
94.000000000002217
 31
0.0
  0
LINE
  5
4B8
100
AcDbEntity
  8
0
  6
CONTINUOUS
 62
               4
100
AcDbLine
 10
33.499999999990109
 20
94.00000000000199
 30
0.0
 11
33.499999999990109
 21
95.00000000000199
 31
0.0
  0
LINE
  5
4B9
100
AcDbEntity
  8
0
  6
CONTINUOUS
 62
               4
100
AcDbLine
 10
34.499999999990109
 20
94.00000000000199
 30
0.0
 11
34.499999999990109
 21
95.00000000000199
 31
0.0
  0
LINE
  5
4BA
100
AcDbEntity
  8
0
  6
CONTINUOUS
 62
               4
100
AcDbLine
 10
40.59999999999161
 20
90.700000009395751
 30
0.0
 11
40.599999999990928
 21
93.500000000002217
 31
0.0
  0
ARC
  5
4BB
100
AcDbEntity
  8
0
  6
CONTINUOUS
 62
               4
100
AcDbCircle
 10
40.099999999990928
 20
93.500000000002217
 30
0.0
 40
0.5
100
AcDbArc
 50
0.000000000002519
 51
90.000000000002316
  0
ARC
  5
4BC
100
AcDbEntity
  8
0
  6
CONTINUOUS
 62
               4
100
AcDbCircle
 10
40.09999999999161
 20
90.700000009395751
 30
0.0
 40
0.5
100
AcDbArc
 50
270.00000000000267
 51
0.0000000000025444
  0
LINE
  5
4BD
100
AcDbEntity
  8
0
  6
CONTINUOUS
 62
               4
100
AcDbLine
 10
37.99999999998829
 20
90.200000009395751
 30
0.0
 11
37.99999999998829
 21
90.000000000002217
 31
0.0
  0
LINE
  5
4BE
100
AcDbEntity
  8
0
  6
CONTINUOUS
 62
               4
100
AcDbLine
 10
69.999999995454573
 20
108.60000000000235
 30
0.0
 11
69.89999999545455
 21
108.50000000000244
 31
0.0
  0
LINE
  5
4BF
100
AcDbEntity
  8
0
  6
CONTINUOUS
 62
               4
100
AcDbLine
 10
69.899999990923675
 20
115.50000000000244
 30
0.0
 11
69.999999995454459
 21
115.39999999547166
 31
0.0
  0
LINE
  5
4C0
100
AcDbEntity
  8
0
  6
CONTINUOUS
 62
               4
100
AcDbLine
 10
69.999999995454573
 20
108.60000000000235
 30
0.0
 11
69.999999995454459
 21
115.39999999547166
 31
0.0
  0
ARC
  5
4C1
100
AcDbEntity
  8
0
  6
CONTINUOUS
 62
               4
100
AcDbCircle
 10
69.399999999985653
 20
121.50000000000244
 30
0.0
 40
0.5
100
AcDbArc
 50
0.0000000000006361
 51
90.000000000000441
  0
LINE
  5
4C2
100
AcDbEntity
  8
0
  6
CONTINUOUS
 62
               4
100
AcDbLine
 10
68.799999999985516
 20
122.00000000000244
 30
0.0
 11
69.399999999985653
 21
122.00000000000244
 31
0.0
  0
LINE
  5
4C3
100
AcDbEntity
  8
0
  6
CONTINUOUS
 62
               4
100
AcDbLine
 10
69.899999995454777
 20
116.90000000000435
 30
0.0
 11
68.799999999985857
 21
116.90000000000435
 31
0.0
  0
LINE
  5
4C4
100
AcDbEntity
  8
0
  6
CONTINUOUS
 62
               4
100
AcDbLine
 10
69.89999999545455
 20
120.1000000000044
 30
0.0
 11
68.799999999985289
 21
120.1000000000044
 31
0.0
  0
LINE
  5
4C5
100
AcDbEntity
  8
0
  6
CONTINUOUS
 62
               4
100
AcDbLine
 10
26.899999999986335
 20
96.065826257582955
 30
0.0
 11
26.899999999985425
 21
117.99999997340166
 31
0.0
  0
LINE
  5
4C6
100
AcDbEntity
  8
0
  6
CONTINUOUS
 62
               4
100
AcDbLine
 10
37.899999999984743
 20
122.0000000000021
 30
0.0
 11
68.799999999985516
 21
122.00000000000233
 31
0.0
  0
LINE
  5
4C7
100
AcDbEntity
  8
0
  6
CENTER
 62
             200
100
AcDbLine
 10
28.389104190847661
 20
101.30000000000251
 30
0.0
 11
14.489390149000201
 21
101.30000000000285
 31
0.0
  0
LINE
  5
4C8
100
AcDbEntity
  8
0
  6
CONTINUOUS
 62
               4
100
AcDbLine
 10
25.899999999998158
 20
102.0500000000024
 30
0.0
 11
22.71756489113011
 21
102.0500000000024
 31
0.0
  0
LINE
  5
4C9
100
AcDbEntity
  8
0
  6
CONTINUOUS
 62
               4
100
AcDbLine
 10
25.899999999998045
 20
100.5500000000024
 30
0.0
 11
23.120689891130155
 21
100.5500000000024
 31
0.0
  0
LINE
  5
4CA
100
AcDbEntity
  8
0
  6
CONTINUOUS
 62
               4
100
AcDbLine
 10
26.199999999998113
 20
99.300000000002399
 30
0.0
 11
26.899999999998158
 21
99.300000000002399
 31
0.0
  0
ARC
  5
4CB
100
AcDbEntity
  8
0
  6
CONTINUOUS
 62
               4
100
AcDbCircle
 10
26.199999999998113
 20
99.600000000002353
 30
0.0
 40
0.3
100
AcDbArc
 50
179.99999999999963
 51
269.99999999999937
  0
LINE
  5
4CC
100
AcDbEntity
  8
0
  6
CONTINUOUS
 62
               4
100
AcDbLine
 10
21.687564891130137
 20
102.0500000000024
 30
0.0
 11
18.89912739113015
 21
102.0500000000024
 31
0.0
  0
LINE
  5
4CD
100
AcDbEntity
  8
0
  6
CONTINUOUS
 62
               4
100
AcDbLine
 10
22.059127391130119
 20
100.55000000000251
 30
0.0
 11
18.89912739113015
 21
100.55000000000251
 31
0.0
  0
LINE
  5
4CE
100
AcDbEntity
  8
0
  6
CONTINUOUS
 62
               4
100
AcDbLine
 10
18.89912739113015
 20
101.05000000000251
 30
0.0
 11
15.39912739113015
 21
101.05000000000251
 31
0.0
  0
LINE
  5
4CF
100
AcDbEntity
  8
0
  6
CONTINUOUS
 62
               4
100
AcDbLine
 10
18.89912739113015
 20
101.55000000000251
 30
0.0
 11
15.39912739113015
 21
101.55000000000251
 31
0.0
  0
LINE
  5
4D0
100
AcDbEntity
  8
0
  6
CONTINUOUS
 62
               4
100
AcDbLine
 10
18.89912739113015
 20
102.0500000000024
 30
0.0
 11
18.89912739113015
 21
100.55000000000251
 31
0.0
  0
LINE
  5
4D1
100
AcDbEntity
  8
0
  6
CONTINUOUS
 62
               4
100
AcDbLine
 10
15.39912739113015
 20
101.55000000000251
 30
0.0
 11
15.39912739113015
 21
101.05000000000251
 31
0.0
  0
LINE
  5
4D2
100
AcDbEntity
  8
0
  6
CONTINUOUS
 62
               4
100
AcDbLine
 10
36.899999999984743
 20
121.0000000000021
 30
0.0
 11
36.899999999984743
 21
119.49999998217748
 31
0.0
  0
ARC
  5
4D3
100
AcDbEntity
  8
0
  6
CONTINUOUS
 62
               4
100
AcDbCircle
 10
36.399999999984743
 20
119.49999998217748
 30
0.0
 40
0.5
100
AcDbArc
 50
269.99999999999937
 51
0.0
  0
ARC
  5
4D4
100
AcDbEntity
  8
0
  6
CONTINUOUS
 62
               4
100
AcDbCircle
 10
37.899999999984743
 20
121.0000000000021
 30
0.0
 40
1.0
100
AcDbArc
 50
89.999999999999815
 51
179.99999999999963
  0
ARC
  5
4D5
100
AcDbEntity
  8
0
  6
CONTINUOUS
 62
               4
100
AcDbCircle
 10
27.899999999985425
 20
117.99999998217748
 30
0.0
 40
1.0
100
AcDbArc
 50
89.999999999999815
 51
179.99999999999963
  0
LINE
  5
4D6
100
AcDbEntity
  8
0
  6
CONTINUOUS
 62
               4
100
AcDbLine
 10
27.899999998700991
 20
118.99999998217748
 30
0.0
 11
36.399999998700991
 21
118.99999998217748
 31
0.0
  0
LINE
  5
4D7
100
AcDbEntity
  8
0
  6
CONTINUOUS
 62
               4
100
AcDbLine
 10
26.199999999998113
 20
103.3000000000024
 30
0.0
 11
26.899999999998158
 21
103.3000000000024
 31
0.0
  0
ARC
  5
4D8
100
AcDbEntity
  8
0
  6
CONTINUOUS
 62
               4
100
AcDbCircle
 10
26.199999999998113
 20
103.00000000000233
 30
0.0
 40
0.3
100
AcDbArc
 50
89.999999999999815
 51
179.99999999999963
  0
LINE
  5
4D9
100
AcDbEntity
  8
0
  6
CONTINUOUS
 62
               4
100
AcDbLine
 10
25.899999999997931
 20
99.600000000002353
 30
0.0
 11
25.899999999998158
 21
103.00000000000244
 31
0.0
  0
LINE
  5
4DA
100
AcDbEntity
  8
0
  6
CONTINUOUS
 62
             200
100
AcDbLine
 10
23.349127391130082
 20
99.700000000002376
 30
0.0
 11
22.489127391130182
 21
102.90000000000242
 31
0.0
  0
LINE
  5
4DB
100
AcDbEntity
  8
0
  6
CONTINUOUS
 62
             200
100
AcDbLine
 10
22.31912739113011
 20
99.700000000002376
 30
0.0
 11
21.45912739113021
 21
102.90000000000242
 31
0.0
  0
LINE
  5
4DC
100
AcDbEntity
  8
0
  6
CONTINUOUS
 62
               7
100
AcDbLine
 10
68.799999999989154
 20
76.00000000000631
 30
0.0
 11
68.799999999988671
 21
82.000000000004036
 31
0.0
  0
LINE
  5
4DD
100
AcDbEntity
  8
0
  6
CONTINUOUS
 62
               7
100
AcDbLine
 10
69.899999995455801
 20
76.499999994251027
 30
0.0
 11
69.89999999545563
 21
82.000000000004107
 31
0.0
  0
LINE
  5
4DE
100
AcDbEntity
  8
0
  6
CONTINUOUS
 62
               4
100
AcDbLine
 10
32.99999999998829
 20
82.000000000001535
 30
0.0
 11
32.999999999988518
 21
87.300000000001262
 31
0.0
  0
LINE
  5
4DF
100
AcDbEntity
  8
0
  6
CENTER
 62
               2
100
AcDbLine
 10
25.0
 20
-11.511237476348356
 30
0.0
 11
25.0
 21
-2.6846469764835774
 31
0.0
  0
CIRCLE
  5
4E0
100
AcDbEntity
  8
0
  6
CONTINUOUS
 62
               7
100
AcDbCircle
 10
17.0
 20
17.0
 30
0.0
 40
9.3155000000000001
  0
CIRCLE
  5
4E1
100
AcDbEntity
  8
0
  6
CONTINUOUS
 62
               2
100
AcDbCircle
 10
17.0
 20
17.0
 30
0.0
 40
10.477499999999999
  0
CIRCLE
  5
4E2
100
AcDbEntity
  8
0
  6
CONTINUOUS
 62
               7
100
AcDbCircle
 10
17.0
 20
45.0
 30
0.0
 40
9.3155000000000001
  0
CIRCLE
  5
4E3
100
AcDbEntity
  8
0
  6
CONTINUOUS
 62
               2
100
AcDbCircle
 10
17.0
 20
45.0
 30
0.0
 40
10.477499999999999
  0
LINE
  5
4E4
100
AcDbEntity
  8
0
  6
CENTER
 62
               2
100
AcDbLine
 10
3.7727611842710758
 20
45.0
 30
0.0
 11
29.558704414923909
 21
45.0
 31
0.0
  0
LINE
  5
4E5
100
AcDbEntity
  8
0
  6
CENTER
 62
               2
100
AcDbLine
 10
3.7727611842710758
 20
17.0
 30
0.0
 11
29.558704414923909
 21
17.0
 31
0.0
  0
LINE
  5
4E6
100
AcDbEntity
  8
0
  6
CENTER
 62
               2
100
AcDbLine
 10
17.0
 20
56.852235292347984
 30
0.0
 11
17.0
 21
3.8963224814255568
 31
0.0
  0
LINE
  5
4E7
100
AcDbEntity
  8
0
  6
CONTINUOUS
 62
               7
100
AcDbLine
 10
0.0
 20
79.999999999999943
 30
0.0
 11
0.0
 21
-11.0
 31
0.0
  0
LINE
  5
4E8
100
AcDbEntity
  8
0
  6
CONTINUOUS
 62
               7
100
AcDbLine
 10
0.0
 20
-11.0
 30
0.0
 11
32.0
 21
-11.0
 31
0.0
  0
LINE
  5
4E9
100
AcDbEntity
  8
0
  6
CONTINUOUS
 62
               7
100
AcDbLine
 10
0.0
 20
-5.0
 30
0.0
 11
32.000000017780167
 21
-5.0
 31
0.0
  0
LINE
  5
4EA
100
AcDbEntity
  8
0
  6
CONTINUOUS
 62
               7
100
AcDbLine
 10
25.5
 20
75.000000002253444
 30
0.0
 11
25.5
 21
75.001316017355464
 31
0.0
  0
LINE
  5
4EB
100
AcDbEntity
  8
0
  6
CONTINUOUS
 62
               7
100
AcDbLine
 10
0.0
 20
79.999999999999943
 30
0.0
 11
32.999999999988518
 21
79.999999999999943
 31
0.0
  0
LINE
  5
4EC
100
AcDbEntity
  8
0
  6
CONTINUOUS
 62
               7
100
AcDbLine
 10
0.0
 20
59.999999999999943
 30
0.0
 11
32.000000017780167
 21
59.999999999999943
 31
0.0
  0
LINE
  5
4ED
100
AcDbEntity
  8
0
  6
CENTER
 62
               2
100
AcDbLine
 10
25.0
 20
68.302727408986755
 30
0.0
 11
25.0
 21
76.213222225910556
 31
0.0
  0
LINE
  5
4EE
100
AcDbEntity
  8
0
  6
CENTER
 62
               2
100
AcDbLine
 10
20.497207413440492
 20
71.999999999999943
 30
0.0
 11
28.542115614583793
 21
71.999999999999943
 31
0.0
  0
CIRCLE
  5
4EF
100
AcDbEntity
  8
0
  6
CONTINUOUS
 62
               2
100
AcDbCircle
 10
25.0
 20
71.999999999999943
 30
0.0
 40
2.5
  0
CIRCLE
  5
4F0
100
AcDbEntity
  8
0
  6
CONTINUOUS
 62
               7
100
AcDbCircle
 10
25.0
 20
71.999999999999943
 30
0.0
 40
2.1000000000000001
  0
LINE
  5
4F1
100
AcDbEntity
  8
0
  6
CONTINUOUS
 62
               7
100
AcDbLine
 10
32.0
 20
79.999999999999943
 30
0.0
 11
32.0
 21
-11.0
 31
0.0
  0
LINE
  5
4F2
100
AcDbEntity
  8
0
  6
CONTINUOUS
 62
               4
100
AcDbLine
 10
68.799999999988671
 20
82.000000000004036
 30
0.0
 11
68.799999999985857
 21
117.00000000000449
 31
0.0
  0
LINE
  5
4F3
100
AcDbEntity
  8
0
  6
CONTINUOUS
 62
               4
100
AcDbLine
 10
69.89999999545563
 20
82.000000000004107
 30
0.0
 11
69.89999999545455
 21
121.50000000000244
 31
0.0
  0
ENDBLK
  5
4F4
100
AcDbEntity
  8
0
100
AcDbBlockEnd
  0
BLOCK
  5
4F5
100
AcDbEntity
  8
0
100
AcDbBlockBegin
  2
PA24A6-12
 70
               0
 10
0.0
 20
0.0
 30
0.0
  3
PA24A6-12
  1

  0
LINE
  5
4F6
100
AcDbEntity
  8
0
  6
CENTER
 62
               2
100
AcDbLine
 10
-5.0
 20
0.0
 30
0.0
 11
5.0
 21
0.0
 31
0.0
  0
LINE
  5
4F7
100
AcDbEntity
  8
0
  6
CENTER
 62
               2
100
AcDbLine
 10
-5.0
 20
74.999999999999943
 30
0.0
 11
5.0
 21
74.999999999999943
 31
0.0
  0
ARC
  5
4F8
100
AcDbEntity
  8
0
  6
CONTINUOUS
 62
               7
100
AcDbCircle
 10
-36.414213568656351
 20
-12.0000000000108
 30
0.0
 40
1.0
100
AcDbArc
 50
269.99999999996498
 51
315.00000052751835
  0
ARC
  5
4F9
100
AcDbEntity
  8
0
  6
CONTINUOUS
 62
               7
100
AcDbCircle
 10
-33.999999999997499
 20
-9.5857864313548475
 30
0.0
 40
1.0
100
AcDbArc
 50
314.99999999996515
 51
359.99999999996481
  0
LINE
  5
4FA
100
AcDbEntity
  8
0
  6
CONTINUOUS
 62
               7
100
AcDbLine
 10
-35.379392844392214
 20
-12.803656906831861
 30
0.0
 11
-33.399493855190599
 21
-10.823757917632463
 31
0.0
  0
LINE
  5
4FB
100
AcDbEntity
  8
0
  6
CONTINUOUS
 62
               7
100
AcDbLine
 10
-33.399493855190599
 20
-10.823757917632463
 30
0.0
 11
-33.399493855190258
 21
-10.399493848920486
 31
0.0
  0
LINE
  5
4FC
100
AcDbEntity
  8
0
  6
CONTINUOUS
 62
               7
100
AcDbLine
 10
-35.379392844392214
 20
-12.803656906831861
 30
0.0
 11
-35.3793928443921
 21
-12.379392838119941
 31
0.0
  0
LINE
  5
4FD
100
AcDbEntity
  8
0
  6
CONTINUOUS
 62
               7
100
AcDbLine
 10
-33.292893218811173
 20
-10.292893212542197
 30
0.0
 11
-35.707106780959577
 21
-12.70710677468702
 31
0.0
  0
ARC
  5
4FE
100
AcDbEntity
  8
0
  6
CONTINUOUS
 62
               7
100
AcDbCircle
 10
-33.499999999999716
 20
-12.50000000000631
 30
0.0
 40
0.5
100
AcDbArc
 50
269.99999999999937
 51
0.0
  0
LINE
  5
4FF
100
AcDbEntity
  8
0
  6
CONTINUOUS
 62
               7
100
AcDbLine
 10
-32.999999999999716
 20
-12.500000000006366
 30
0.0
 11
-32.999999999987892
 21
81.999999999995396
 31
0.0
  0
ARC
  5
500
100
AcDbEntity
  8
0
  6
CONTINUOUS
 62
               7
100
AcDbCircle
 10
-67.399999999989461
 20
71.919155751114829
 30
0.0
 40
2.0
100
AcDbArc
 50
294.99999850782217
 51
359.99999999999199
  0
LINE
  5
501
100
AcDbEntity
  8
0
  6
CONTINUOUS
 62
               7
100
AcDbLine
 10
-69.999999999558156
 20
68.499999999999943
 30
0.0
 11
-66.554763555084662
 21
70.10654014348944
 31
0.0
  0
LINE
  5
502
100
AcDbEntity
  8
0
  6
CONTINUOUS
 62
               7
100
AcDbLine
 10
-65.399999999988097
 20
81.999999999999375
 30
0.0
 11
-65.399999999989461
 21
71.919155751114602
 31
0.0
  0
LINE
  5
503
100
AcDbEntity
  8
0
  6
CONTINUOUS
 62
               7
100
AcDbLine
 10
-69.999999999988916
 20
75.999999999999943
 30
0.0
 11
-68.799999999988756
 21
75.999999999999829
 31
0.0
  0
ARC
  5
504
100
AcDbEntity
  8
0
  6
CONTINUOUS
 62
               7
100
AcDbCircle
 10
-65.899999999985823
 20
81.299999999995691
 30
0.0
 40
0.5
100
AcDbArc
 50
359.99999999999767
 51
89.999999999998266
  0
ARC
  5
505
100
AcDbEntity
  8
0
  6
CONTINUOUS
 62
               7
100
AcDbCircle
 10
-69.399999999985937
 20
76.499999999995396
 30
0.0
 40
0.5
100
AcDbArc
 50
179.99999999999807
 51
269.9999999999979
  0
LINE
  5
506
100
AcDbEntity
  8
0
  6
CONTINUOUS
 62
               7
100
AcDbLine
 10
-69.399999999985937
 20
71.999999994244547
 30
0.0
 11
-69.399999999985937
 21
75.999999994244547
 31
0.0
  0
ARC
  5
507
100
AcDbEntity
  8
0
  6
CONTINUOUS
 62
               7
100
AcDbCircle
 10
-67.399999999985937
 20
71.999999999995737
 30
0.0
 40
2.0
100
AcDbArc
 50
179.99999999999804
 51
359.99999999999767
  0
LINE
  5
508
100
AcDbEntity
  8
0
  6
CONTINUOUS
 62
               7
100
AcDbLine
 10
-65.899999999985823
 20
81.799999999995691
 30
0.0
 11
-68.799999999988302
 21
81.799999999995805
 31
0.0
  0
ARC
  5
509
100
AcDbEntity
  8
0
  6
CONTINUOUS
 62
               7
100
AcDbCircle
 10
-69.5004328677648
 20
-12.50043286776156
 30
0.0
 40
0.499567319772501
100
AcDbArc
 50
179.9503540401617
 51
270.04964595980834
  0
LINE
  5
50A
100
AcDbEntity
  8
0
  6
CENTER
 62
               2
100
AcDbLine
 10
-65.328629636672758
 20
57.999999999999034
 30
0.0
 11
-71.239852399639972
 21
58.000000000000398
 31
0.0
  0
LINE
  5
50B
100
AcDbEntity
  8
0
  6
CONTINUOUS
 62
               7
100
AcDbLine
 10
-70.0
 20
75.999999999999829
 30
0.0
 11
-70.000000000000171
 21
-12.499999999997158
 31
0.0
  0
LINE
  5
50C
100
AcDbEntity
  8
0
  6
CONTINUOUS
 62
               7
100
AcDbLine
 10
-69.699999999999193
 20
61.499999880798157
 30
0.0
 11
-69.999999999992895
 21
60.980384588249024
 31
0.0
  0
LINE
  5
50D
100
AcDbEntity
  8
0
  6
CONTINUOUS
 62
               7
100
AcDbLine
 10
-69.700000000000898
 20
54.499999880798157
 30
0.0
 11
-69.999999999992895
 21
55.019614934928711
 31
0.0
  0
LINE
  5
50E
100
AcDbEntity
  8
0
  6
CONTINUOUS
 62
               7
100
AcDbLine
 10
-69.699999999999193
 20
61.499999880798157
 30
0.0
 11
-65.999999999999147
 21
61.499999880798157
 31
0.0
  0
LINE
  5
50F
100
AcDbEntity
  8
0
  6
CONTINUOUS
 62
               7
100
AcDbLine
 10
-69.700000000000898
 20
54.499999880798157
 30
0.0
 11
-66.000000000000853
 21
54.499999880798157
 31
0.0
  0
LINE
  5
510
100
AcDbEntity
  8
0
  6
CONTINUOUS
 62
               7
100
AcDbLine
 10
-69.999999999992895
 20
61.999999880798157
 30
0.0
 11
-65.999999999999034
 21
61.999999880798157
 31
0.0
  0
LINE
  5
511
100
AcDbEntity
  8
0
  6
CONTINUOUS
 62
               7
100
AcDbLine
 10
-69.999999999992895
 20
53.999999880798157
 30
0.0
 11
-66.000000000000966
 21
53.999999880798157
 31
0.0
  0
LINE
  5
512
100
AcDbEntity
  8
0
  6
CONTINUOUS
 62
               7
100
AcDbLine
 10
-69.700000000000898
 20
54.499999880798157
 30
0.0
 11
-69.699999999999193
 21
61.499999880798157
 31
0.0
  0
LINE
  5
513
100
AcDbEntity
  8
0
  6
CONTINUOUS
 62
               7
100
AcDbLine
 10
-66.000000000000966
 20
53.999999880798157
 30
0.0
 11
-65.999999999999034
 21
61.999999880798157
 31
0.0
  0
LINE
  5
514
100
AcDbEntity
  8
0
  6
CONTINUOUS
 62
               7
100
AcDbLine
 10
-70.000000000000114
 20
-2.732050748467941
 30
0.0
 11
-32.999999999991473
 21
-2.732050748467941
 31
0.0
  0
LINE
  5
515
100
AcDbEntity
  8
0
  6
CONTINUOUS
 62
               7
100
AcDbLine
 10
-70.000000000000114
 20
-0.9999998807912789
 30
0.0
 11
-32.999999999991246
 21
-0.9999998807912789
 31
0.0
  0
LINE
  5
516
100
AcDbEntity
  8
0
  6
CONTINUOUS
 62
               7
100
AcDbLine
 10
-70.000000000000114
 20
3.0000001083848815
 30
0.0
 11
-33.000000000000114
 21
3.0000001083848815
 31
0.0
  0
LINE
  5
517
100
AcDbEntity
  8
0
  6
CONTINUOUS
 62
               7
100
AcDbLine
 10
-70.000000000000114
 20
4.7320509159537778
 30
0.0
 11
-32.999999999990507
 21
4.7320509159537778
 31
0.0
  0
LINE
  5
518
100
AcDbEntity
  8
0
  6
CONTINUOUS
 62
               7
100
AcDbLine
 10
-33.499999999999716
 20
-13.000000000006366
 30
0.0
 11
-69.500000000000625
 21
-12.999999999997215
 31
0.0
  0
LINE
  5
519
100
AcDbEntity
  8
0
  6
CONTINUOUS
 62
               7
100
AcDbLine
 10
-32.0
 20
-8.0000000000035811
 30
0.0
 11
-69.999999999990052
 21
-8.0
 31
0.0
  0
LINE
  5
51A
100
AcDbEntity
  8
0
  6
CONTINUOUS
 62
               7
100
AcDbLine
 10
-32.999999999988574
 20
81.999999999995396
 30
0.0
 11
-68.799999999988529
 21
81.999999999997556
 31
0.0
  0
LINE
  5
51B
100
AcDbEntity
  8
0
  6
CONTINUOUS
 62
               7
100
AcDbLine
 10
-32.999999999989711
 20
66.999999999996419
 30
0.0
 11
-69.999999999990052
 21
66.999999999999943
 31
0.0
  0
LINE
  5
51C
100
AcDbEntity
  8
0
  6
CONTINUOUS
 62
               4
100
AcDbLine
 10
-37.999999999988347
 20
94.699999999988279
 30
0.0
 11
-37.999999999988347
 21
93.999999999995623
 31
0.0
  0
ARC
  5
51D
100
AcDbEntity
  8
0
  6
CONTINUOUS
 62
               4
100
AcDbCircle
 10
-37.007106781175764
 20
94.199999999988279
 30
0.0
 40
0.5
100
AcDbArc
 50
45.000000000005194
 51
90.000000000004789
  0
LINE
  5
51E
100
AcDbEntity
  8
0
  6
CONTINUOUS
 62
               4
100
AcDbLine
 10
-40.89999999998571
 20
116.09999999889629
 30
0.0
 11
-40.799999999985801
 21
116.09999999889629
 31
0.0
  0
LINE
  5
51F
100
AcDbEntity
  8
0
  6
CONTINUOUS
 62
               4
100
AcDbLine
 10
-38.799999999988074
 20
94.199999999989302
 30
0.0
 11
-40.899999999988097
 21
94.199999999989643
 31
0.0
  0
LINE
  5
520
100
AcDbEntity
  8
0
  6
CONTINUOUS
 62
               4
100
AcDbLine
 10
-37.007106781174969
 20
94.699999999989075
 30
0.0
 11
-38.799999999988074
 21
94.699999999989302
 31
0.0
  0
LINE
  5
521
100
AcDbEntity
  8
0
  6
CONTINUOUS
 62
               4
100
AcDbLine
 10
-38.799999999988074
 20
94.19999999170949
 30
0.0
 11
-38.799999999988074
 21
94.699999999989302
 31
0.0
  0
LINE
  5
522
100
AcDbEntity
  8
0
  6
CONTINUOUS
 62
               4
100
AcDbLine
 10
-36.099999999995077
 20
93.999999999995509
 30
0.0
 11
-36.653553390581862
 21
94.553553390582294
 31
0.0
  0
LINE
  5
523
100
AcDbEntity
  8
0
  6
CONTINUOUS
 62
               4
100
AcDbLine
 10
-68.799999999985346
 20
116.99999999999801
 30
0.0
 11
-69.399999999985482
 21
116.99999999999801
 31
0.0
  0
LINE
  5
524
100
AcDbEntity
  8
0
  6
CONTINUOUS
 62
               4
100
AcDbLine
 10
-68.799999999985346
 20
119.99999999999801
 30
0.0
 11
-69.399999999985255
 21
119.99999999999801
 31
0.0
  0
LINE
  5
525
100
AcDbEntity
  8
0
  6
CONTINUOUS
 62
               4
100
AcDbLine
 10
-68.799999999985346
 20
119.99999998575862
 30
0.0
 11
-68.799999999985118
 21
121.99999998575862
 31
0.0
  0
ARC
  5
526
100
AcDbEntity
  8
0
  6
CONTINUOUS
 62
               4
100
AcDbCircle
 10
-69.399999999985255
 20
119.49999999999801
 30
0.0
 40
0.5
100
AcDbArc
 50
89.999999999997996
 51
179.99999999999778
  0
ARC
  5
527
100
AcDbEntity
  8
0
  6
CONTINUOUS
 62
               4
100
AcDbCircle
 10
-69.399999999985255
 20
117.49999999999801
 30
0.0
 40
0.5
100
AcDbArc
 50
179.99999999999775
 51
269.99999999999756
  0
ARC
  5
528
100
AcDbEntity
  8
0
  6
CONTINUOUS
 62
               4
100
AcDbCircle
 10
-27.399999999985937
 20
96.065826257576703
 30
0.0
 40
0.5
100
AcDbArc
 50
344.99999999999966
 51
0.0
  0
ARC
  5
529
100
AcDbEntity
  8
0
  6
CONTINUOUS
 62
               4
100
AcDbCircle
 10
-28.087511073623489
 20
93.499999999995168
 30
0.0
 40
0.5
100
AcDbArc
 50
345.00000000000006
 51
89.999999999999801
  0
ARC
  5
52A
100
AcDbEntity
  8
0
  6
CONTINUOUS
 62
               4
100
AcDbCircle
 10
-39.900000000000261
 20
95.299999999995691
 30
0.0
 40
1.0
100
AcDbArc
 50
168.69006752581495
 51
342.54239687627518
  0
ARC
  5
52B
100
AcDbEntity
  8
0
  6
CONTINUOUS
 62
               4
100
AcDbCircle
 10
-29.221432297653621
 20
91.200000009391545
 30
0.0
 40
1.0
100
AcDbArc
 50
269.99999999999937
 51
345.00000018740081
  0
LINE
  5
52C
100
AcDbEntity
  8
0
  6
CONTINUOUS
 62
               4
100
AcDbLine
 10
-28.255506476348103
 20
90.941180969010531
 30
0.0
 11
-26.91703708684139
 21
95.936416735025375
 31
0.0
  0
LINE
  5
52D
100
AcDbEntity
  8
0
  6
CONTINUOUS
 62
               4
100
AcDbLine
 10
-27.167949194771552
 20
94.999999999995168
 30
0.0
 11
-40.400000000000034
 21
94.999999999995737
 31
0.0
  0
ARC
  5
52E
100
AcDbEntity
  8
0
  6
CONTINUOUS
 62
               4
100
AcDbCircle
 10
-40.39999999999992
 20
95.499999999995737
 30
0.0
 40
0.5
100
AcDbArc
 50
179.99999999999704
 51
269.99999999999687
  0
LINE
  5
52F
100
AcDbEntity
  8
0
  6
CONTINUOUS
 62
               4
100
AcDbLine
 10
-29.221432297654417
 20
90.200000009389043
 30
0.0
 11
-40.099999999991212
 21
90.200000009389271
 31
0.0
  0
LINE
  5
530
100
AcDbEntity
  8
0
  6
CONTINUOUS
 62
               4
100
AcDbLine
 10
-28.087511073623489
 20
93.999999999995168
 30
0.0
 11
-40.09999999999053
 21
93.999999999995737
 31
0.0
  0
LINE
  5
531
100
AcDbEntity
  8
0
  6
CONTINUOUS
 62
               4
100
AcDbLine
 10
-33.499999999989711
 20
93.999999999995509
 30
0.0
 11
-33.499999999989711
 21
94.999999999995509
 31
0.0
  0
LINE
  5
532
100
AcDbEntity
  8
0
  6
CONTINUOUS
 62
               4
100
AcDbLine
 10
-34.499999999989711
 20
93.999999999995509
 30
0.0
 11
-34.499999999989711
 21
94.999999999995509
 31
0.0
  0
LINE
  5
533
100
AcDbEntity
  8
0
  6
CONTINUOUS
 62
               4
100
AcDbLine
 10
-40.599999999991212
 20
90.700000009389385
 30
0.0
 11
-40.59999999999053
 21
93.49999999999585
 31
0.0
  0
ARC
  5
534
100
AcDbEntity
  8
0
  6
CONTINUOUS
 62
               4
100
AcDbCircle
 10
-40.09999999999053
 20
93.499999999995737
 30
0.0
 40
0.5
100
AcDbArc
 50
89.999999999997286
 51
179.99999999999707
  0
ARC
  5
535
100
AcDbEntity
  8
0
  6
CONTINUOUS
 62
               4
100
AcDbCircle
 10
-40.099999999991212
 20
90.700000009389271
 30
0.0
 40
0.5
100
AcDbArc
 50
179.99999999999707
 51
269.99999999999687
  0
LINE
  5
536
100
AcDbEntity
  8
0
  6
CONTINUOUS
 62
               4
100
AcDbLine
 10
-69.999999995454175
 20
108.59999999999599
 30
0.0
 11
-69.899999995454152
 21
108.49999999999596
 31
0.0
  0
LINE
  5
537
100
AcDbEntity
  8
0
  6
CONTINUOUS
 62
               4
100
AcDbLine
 10
-69.899999990923277
 20
115.49999999999596
 30
0.0
 11
-69.999999995454061
 21
115.39999999546518
 31
0.0
  0
LINE
  5
538
100
AcDbEntity
  8
0
  6
CONTINUOUS
 62
               4
100
AcDbLine
 10
-69.999999995454175
 20
108.59999999999599
 30
0.0
 11
-69.999999995454061
 21
115.39999999546518
 31
0.0
  0
ARC
  5
539
100
AcDbEntity
  8
0
  6
CONTINUOUS
 62
               4
100
AcDbCircle
 10
-69.399999999985255
 20
121.49999999999608
 30
0.0
 40
0.5
100
AcDbArc
 50
89.999999999999162
 51
179.99999999999895
  0
LINE
  5
53A
100
AcDbEntity
  8
0
  6
CONTINUOUS
 62
               4
100
AcDbLine
 10
-68.799999999985118
 20
121.99999999999596
 30
0.0
 11
-69.399999999985255
 21
121.99999999999608
 31
0.0
  0
LINE
  5
53B
100
AcDbEntity
  8
0
  6
CONTINUOUS
 62
               4
100
AcDbLine
 10
-69.89999999545438
 20
116.89999999999799
 30
0.0
 11
-68.799999999985459
 21
116.89999999999799
 31
0.0
  0
LINE
  5
53C
100
AcDbEntity
  8
0
  6
CONTINUOUS
 62
               4
100
AcDbLine
 10
-69.899999995454152
 20
120.09999999999803
 30
0.0
 11
-68.799999999984891
 21
120.09999999999792
 31
0.0
  0
LINE
  5
53D
100
AcDbEntity
  8
0
  6
PHANTOM
 62
             200
100
AcDbLine
 10
-70.500000006120842
 20
100.09999999422513
 30
0.0
 11
-70.500000006120842
 21
99.900000006146058
 31
0.0
  0
LINE
  5
53E
100
AcDbEntity
  8
0
  6
PHANTOM
 62
             200
100
AcDbLine
 10
-78.300000006122275
 20
99.599999999997465
 30
0.0
 11
-77.800000006121365
 21
99.599999999997465
 31
0.0
  0
ARC
  5
53F
100
AcDbEntity
  8
0
  6
PHANTOM
 62
             200
100
AcDbCircle
 10
-77.300000006121479
 20
97.2999999999941
 30
0.0
 40
0.5
100
AcDbArc
 50
179.99999999999963
 51
269.99999999999937
  0
ARC
  5
540
100
AcDbEntity
  8
0
  6
PHANTOM
 62
             200
100
AcDbCircle
 10
-71.500000006121525
 20
97.299999999994213
 30
0.0
 40
0.5
100
AcDbArc
 50
269.99999999999937
 51
0.0
  0
LINE
  5
541
100
AcDbEntity
  8
0
  6
CENTER
 62
             200
100
AcDbLine
 10
-74.400000006121616
 20
101.02757406876896
 30
0.0
 11
-74.400000006121616
 21
95.721963881074714
 31
0.0
  0
ARC
  5
542
100
AcDbEntity
  8
0
  6
PHANTOM
 62
             200
100
AcDbCircle
 10
-78.000000006122207
 20
100.09999999999746
 30
0.0
 40
0.3
100
AcDbArc
 50
89.999999999999815
 51
179.99999999999963
  0
ARC
  5
543
100
AcDbEntity
  8
0
  6
PHANTOM
 62
             200
100
AcDbCircle
 10
-70.800000006120911
 20
100.09999999999746
 30
0.0
 40
0.3
100
AcDbArc
 50
0.0
 51
89.999999999999815
  0
LINE
  5
544
100
AcDbEntity
  8
0
  6
PHANTOM
 62
             200
100
AcDbLine
 10
-78.000000006122207
 20
100.39999999999742
 30
0.0
 11
-70.800000006120911
 21
100.39999999999742
 31
0.0
  0
LINE
  5
545
100
AcDbEntity
  8
0
  6
PHANTOM
 62
             200
100
AcDbLine
 10
-78.300000006122161
 20
100.09999999999746
 30
0.0
 11
-78.300000006122275
 21
99.599999999997465
 31
0.0
  0
LINE
  5
546
100
AcDbEntity
  8
0
  6
PHANTOM
 62
             200
100
AcDbLine
 10
-77.800000006121365
 20
99.599999999997465
 30
0.0
 11
-77.800000006121479
 21
98.70000001334796
 31
0.0
  0
LINE
  5
547
100
AcDbEntity
  8
0
  6
PHANTOM
 62
             200
100
AcDbLine
 10
-77.800000006121707
 20
97.499999999994259
 30
0.0
 11
-77.800000006121479
 21
97.299999999993645
 31
0.0
  0
LINE
  5
548
100
AcDbEntity
  8
0
  6
PHANTOM
 62
             200
100
AcDbLine
 10
-77.250000006121752
 20
98.699999999994191
 30
0.0
 11
-77.250000006121866
 21
97.499999999994031
 31
0.0
  0
LINE
  5
549
100
AcDbEntity
  8
0
  6
PHANTOM
 62
             200
100
AcDbLine
 10
-71.000000006121411
 20
98.899999995466999
 30
0.0
 11
-71.000000006121411
 21
98.700000013348415
 31
0.0
  0
LINE
  5
54A
100
AcDbEntity
  8
0
  6
PHANTOM
 62
             200
100
AcDbLine
 10
-71.000000006121525
 20
97.499999999994145
 30
0.0
 11
-71.000000006121525
 21
97.2999999999941
 31
0.0
  0
LINE
  5
54B
100
AcDbEntity
  8
0
  6
PHANTOM
 62
             200
100
AcDbLine
 10
-71.600000006121434
 20
98.699999999994304
 30
0.0
 11
-71.600000006121434
 21
97.499999999994031
 31
0.0
  0
LINE
  5
54C
100
AcDbEntity
  8
0
  6
PHANTOM
 62
             200
100
AcDbLine
 10
-77.800000006121593
 20
98.699999999994077
 30
0.0
 11
-71.000000006121525
 21
98.699999999994077
 31
0.0
  0
LINE
  5
54D
100
AcDbEntity
  8
0
  6
PHANTOM
 62
             200
100
AcDbLine
 10
-77.800000006121707
 20
97.499999999994259
 30
0.0
 11
-71.000000006121525
 21
97.499999999994145
 31
0.0
  0
LINE
  5
54E
100
AcDbEntity
  8
0
  6
PHANTOM
 62
             200
100
AcDbLine
 10
-77.300000006121479
 20
96.7999999999941
 30
0.0
 11
-71.500000006121525
 21
96.799999999994213
 31
0.0
  0
LINE
  5
54F
100
AcDbEntity
  8
0
  6
PHANTOM
 62
             200
100
AcDbLine
 10
-77.800000006121479
 20
98.899999999994122
 30
0.0
 11
-68.900000006121417
 21
98.899999999994236
 31
0.0
  0
LINE
  5
550
100
AcDbEntity
  8
0
  6
PHANTOM
 62
             200
100
AcDbLine
 10
-70.500000006120956
 20
99.899999999997533
 30
0.0
 11
-70.50000000612107
 21
98.89999999999435
 31
0.0
  0
LINE
  5
551
100
AcDbEntity
  8
0
  6
PHANTOM
 62
             200
100
AcDbLine
 10
-70.500000006120842
 20
99.899999999997533
 30
0.0
 11
-68.900000006121402
 21
99.899999999997419
 31
0.0
  0
ARC
  5
552
100
AcDbEntity
  8
0
  6
PHANTOM
 62
             200
100
AcDbCircle
 10
-68.900000006121161
 20
99.399999999997419
 30
0.0
 40
9.4000000000000004
100
AcDbArc
 50
178.7811247648682
 51
263.9275436570785
  0
LINE
  5
553
100
AcDbEntity
  8
0
  6
CONTINUOUS
 62
               4
100
AcDbLine
 10
-27.899999998700594
 20
118.99999998217112
 30
0.0
 11
-36.399999998700594
 21
118.99999998217112
 31
0.0
  0
LINE
  5
554
100
AcDbEntity
  8
0
  6
CONTINUOUS
 62
               4
100
AcDbLine
 10
-26.899999999985937
 20
96.065826257576589
 30
0.0
 11
-26.899999999985027
 21
117.99999997339529
 31
0.0
  0
LINE
  5
555
100
AcDbEntity
  8
0
  6
CONTINUOUS
 62
             200
100
AcDbLine
 10
-22.319127391129712
 20
99.699999999996123
 30
0.0
 11
-21.459127391129812
 21
102.89999999999617
 31
0.0
  0
LINE
  5
556
100
AcDbEntity
  8
0
  6
CONTINUOUS
 62
             200
100
AcDbLine
 10
-23.349127391129684
 20
99.699999999996123
 30
0.0
 11
-22.489127391129784
 21
102.89999999999617
 31
0.0
  0
LINE
  5
557
100
AcDbEntity
  8
0
  6
CONTINUOUS
 62
               4
100
AcDbLine
 10
-25.899999999997533
 20
99.599999999995987
 30
0.0
 11
-25.89999999999776
 21
102.99999999999608
 31
0.0
  0
ARC
  5
558
100
AcDbEntity
  8
0
  6
CONTINUOUS
 62
               4
100
AcDbCircle
 10
-26.199999999997715
 20
102.99999999999608
 30
0.0
 40
0.3
100
AcDbArc
 50
0.0
 51
89.999999999999815
  0
LINE
  5
559
100
AcDbEntity
  8
0
  6
CONTINUOUS
 62
               4
100
AcDbLine
 10
-26.199999999997715
 20
103.29999999999603
 30
0.0
 11
-26.89999999999776
 21
103.29999999999603
 31
0.0
  0
ARC
  5
55A
100
AcDbEntity
  8
0
  6
CONTINUOUS
 62
               4
100
AcDbCircle
 10
-27.899999999985027
 20
117.99999998217112
 30
0.0
 40
1.0
100
AcDbArc
 50
0.0
 51
89.999999999999815
  0
LINE
  5
55B
100
AcDbEntity
  8
0
  6
CONTINUOUS
 62
               4
100
AcDbLine
 10
-15.399127391129753
 20
101.54999999999626
 30
0.0
 11
-15.399127391129753
 21
101.04999999999626
 31
0.0
  0
LINE
  5
55C
100
AcDbEntity
  8
0
  6
CONTINUOUS
 62
               4
100
AcDbLine
 10
-18.899127391129753
 20
102.04999999999603
 30
0.0
 11
-18.899127391129753
 21
100.54999999999626
 31
0.0
  0
LINE
  5
55D
100
AcDbEntity
  8
0
  6
CONTINUOUS
 62
               4
100
AcDbLine
 10
-18.899127391129753
 20
101.54999999999626
 30
0.0
 11
-15.399127391129753
 21
101.54999999999626
 31
0.0
  0
LINE
  5
55E
100
AcDbEntity
  8
0
  6
CONTINUOUS
 62
               4
100
AcDbLine
 10
-18.899127391129753
 20
101.04999999999626
 30
0.0
 11
-15.399127391129753
 21
101.04999999999626
 31
0.0
  0
LINE
  5
55F
100
AcDbEntity
  8
0
  6
CONTINUOUS
 62
               4
100
AcDbLine
 10
-22.059127391129721
 20
100.54999999999626
 30
0.0
 11
-18.899127391129753
 21
100.54999999999626
 31
0.0
  0
LINE
  5
560
100
AcDbEntity
  8
0
  6
CONTINUOUS
 62
               4
100
AcDbLine
 10
-21.687564891129739
 20
102.04999999999603
 30
0.0
 11
-18.899127391129753
 21
102.04999999999603
 31
0.0
  0
ARC
  5
561
100
AcDbEntity
  8
0
  6
CONTINUOUS
 62
               4
100
AcDbCircle
 10
-26.199999999997715
 20
99.599999999995987
 30
0.0
 40
0.3
100
AcDbArc
 50
270.00000000000023
 51
0.0
  0
LINE
  5
562
100
AcDbEntity
  8
0
  6
CONTINUOUS
 62
               4
100
AcDbLine
 10
-26.199999999997715
 20
99.299999999996032
 30
0.0
 11
-26.89999999999776
 21
99.299999999996032
 31
0.0
  0
LINE
  5
563
100
AcDbEntity
  8
0
  6
CONTINUOUS
 62
               4
100
AcDbLine
 10
-25.899999999997647
 20
100.54999999999603
 30
0.0
 11
-23.120689891129757
 21
100.54999999999603
 31
0.0
  0
LINE
  5
564
100
AcDbEntity
  8
0
  6
CONTINUOUS
 62
               4
100
AcDbLine
 10
-25.89999999999776
 20
102.04999999999603
 30
0.0
 11
-22.717564891129712
 21
102.04999999999603
 31
0.0
  0
LINE
  5
565
100
AcDbEntity
  8
0
  6
CENTER
 62
             200
100
AcDbLine
 10
-28.389104190847263
 20
101.29999999999626
 30
0.0
 11
-14.489390148999803
 21
101.29999999999649
 31
0.0
  0
LINE
  5
566
100
AcDbEntity
  8
0
  6
CONTINUOUS
 62
               4
100
AcDbLine
 10
-37.899999999984345
 20
121.99999999999574
 30
0.0
 11
-68.799999999985118
 21
121.99999999999596
 31
0.0
  0
ARC
  5
567
100
AcDbEntity
  8
0
  6
CONTINUOUS
 62
               4
100
AcDbCircle
 10
-37.899999999984345
 20
120.99999999999574
 30
0.0
 40
1.0
100
AcDbArc
 50
0.0
 51
89.999999999999815
  0
ARC
  5
568
100
AcDbEntity
  8
0
  6
CONTINUOUS
 62
               4
100
AcDbCircle
 10
-36.399999999984345
 20
119.49999998217112
 30
0.0
 40
0.5
100
AcDbArc
 50
179.99999999999963
 51
269.99999999999937
  0
LINE
  5
569
100
AcDbEntity
  8
0
  6
CONTINUOUS
 62
               4
100
AcDbLine
 10
-36.899999999984345
 20
120.99999999999574
 30
0.0
 11
-36.899999999984345
 21
119.49999998217112
 31
0.0
  0
LINE
  5
56A
100
AcDbEntity
  8
0
  6
CONTINUOUS
 62
               4
100
AcDbLine
 10
-40.899999999989348
 20
89.999999999992326
 30
0.0
 11
-40.899999999985027
 21
121.99999999999574
 31
0.0
  0
ARC
  5
56B
100
AcDbEntity
  8
0
  6
CONTINUOUS
 62
               4
100
AcDbCircle
 10
-34.550000190724745
 20
89.193745613091949
 30
0.0
 40
0.800000011920929
100
AcDbArc
 50
359.99998201393447
 51
73.808645430493726
  0
ARC
  5
56C
100
AcDbEntity
  8
0
  6
CONTINUOUS
 62
               4
100
AcDbCircle
 10
-33.499999999989257
 20
87.299999999994441
 30
0.0
 40
0.5
100
AcDbArc
 50
0.0000000000196431
 51
90.00000000001944
  0
LINE
  5
56D
100
AcDbEntity
  8
0
  6
CONTINUOUS
 62
               4
100
AcDbLine
 10
-33.499999999989427
 20
87.799999999994441
 30
0.0
 11
-38.799999999989382
 21
87.799999999992167
 31
0.0
  0
ARC
  5
56E
100
AcDbEntity
  8
0
  6
CONTINUOUS
 62
               4
100
AcDbCircle
 10
-37.449999809255019
 20
89.193745613090812
 30
0.0
 40
0.800000011920929
100
AcDbArc
 50
106.19135456955514
 51
180.00001798611356
  0
LINE
  5
56F
100
AcDbEntity
  8
0
  6
CONTINUOUS
 62
               4
100
AcDbLine
 10
-33.749999999989541
 20
88.499999999994486
 30
0.0
 11
-38.249999999989541
 21
88.49999999999244
 31
0.0
  0
LINE
  5
570
100
AcDbEntity
  8
0
  6
CONTINUOUS
 62
               4
100
AcDbLine
 10
-33.749999999989882
 20
89.193745613092403
 30
0.0
 11
-33.749999999989313
 21
87.799999999994213
 31
0.0
  0
LINE
  5
571
100
AcDbEntity
  8
0
  6
CONTINUOUS
 62
               4
100
AcDbLine
 10
-38.249999999989882
 20
89.193745613090357
 30
0.0
 11
-38.249999999989313
 21
87.799999999992281
 31
0.0
  0
LINE
  5
572
100
AcDbEntity
  8
0
  6
CONTINUOUS
 62
               4
100
AcDbLine
 10
-38.799999999989382
 20
87.799999999992167
 30
0.0
 11
-38.799999999990064
 21
89.499999999993122
 31
0.0
  0
ARC
  5
573
100
AcDbEntity
  8
0
  6
CONTINUOUS
 62
               4
100
AcDbCircle
 10
-39.299999999990064
 20
89.499999999992895
 30
0.0
 40
0.5
100
AcDbArc
 50
0.0000000000196431
 51
90.00000000001944
  0
LINE
  5
574
100
AcDbEntity
  8
0
  6
CONTINUOUS
 62
               4
100
AcDbLine
 10
-37.536228429444861
 20
89.999999999993577
 30
0.0
 11
-40.899999999991621
 21
89.999999999992326
 31
0.0
  0
LINE
  5
575
100
AcDbEntity
  8
0
  6
CONTINUOUS
 62
               4
100
AcDbLine
 10
-37.999999999990052
 20
90.200000009387566
 30
0.0
 11
-37.999999999989939
 21
89.999999999994031
 31
0.0
  0
ARC
  5
576
100
AcDbEntity
  8
0
  6
CONTINUOUS
 62
               4
100
AcDbCircle
 10
-35.999999999987722
 20
84.199999809258372
 30
0.0
 40
6.0
100
AcDbArc
 50
73.808645430493712
 51
106.19128262519777
  0
LINE
  5
577
100
AcDbEntity
  8
0
  6
CONTINUOUS
 62
               4
100
AcDbLine
 10
-32.999999999988574
 20
81.999999999995055
 30
0.0
 11
-32.999999999988802
 21
87.299999999994554
 31
0.0
  0
LINE
  5
578
100
AcDbEntity
  8
0
  6
CONTINUOUS
 62
               7
100
AcDbLine
 10
-68.799999999988756
 20
75.999999999999829
 30
0.0
 11
-68.799999999988245
 21
81.999999999997556
 31
0.0
  0
LINE
  5
579
100
AcDbEntity
  8
0
  6
CONTINUOUS
 62
               7
100
AcDbLine
 10
-69.899999995455403
 20
76.499999994244661
 30
0.0
 11
-69.899999995455232
 21
81.999999999997627
 31
0.0
  0
CIRCLE
  5
57A
100
AcDbEntity
  8
0
  6
CONTINUOUS
 62
               7
100
AcDbCircle
 10
-16.999999999999943
 20
31.0
 30
0.0
 40
9.3155000000000001
  0
CIRCLE
  5
57B
100
AcDbEntity
  8
0
  6
CONTINUOUS
 62
               2
100
AcDbCircle
 10
-16.999999999999943
 20
31.0
 30
0.0
 40
10.477499999999999
  0
LINE
  5
57C
100
AcDbEntity
  8
0
  6
CENTER
 62
               2
100
AcDbLine
 10
-17.0
 20
43.674442732188311
 30
0.0
 11
-17.0
 21
19.264528914421874
 31
0.0
  0
CIRCLE
  5
57D
100
AcDbEntity
  8
0
  6
CONTINUOUS
 62
               7
100
AcDbCircle
 10
-14.999999999999943
 20
3.0
 30
0.0
 40
9.3155000000000001
  0
CIRCLE
  5
57E
100
AcDbEntity
  8
0
  6
CONTINUOUS
 62
               2
100
AcDbCircle
 10
-14.999999999999943
 20
3.0
 30
0.0
 40
10.477499999999999
  0
CIRCLE
  5
57F
100
AcDbEntity
  8
0
  6
CONTINUOUS
 62
               7
100
AcDbCircle
 10
-14.999999999999943
 20
58.999999999999943
 30
0.0
 40
9.3155000000000001
  0
CIRCLE
  5
580
100
AcDbEntity
  8
0
  6
CONTINUOUS
 62
               2
100
AcDbCircle
 10
-14.999999999999943
 20
58.999999999999943
 30
0.0
 40
10.477499999999999
  0
LINE
  5
581
100
AcDbEntity
  8
0
  6
CENTER
 62
               2
100
AcDbLine
 10
-3.0383377311367781
 20
58.999999999999943
 30
0.0
 11
-28.09918258404366
 21
58.999999999999943
 31
0.0
  0
LINE
  5
582
100
AcDbEntity
  8
0
  6
CENTER
 62
               2
100
AcDbLine
 10
-3.0383377311367781
 20
3.0
 30
0.0
 11
-28.09918258404366
 21
3.0
 31
0.0
  0
LINE
  5
583
100
AcDbEntity
  8
0
  6
CENTER
 62
               2
100
AcDbLine
 10
-4.1774670426325429
 20
31.0
 30
0.0
 11
-29.726510171894745
 21
31.0
 31
0.0
  0
LINE
  5
584
100
AcDbEntity
  8
0
  6
CENTER
 62
               2
100
AcDbLine
 10
-15.0
 20
-9.5391693905424404
 30
0.0
 11
-15.0
 21
72.478141037152625
 31
0.0
  0
LINE
  5
585
100
AcDbEntity
  8
0
  6
CONTINUOUS
 62
               7
100
AcDbLine
 10
0.0
 20
79.999999999999943
 30
0.0
 11
0.0
 21
-11.0
 31
0.0
  0
LINE
  5
586
100
AcDbEntity
  8
0
  6
CONTINUOUS
 62
               7
100
AcDbLine
 10
0.0
 20
79.999999999999943
 30
0.0
 11
-32.99999999998812
 21
79.999999999999943
 31
0.0
  0
LINE
  5
587
100
AcDbEntity
  8
0
  6
CONTINUOUS
 62
               7
100
AcDbLine
 10
0.0
 20
-11.0
 30
0.0
 11
-32.0
 21
-11.0
 31
0.0
  0
LINE
  5
588
100
AcDbEntity
  8
0
  6
CONTINUOUS
 62
               7
100
AcDbLine
 10
-32.0
 20
79.999999999999943
 30
0.0
 11
-32.0
 21
-11.0
 31
0.0
  0
LINE
  5
589
100
AcDbEntity
  8
0
  6
CONTINUOUS
 62
               4
100
AcDbLine
 10
-68.799999999988245
 20
81.999999999997556
 30
0.0
 11
-68.799999999985459
 21
116.99999999999801
 31
0.0
  0
LINE
  5
58A
100
AcDbEntity
  8
0
  6
CONTINUOUS
 62
               4
100
AcDbLine
 10
-69.899999995455232
 20
81.999999999997627
 30
0.0
 11
-69.899999995454152
 21
121.49999999999608
 31
0.0
  0
ARC
  5
58B
100
AcDbEntity
  8
0
  6
PHANTOM
 62
             200
100
AcDbCircle
 10
-68.900000006121161
 20
99.399999999997419
 30
0.0
 40
0.5
100
AcDbArc
 50
269.9999999999709
 51
90.000000000028294
  0
ENDBLK
  5
58C
100
AcDbEntity
  8
0
100
AcDbBlockEnd
  0
BLOCK
  5
58D
100
AcDbEntity
  8
0
100
AcDbBlockBegin
  2
PA24A6-13
 70
               0
 10
0.0
 20
0.0
 30
0.0
  3
PA24A6-13
  1

  0
LINE
  5
58E
100
AcDbEntity
  8
0
  6
CENTER
 62
               2
100
AcDbLine
 10
33.999999999999943
 20
-5.0
 30
0.0
 11
33.999999999999943
 21
5.0
 31
0.0
  0
LINE
  5
58F
100
AcDbEntity
  8
0
  6
CENTER
 62
               2
100
AcDbLine
 10
0.0
 20
-5.0
 30
0.0
 11
0.0
 21
5.0
 31
0.0
  0
LINE
  5
590
100
AcDbEntity
  8
0
  6
CONTINUOUS
 62
               7
100
AcDbLine
 10
5.6000000000087766
 20
33.0
 30
0.0
 11
27.400000000008845
 21
33.0
 31
0.0
  0
LINE
  5
591
100
AcDbEntity
  8
0
  6
CONTINUOUS
 62
               7
100
AcDbLine
 10
5.6000000000087766
 20
70.0
 30
0.0
 11
27.400000000008845
 21
70.0
 31
0.0
  0
ARC
  5
592
100
AcDbEntity
  8
0
  6
CONTINUOUS
 62
               7
100
AcDbCircle
 10
27.400000000008845
 20
34.0
 30
0.0
 40
1.0
100
AcDbArc
 50
269.99999999999937
 51
0.0
  0
ARC
  5
593
100
AcDbEntity
  8
0
  6
CONTINUOUS
 62
               7
100
AcDbCircle
 10
27.400000000008845
 20
69.0
 30
0.0
 40
1.0
100
AcDbArc
 50
0.0
 51
89.999999999999815
  0
ARC
  5
594
100
AcDbEntity
  8
0
  6
CONTINUOUS
 62
               7
100
AcDbCircle
 10
5.6000000000087766
 20
69.0
 30
0.0
 40
1.0
100
AcDbArc
 50
89.999999999999815
 51
179.99999999999963
  0
ARC
  5
595
100
AcDbEntity
  8
0
  6
CONTINUOUS
 62
               7
100
AcDbCircle
 10
5.6000000000087766
 20
34.0
 30
0.0
 40
1.0
100
AcDbArc
 50
179.99999999999963
 51
269.99999999999937
  0
LINE
  5
596
100
AcDbEntity
  8
0
  6
CENTER
 62
               2
100
AcDbLine
 10
2.8842427451452295
 20
51.5
 30
0.0
 11
29.705902948475341
 21
51.5
 31
0.0
  0
LINE
  5
597
100
AcDbEntity
  8
0
  6
CENTER
 62
               2
100
AcDbLine
 10
9.0000000000087539
 20
41.78496523884985
 30
0.0
 11
9.0000000000087539
 21
35.305133211195766
 31
0.0
  0
LINE
  5
598
100
AcDbEntity
  8
0
  6
CENTER
 62
               2
100
AcDbLine
 10
5.8118080287350722
 20
38.499999999751253
 30
0.0
 11
12.160831057383234
 21
38.499999999751253
 31
0.0
  0
LINE
  5
599
100
AcDbEntity
  8
0
  6
CENTER
 62
               2
100
AcDbLine
 10
24.000000000008754
 20
61.715034761150264
 30
0.0
 11
24.000000000008754
 21
67.694866788804347
 31
0.0
  0
LINE
  5
59A
100
AcDbEntity
  8
0
  6
CENTER
 62
               2
100
AcDbLine
 10
27.188191971282436
 20
64.500000000248974
 30
0.0
 11
21.245776841586462
 21
64.500000000248974
 31
0.0
  0
LINE
  5
59B
100
AcDbEntity
  8
0
  6
CONTINUOUS
 62
               7
100
AcDbLine
 10
10.600000000008777
 20
67.08578643134274
 30
0.0
 11
10.600000000008777
 21
69.5
 31
0.0
  0
LINE
  5
59C
100
AcDbEntity
  8
0
  6
CONTINUOUS
 62
               7
100
AcDbLine
 10
10.100000000008777
 20
66.58578643134274
 30
0.0
 11
5.1000000000087766
 21
66.58578643134274
 31
0.0
  0
ARC
  5
59D
100
AcDbEntity
  8
0
  6
CONTINUOUS
 62
               7
100
AcDbCircle
 10
10.100000000008777
 20
67.08578643134274
 30
0.0
 40
0.5
100
AcDbArc
 50
269.99999999999937
 51
0.0
  0
ARC
  5
59E
100
AcDbEntity
  8
0
  6
CONTINUOUS
 62
               7
100
AcDbCircle
 10
11.100000000008777
 20
69.5
 30
0.0
 40
0.5
100
AcDbArc
 50
89.999999999999815
 51
179.99999999999963
  0
LINE
  5
59F
100
AcDbEntity
  8
0
  6
CONTINUOUS
 62
               7
100
AcDbLine
 10
22.400000000008845
 20
35.914213568657374
 30
0.0
 11
22.400000000008845
 21
33.5
 31
0.0
  0
LINE
  5
5A0
100
AcDbEntity
  8
0
  6
CONTINUOUS
 62
               7
100
AcDbLine
 10
22.900000000008845
 20
36.414213568657374
 30
0.0
 11
27.900000000008845
 21
36.414213568657374
 31
0.0
  0
ARC
  5
5A1
100
AcDbEntity
  8
0
  6
CONTINUOUS
 62
               7
100
AcDbCircle
 10
22.900000000008845
 20
35.914213568657374
 30
0.0
 40
0.5
100
AcDbArc
 50
89.999999999999815
 51
179.99999999999963
  0
ARC
  5
5A2
100
AcDbEntity
  8
0
  6
CONTINUOUS
 62
               7
100
AcDbCircle
 10
21.900000000008845
 20
33.5
 30
0.0
 40
0.5
100
AcDbArc
 50
269.99999999999937
 51
0.0
  0
CIRCLE
  5
5A3
100
AcDbEntity
  8
0
  6
CONTINUOUS
 62
               7
100
AcDbCircle
 10
24.000000000008754
 20
64.450000000248906
 30
0.0
 40
2.25
  0
CIRCLE
  5
5A4
100
AcDbEntity
  8
0
  6
CONTINUOUS
 62
               7
100
AcDbCircle
 10
9.0000000000087539
 20
38.549999999751208
 30
0.0
 40
2.25
  0
ARC
  5
5A5
100
AcDbEntity
  8
0
  6
CONTINUOUS
 62
               7
100
AcDbCircle
 10
5.1000000000087766
 20
66.08578643134274
 30
0.0
 40
0.5
100
AcDbArc
 50
89.999999999999815
 51
179.99999999999963
  0
ARC
  5
5A6
100
AcDbEntity
  8
0
  6
CONTINUOUS
 62
               7
100
AcDbCircle
 10
27.900000000008845
 20
36.914213568657374
 30
0.0
 40
0.5
100
AcDbArc
 50
269.99999999999937
 51
0.0
  0
CIRCLE
  5
5A7
100
AcDbEntity
  8
0
  6
CONTINUOUS
 62
               7
100
AcDbCircle
 10
16.500000000008754
 20
65.75
 30
0.0
 40
4.0999999999999996
  0
CIRCLE
  5
5A8
100
AcDbEntity
  8
0
  6
CONTINUOUS
 62
               7
100
AcDbCircle
 10
16.500000000008754
 20
37.25
 30
0.0
 40
4.0999999999999996
  0
LINE
  5
5A9
100
AcDbEntity
  8
0
  6
CONTINUOUS
 62
               7
100
AcDbLine
 10
18.197055871764633
 20
38.94705622342326
 30
0.0
 11
14.802943245287111
 21
35.552943310843375
 31
0.0
  0
LINE
  5
5AA
100
AcDbEntity
  8
0
  6
CONTINUOUS
 62
               7
100
AcDbLine
 10
14.802943880893622
 20
38.947055976064121
 30
0.0
 11
18.197056793473507
 21
35.552943349586485
 31
0.0
  0
LINE
  5
5AB
100
AcDbEntity
  8
0
  6
CONTINUOUS
 62
               7
100
AcDbLine
 10
18.197055871764633
 20
64.05294377657674
 30
0.0
 11
14.802943245287111
 21
67.447056689156625
 31
0.0
  0
LINE
  5
5AC
100
AcDbEntity
  8
0
  6
CONTINUOUS
 62
               7
100
AcDbLine
 10
14.802943880893622
 20
64.052944023936107
 30
0.0
 11
18.197056793473507
 21
67.447056650413629
 31
0.0
  0
CIRCLE
  5
5AD
100
AcDbEntity
  8
0
  6
CONTINUOUS
 62
               7
100
AcDbCircle
 10
16.500000000008754
 20
65.75
 30
0.0
 40
4.0
  0
CIRCLE
  5
5AE
100
AcDbEntity
  8
0
  6
CONTINUOUS
 62
               7
100
AcDbCircle
 10
16.500000000008754
 20
37.25
 30
0.0
 40
4.0
  0
LINE
  5
5AF
100
AcDbEntity
  8
0
  6
CONTINUOUS
 62
               7
100
AcDbLine
 10
4.6000000000119599
 20
69.000000000000114
 30
0.0
 11
4.6000000000092314
 21
34.000000000000057
 31
0.0
  0
LINE
  5
5B0
100
AcDbEntity
  8
0
  6
CONTINUOUS
 62
               7
100
AcDbLine
 10
28.400000000011914
 20
69.0
 30
0.0
 11
28.400000000009072
 21
33.999999999999943
 31
0.0
  0
LINE
  5
5B1
100
AcDbEntity
  8
0
  6
CENTER
 62
               2
100
AcDbLine
 10
16.500000000008754
 20
70.75
 30
0.0
 11
16.500000000008583
 21
29.477281603828828
 31
0.0
  0
LINE
  5
5B2
100
AcDbEntity
  8
0
  6
CONTINUOUS
 62
               7
100
AcDbLine
 10
-4.9999999999895408
 20
-0.0000000214458282
 30
0.0
 11
-4.9999999999895408
 21
31.999999978554172
 31
0.0
  0
LINE
  5
5B3
100
AcDbEntity
  8
0
  6
CONTINUOUS
 62
               7
100
AcDbLine
 10
39.000000000009948
 20
-0.0000000214458282
 30
0.0
 11
39.000000000009948
 21
32.0
 31
0.0
  0
LINE
  5
5B4
100
AcDbEntity
  8
0
  6
CONTINUOUS
 62
               7
100
AcDbLine
 10
-4.9999999990991455
 20
32.0
 30
0.0
 11
39.000000000009948
 21
32.0
 31
0.0
  0
LINE
  5
5B5
100
AcDbEntity
  8
0
  6
CONTINUOUS
 62
               7
100
AcDbLine
 10
-4.9999999990991455
 20
0.0
 30
0.0
 11
39.000000000009948
 21
0.0
 31
0.0
  0
LINE
  5
5B6
100
AcDbEntity
  8
0
  6
CONTINUOUS
 62
               7
100
AcDbLine
 10
4.0000000000104592
 20
-0.0000000214458282
 30
0.0
 11
4.0000000000104592
 21
31.999999978554172
 31
0.0
  0
LINE
  5
5B7
100
AcDbEntity
  8
0
  6
CONTINUOUS
 62
               7
100
AcDbLine
 10
28.400000000009072
 20
33.0
 30
0.0
 11
28.400000000009072
 21
32.0
 31
0.0
  0
LINE
  5
5B8
100
AcDbEntity
  8
0
  6
CONTINUOUS
 62
               7
100
AcDbLine
 10
28.400000000009072
 20
33.0
 30
0.0
 11
27.400000000008845
 21
33.0
 31
0.0
  0
LINE
  5
5B9
100
AcDbEntity
  8
0
  6
CONTINUOUS
 62
               7
100
AcDbLine
 10
5.6000000000087766
 20
33.0
 30
0.0
 11
4.6000000000091177
 21
33.0
 31
0.0
  0
LINE
  5
5BA
100
AcDbEntity
  8
0
  6
CONTINUOUS
 62
               7
100
AcDbLine
 10
4.6000000000091177
 20
33.0
 30
0.0
 11
4.6000000000091177
 21
32.0
 31
0.0
  0
LINE
  5
5BB
100
AcDbEntity
  8
0
  6
CENTER
 62
               2
100
AcDbLine
 10
25.000000000009948
 20
20.07670978547327
 30
0.0
 11
25.000000000009948
 21
29.213222225910613
 31
0.0
  0
LINE
  5
5BC
100
AcDbEntity
  8
0
  6
CENTER
 62
               2
100
AcDbLine
 10
21.31843627388082
 20
25.0
 30
0.0
 11
29.255089448090018
 21
25.0
 31
0.0
  0
CIRCLE
  5
5BD
100
AcDbEntity
  8
0
  6
DASHED
 62
               2
100
AcDbCircle
 10
25.000000000009948
 20
25.0
 30
0.0
 40
2.5
  0
CIRCLE
  5
5BE
100
AcDbEntity
  8
0
  6
DASHED
 62
               7
100
AcDbCircle
 10
25.000000000009948
 20
25.0
 30
0.0
 40
2.1000000000000001
  0
ENDBLK
  5
5BF
100
AcDbEntity
  8
0
100
AcDbBlockEnd
  0
BLOCK
  5
5C0
100
AcDbEntity
  8
0
100
AcDbBlockBegin
  2
PA24A6-14
 70
               0
 10
0.0
 20
0.0
 30
0.0
  3
PA24A6-14
  1

  0
LINE
  5
5C1
100
AcDbEntity
  8
0
  6
CONTINUOUS
 62
               4
100
AcDbLine
 10
-3.9999999999998153
 20
7.8999999999998636
 30
0.0
 11
-8.7999999999998835
 21
7.8999999999998636
 31
0.0
  0
LINE
  5
5C2
100
AcDbEntity
  8
0
  6
CONTINUOUS
 62
               4
100
AcDbLine
 10
-2.0999999999997243
 20
26.599999999998658
 30
0.0
 11
-7.8999999999996788
 21
26.599999999998772
 31
0.0
  0
LINE
  5
5C3
100
AcDbEntity
  8
0
  6
CONTINUOUS
 62
               4
100
AcDbLine
 10
-2.0999999999996106
 20
33.399999999998613
 30
0.0
 11
-2.0999999999997243
 21
26.599999999998658
 31
0.0
  0
LINE
  5
5C4
100
AcDbEntity
  8
0
  6
CONTINUOUS
 62
               4
100
AcDbLine
 10
-7.8999999999995651
 20
33.399999999998727
 30
0.0
 11
-7.8999999999996788
 21
26.599999999998772
 31
0.0
  0
LINE
  5
5C5
100
AcDbEntity
  8
0
  6
CONTINUOUS
 62
               4
100
AcDbLine
 10
-2.0999999999996106
 20
33.399999999998613
 30
0.0
 11
-7.8999999999995651
 21
33.399999999998727
 31
0.0
  0
LINE
  5
5C6
100
AcDbEntity
  8
0
  6
CONTINUOUS
 62
               4
100
AcDbLine
 10
2.1000000000004349
 20
26.599999999998658
 30
0.0
 11
7.9000000000005031
 21
26.599999999998545
 31
0.0
  0
LINE
  5
5C7
100
AcDbEntity
  8
0
  6
CONTINUOUS
 62
               4
100
AcDbLine
 10
2.1000000000005485
 20
33.399999999998613
 30
0.0
 11
2.1000000000004349
 21
26.599999999998658
 31
0.0
  0
LINE
  5
5C8
100
AcDbEntity
  8
0
  6
CONTINUOUS
 62
               4
100
AcDbLine
 10
7.9000000000005031
 20
33.399999999998499
 30
0.0
 11
7.9000000000005031
 21
26.599999999998545
 31
0.0
  0
LINE
  5
5C9
100
AcDbEntity
  8
0
  6
CONTINUOUS
 62
               4
100
AcDbLine
 10
2.1000000000005485
 20
33.399999999998613
 30
0.0
 11
7.9000000000005031
 21
33.399999999998499
 31
0.0
  0
LINE
  5
5CA
100
AcDbEntity
  8
0
  6
CONTINUOUS
 62
               4
100
AcDbLine
 10
-7.9999999999995879
 20
33.499999999998749
 30
0.0
 11
-7.9999999999997016
 21
26.499999999998749
 31
0.0
  0
LINE
  5
5CB
100
AcDbEntity
  8
0
  6
CONTINUOUS
 62
               4
100
AcDbLine
 10
-1.9999999999995879
 20
33.499999999998636
 30
0.0
 11
-1.9999999999997016
 21
26.499999999998636
 31
0.0
  0
LINE
  5
5CC
100
AcDbEntity
  8
0
  6
CONTINUOUS
 62
               4
100
AcDbLine
 10
-1.9999999999997016
 20
26.499999999998636
 30
0.0
 11
-7.9999999999997016
 21
26.499999999998749
 31
0.0
  0
LINE
  5
5CD
100
AcDbEntity
  8
0
  6
CONTINUOUS
 62
               4
100
AcDbLine
 10
-1.9999999999995879
 20
33.499999999998636
 30
0.0
 11
-7.9999999999995879
 21
33.499999999998749
 31
0.0
  0
LINE
  5
5CE
100
AcDbEntity
  8
0
  6
CONTINUOUS
 62
               4
100
AcDbLine
 10
2.0000000000004121
 20
26.499999999998636
 30
0.0
 11
8.0000000000004121
 21
26.499999999998522
 31
0.0
  0
LINE
  5
5CF
100
AcDbEntity
  8
0
  6
CONTINUOUS
 62
               4
100
AcDbLine
 10
2.0000000000005258
 20
33.499999999998636
 30
0.0
 11
8.0000000000005258
 21
33.499999999998522
 31
0.0
  0
LINE
  5
5D0
100
AcDbEntity
  8
0
  6
CONTINUOUS
 62
               4
100
AcDbLine
 10
7.9000000000002757
 20
18.299999994247401
 30
0.0
 11
7.9000000000002757
 21
18.700207536078665
 31
0.0
  0
ARC
  5
5D1
100
AcDbEntity
  8
0
  6
CONTINUOUS
 62
               4
100
AcDbCircle
 10
7.6000000000002075
 20
18.299999994247401
 30
0.0
 40
0.3
100
AcDbArc
 50
269.9999999999979
 51
359.99999999999767
  0
LINE
  5
5D2
100
AcDbEntity
  8
0
  6
CONTINUOUS
 62
               4
100
AcDbLine
 10
7.9000000000002757
 20
18.700207536078665
 30
0.0
 11
9.2999999874520682
 21
18.700207536078665
 31
0.0
  0
ARC
  5
5D3
100
AcDbEntity
  8
0
  6
CONTINUOUS
 62
               4
100
AcDbCircle
 10
-7.5999999999997243
 20
18.299999994247628
 30
0.0
 40
0.3
100
AcDbArc
 50
179.99999999999963
 51
269.99999999999937
  0
LINE
  5
5D4
100
AcDbEntity
  8
0
  6
CONTINUOUS
 62
               4
100
AcDbLine
 10
7.1000000000002075
 20
16.399999999999636
 30
0.0
 11
7.1000000000002075
 21
17.999999994247446
 31
0.0
  0
LINE
  5
5D5
100
AcDbEntity
  8
0
  6
CONTINUOUS
 62
               4
100
AcDbLine
 10
-7.8999999999996788
 20
18.299999994247742
 30
0.0
 11
-7.8999999999996788
 21
18.700207536078892
 31
0.0
  0
LINE
  5
5D6
100
AcDbEntity
  8
0
  6
CONTINUOUS
 62
               4
100
AcDbLine
 10
7.1000000000002075
 20
17.999999994247446
 30
0.0
 11
9.300000000000253
 21
17.999999994247446
 31
0.0
  0
LINE
  5
5D7
100
AcDbEntity
  8
0
  6
CONTINUOUS
 62
               4
100
AcDbLine
 10
-7.8999999999996788
 20
18.700207536078892
 30
0.0
 11
-9.2999999874515851
 21
18.700207536078892
 31
0.0
  0
LINE
  5
5D8
100
AcDbEntity
  8
0
  6
CONTINUOUS
 62
               4
100
AcDbLine
 10
-7.0999999999997243
 20
17.999999994247673
 30
0.0
 11
-9.2999999999996561
 21
17.999999994247673
 31
0.0
  0
LINE
  5
5D9
100
AcDbEntity
  8
0
  6
CONTINUOUS
 62
               4
100
AcDbLine
 10
9.3000000000001393
 20
8.3999999999998636
 30
0.0
 11
9.300000000000253
 21
18.700207536078665
 31
0.0
  0
ARC
  5
5DA
100
AcDbEntity
  8
0
  6
CONTINUOUS
 62
               4
100
AcDbCircle
 10
-3.4999999999998153
 20
7.1999999999999318
 30
0.0
 40
0.5
100
AcDbArc
 50
179.99999999999807
 51
269.9999999999979
  0
LINE
  5
5DB
100
AcDbEntity
  8
0
  6
CONTINUOUS
 62
               4
100
AcDbLine
 10
-3.9999999999998153
 20
7.1999999999999318
 30
0.0
 11
-3.9999999999998153
 21
7.8999999999999773
 31
0.0
  0
ARC
  5
5DC
100
AcDbEntity
  8
0
  6
CONTINUOUS
 62
               4
100
AcDbCircle
 10
3.5000000000001847
 20
7.1999999999998181
 30
0.0
 40
0.5
100
AcDbArc
 50
269.99999999999937
 51
0.0
  0
LINE
  5
5DD
100
AcDbEntity
  8
0
  6
CONTINUOUS
 62
               4
100
AcDbLine
 10
4.0000000000001847
 20
7.1999999999998181
 30
0.0
 11
4.0000000000001847
 21
7.8999999999998636
 31
0.0
  0
LINE
  5
5DE
100
AcDbEntity
  8
0
  6
CONTINUOUS
 62
               4
100
AcDbLine
 10
3.5000000000001847
 20
6.6999999999998181
 30
0.0
 11
-3.4999999999998153
 21
6.6999999999998181
 31
0.0
  0
ARC
  5
5DF
100
AcDbEntity
  8
0
  6
CONTINUOUS
 62
               4
100
AcDbCircle
 10
6.6000000000002075
 20
16.399999999999864
 30
0.0
 40
0.5
100
AcDbArc
 50
269.99999999999937
 51
0.0
  0
ARC
  5
5E0
100
AcDbEntity
  8
0
  6
CONTINUOUS
 62
               4
100
AcDbCircle
 10
-6.5999999999997243
 20
16.399999999999864
 30
0.0
 40
0.5
100
AcDbArc
 50
179.99999999999963
 51
269.99999999999937
  0
LINE
  5
5E1
100
AcDbEntity
  8
0
  6
CONTINUOUS
 62
               4
100
AcDbLine
 10
-7.0999999999997243
 20
16.399999999999864
 30
0.0
 11
-7.0999999999997243
 21
17.999999994247673
 31
0.0
  0
ARC
  5
5E2
100
AcDbEntity
  8
0
  6
CONTINUOUS
 62
               4
100
AcDbCircle
 10
-8.7999999999998835
 20
8.3999999999998636
 30
0.0
 40
0.5
100
AcDbArc
 50
179.99999999999963
 51
269.99999999999937
  0
LINE
  5
5E3
100
AcDbEntity
  8
0
  6
CONTINUOUS
 62
               4
100
AcDbLine
 10
-9.2999999999998835
 20
8.4000000000000909
 30
0.0
 11
-9.2999999999996561
 21
18.700207536078892
 31
0.0
  0
ARC
  5
5E4
100
AcDbEntity
  8
0
  6
CONTINUOUS
 62
               4
100
AcDbCircle
 10
8.8000000000001393
 20
8.3999999999998636
 30
0.0
 40
0.5
100
AcDbArc
 50
269.99999999999937
 51
0.0
  0
LINE
  5
5E5
100
AcDbEntity
  8
0
  6
CONTINUOUS
 62
               4
100
AcDbLine
 10
8.8000000000001393
 20
7.8999999999998636
 30
0.0
 11
4.0000000000001847
 21
7.8999999999998636
 31
0.0
  0
LINE
  5
5E6
100
AcDbEntity
  8
0
  6
CONTINUOUS
 62
               4
100
AcDbLine
 10
6.6000000000002075
 20
15.899999999999864
 30
0.0
 11
-6.5999999999997243
 21
15.899999999999864
 31
0.0
  0
LINE
  5
5E7
100
AcDbEntity
  8
0
  6
CONTINUOUS
 62
               4
100
AcDbLine
 10
-10.699999999372423
 20
34.900000000001
 30
0.0
 11
-11.899999993412095
 21
34.900000000001
 31
0.0
  0
LINE
  5
5E8
100
AcDbEntity
  8
0
  6
CONTINUOUS
 62
               4
100
AcDbLine
 10
-10.69999999999952
 20
34.900000000001
 30
0.0
 11
-10.69999999999952
 21
38.100000000001046
 31
0.0
  0
LINE
  5
5E9
100
AcDbEntity
  8
0
  6
CONTINUOUS
 62
               4
100
AcDbLine
 10
2.0000000000005258
 20
33.499999999998636
 30
0.0
 11
2.0000000000004121
 21
26.499999999998636
 31
0.0
  0
LINE
  5
5EA
100
AcDbEntity
  8
0
  6
CONTINUOUS
 62
               4
100
AcDbLine
 10
8.0000000000005258
 20
33.499999999998522
 30
0.0
 11
8.0000000000004121
 21
26.499999999998522
 31
0.0
  0
LINE
  5
5EB
100
AcDbEntity
  8
0
  6
CONTINUOUS
 62
               4
100
AcDbLine
 10
-10.699999999372423
 20
38.100000000001046
 30
0.0
 11
-11.899999993412095
 21
38.100000000001046
 31
0.0
  0
ARC
  5
5EC
100
AcDbEntity
  8
0
  6
CONTINUOUS
 62
               4
100
AcDbCircle
 10
-10.899999999999338
 20
38.999999999998749
 30
0.0
 40
1.0
100
AcDbArc
 50
89.999999999999815
 51
179.99999999999963
  0
LINE
  5
5ED
100
AcDbEntity
  8
0
  6
CONTINUOUS
 62
               4
100
AcDbLine
 10
10.700000000000458
 20
34.900000000000773
 30
0.0
 11
10.700000000000571
 21
38.100000000000819
 31
0.0
  0
LINE
  5
5EE
100
AcDbEntity
  8
0
  6
CONTINUOUS
 62
               4
100
AcDbLine
 10
-10.899999999999338
 20
39.999999999998749
 30
0.0
 11
10.900000000000617
 21
39.999999999998522
 31
0.0
  0
ARC
  5
5EF
100
AcDbEntity
  8
0
  6
CONTINUOUS
 62
               4
100
AcDbCircle
 10
10.900000000000503
 20
38.999999999998408
 30
0.0
 40
1.0
100
AcDbArc
 50
359.99999999999847
 51
89.999999999998266
  0
LINE
  5
5F0
100
AcDbEntity
  8
0
  6
CONTINUOUS
 62
               4
100
AcDbLine
 10
10.699999999373588
 20
38.100000000000819
 30
0.0
 11
11.899999993413147
 21
38.100000000000705
 31
0.0
  0
LINE
  5
5F1
100
AcDbEntity
  8
0
  6
CONTINUOUS
 62
               4
100
AcDbLine
 10
10.699999999373588
 20
34.900000000000773
 30
0.0
 11
11.899999993413033
 21
34.900000000000659
 31
0.0
  0
ARC
  5
5F2
100
AcDbEntity
  8
0
  6
CONTINUOUS
 62
               4
100
AcDbCircle
 10
3.5171572868647019
 20
9.6999999999985675
 30
0.0
 40
0.2
100
AcDbArc
 50
269.99999999999937
 51
45.000000000000966
  0
ARC
  5
5F3
100
AcDbEntity
  8
0
  6
CONTINUOUS
 62
               4
100
AcDbCircle
 10
-3.5171572868644461
 20
9.6999999999985675
 30
0.0
 40
0.2
100
AcDbArc
 50
134.99999999999793
 51
269.99999999999937
  0
ARC
  5
5F4
100
AcDbEntity
  8
0
  6
CONTINUOUS
 62
               4
100
AcDbCircle
 10
0.0000000000001847
 20
13.217157286862971
 30
0.0
 40
0.2
100
AcDbArc
 50
44.99999999999919
 51
134.99999999999898
  0
LINE
  5
5F5
100
AcDbEntity
  8
0
  6
CONTINUOUS
 62
               4
100
AcDbLine
 10
0.1414213562374727
 20
13.358578643100259
 30
0.0
 11
3.6585786431019898
 21
9.8414213562358555
 31
0.0
  0
LINE
  5
5F6
100
AcDbEntity
  8
0
  6
CONTINUOUS
 62
               4
100
AcDbLine
 10
-0.1414213562371032
 20
13.358578643100259
 30
0.0
 11
-3.658578643101734
 21
9.8414213562358555
 31
0.0
  0
LINE
  5
5F7
100
AcDbEntity
  8
0
  6
CONTINUOUS
 62
               4
100
AcDbLine
 10
3.5171572868647019
 20
9.4999999999985221
 30
0.0
 11
-3.5171572868644461
 21
9.4999999999985221
 31
0.0
  0
LINE
  5
5F8
100
AcDbEntity
  8
0
  6
CONTINUOUS
 62
               4
100
AcDbLine
 10
-7.8999999999997925
 20
15.799999999998704
 30
0.0
 11
-7.8999999999996788
 21
17.899999999998613
 31
0.0
  0
LINE
  5
5F9
100
AcDbEntity
  8
0
  6
CONTINUOUS
 62
               4
100
AcDbLine
 10
-7.8999999999996788
 20
17.899999999998613
 30
0.0
 11
-9.2999999999996561
 21
17.899999999998613
 31
0.0
  0
ARC
  5
5FA
100
AcDbEntity
  8
0
  6
CONTINUOUS
 62
               4
100
AcDbCircle
 10
-8.7999999999998835
 20
8.4999999999985221
 30
0.0
 40
0.5
100
AcDbArc
 50
179.99999999999963
 51
269.99999999999937
  0
LINE
  5
5FB
100
AcDbEntity
  8
0
  6
CONTINUOUS
 62
               4
100
AcDbLine
 10
8.8000000000001393
 20
7.9999999999985221
 30
0.0
 11
-8.7999999999998835
 21
7.9999999999985221
 31
0.0
  0
ARC
  5
5FC
100
AcDbEntity
  8
0
  6
CONTINUOUS
 62
               4
100
AcDbCircle
 10
8.8000000000001393
 20
8.4999999999982947
 30
0.0
 40
0.5
100
AcDbArc
 50
269.9999999999979
 51
359.99999999999767
  0
LINE
  5
5FD
100
AcDbEntity
  8
0
  6
CONTINUOUS
 62
               4
100
AcDbLine
 10
7.9000000000002757
 20
15.799999999998704
 30
0.0
 11
7.9000000000002757
 21
17.899999999998158
 31
0.0
  0
LINE
  5
5FE
100
AcDbEntity
  8
0
  6
CONTINUOUS
 62
               4
100
AcDbLine
 10
7.9000000000002757
 20
17.899999999998158
 30
0.0
 11
9.300000000000253
 21
17.899999999998158
 31
0.0
  0
LINE
  5
5FF
100
AcDbEntity
  8
0
  6
CONTINUOUS
 62
               4
100
AcDbLine
 10
9.300000000000221
 20
15.799999999998704
 30
0.0
 11
-9.2999999999997698
 21
15.799999999998704
 31
0.0
  0
LINE
  5
600
100
AcDbEntity
  8
0
  6
DASHED
 62
               2
100
AcDbLine
 10
-11.900000000003544
 20
0.0
 30
0.0
 11
11.89999999999857
 21
0.0
 31
0.0
  0
LINE
  5
601
100
AcDbEntity
  8
0
  6
CENTER
 62
             200
100
AcDbLine
 10
-0.0000000000000426
 20
-4.9708179906839405
 30
0.0
 11
0.0000000000005258
 21
60.661108033213281
 31
0.0
  0
LINE
  5
602
100
AcDbEntity
  8
0
  6
CONTINUOUS
 62
               4
100
AcDbLine
 10
11.89999999999857
 20
0.0
 30
0.0
 11
11.900000000018238
 21
38.999999991078425
 31
0.0
  0
LINE
  5
603
100
AcDbEntity
  8
0
  6
CONTINUOUS
 62
               4
100
AcDbLine
 10
-11.899999999981489
 20
39.000000000006821
 30
0.0
 11
-11.900000000003544
 21
0.0
 31
0.0
  0
LINE
  5
604
100
AcDbEntity
  8
0
  6
CENTER
 62
             200
100
AcDbLine
 10
-10.280775623268184
 20
50.49999999997226
 30
0.0
 11
10.493518005540707
 21
50.49999999997226
 31
0.0
  0
LINE
  5
605
100
AcDbEntity
  8
0
  6
CONTINUOUS
 62
               4
100
AcDbLine
 10
7.0000000000005258
 20
46.99999999997226
 30
0.0
 11
6.4951905283838443
 21
46.99999999997226
 31
0.0
  0
LINE
  5
606
100
AcDbEntity
  8
0
  6
CONTINUOUS
 62
               4
100
AcDbLine
 10
7.0000000000005258
 20
46.99999999997226
 30
0.0
 11
7.0000000000005258
 21
53.99999999997226
 31
0.0
  0
LINE
  5
607
100
AcDbEntity
  8
0
  6
CONTINUOUS
 62
               4
100
AcDbLine
 10
7.0000000000005258
 20
53.99999999997226
 30
0.0
 11
6.4951905283838443
 21
53.99999999997226
 31
0.0
  0
LINE
  5
608
100
AcDbEntity
  8
0
  6
CONTINUOUS
 62
               4
100
AcDbLine
 10
-6.9999999999994742
 20
46.99999999997226
 30
0.0
 11
-6.4951905283827926
 21
46.99999999997226
 31
0.0
  0
LINE
  5
609
100
AcDbEntity
  8
0
  6
CONTINUOUS
 62
               4
100
AcDbLine
 10
-6.9999999999994742
 20
53.99999999997226
 30
0.0
 11
-6.4951905283827926
 21
53.99999999997226
 31
0.0
  0
LINE
  5
60A
100
AcDbEntity
  8
0
  6
CONTINUOUS
 62
               4
100
AcDbLine
 10
-6.9999999999994742
 20
46.99999999997226
 30
0.0
 11
-6.9999999999994742
 21
53.99999999997226
 31
0.0
  0
CIRCLE
  5
60B
100
AcDbEntity
  8
0
  6
CONTINUOUS
 62
               4
100
AcDbCircle
 10
0.0000000000005258
 20
50.49999999997226
 30
0.0
 40
3.5
  0
ARC
  5
60C
100
AcDbEntity
  8
0
  6
CONTINUOUS
 62
               4
100
AcDbCircle
 10
7.2500000000005258
 20
54.99999999997226
 30
0.0
 40
0.5
100
AcDbArc
 50
0.0
 51
89.999999999999815
  0
ARC
  5
60D
100
AcDbEntity
  8
0
  6
CONTINUOUS
 62
               4
100
AcDbCircle
 10
-7.2499999999994742
 20
54.99999999997226
 30
0.0
 40
0.5
100
AcDbArc
 50
89.999999999999815
 51
179.99999999999963
  0
LINE
  5
60E
100
AcDbEntity
  8
0
  6
CONTINUOUS
 62
               4
100
AcDbLine
 10
4.8989794855670681
 20
55.49999999997226
 30
0.0
 11
7.2500000000005258
 21
55.49999999997226
 31
0.0
  0
ARC
  5
60F
100
AcDbEntity
  8
0
  6
CONTINUOUS
 62
               4
100
AcDbCircle
 10
0.0000000000005258
 20
50.49999999997226
 30
0.0
 40
7.0
100
AcDbArc
 50
38.107391093313929
 51
81.892608906685837
  0
ARC
  5
610
100
AcDbEntity
  8
0
  6
CONTINUOUS
 62
               4
100
AcDbCircle
 10
0.0000000000005258
 20
50.49999999997226
 30
0.0
 40
7.0
100
AcDbArc
 50
338.10739109331331
 51
21.892608906685858
  0
ARC
  5
611
100
AcDbEntity
  8
0
  6
CONTINUOUS
 62
               4
100
AcDbCircle
 10
0.0000000000005258
 20
50.49999999997226
 30
0.0
 40
7.0
100
AcDbArc
 50
278.10739109331342
 51
321.89260890668527
  0
ARC
  5
612
100
AcDbEntity
  8
0
  6
CONTINUOUS
 62
               4
100
AcDbCircle
 10
0.0000000000005258
 20
50.49999999997226
 30
0.0
 40
7.0
100
AcDbArc
 50
218.10739109331354
 51
261.89260890668538
  0
ARC
  5
613
100
AcDbEntity
  8
0
  6
CONTINUOUS
 62
               4
100
AcDbCircle
 10
0.0000000000005258
 20
50.49999999997226
 30
0.0
 40
7.0
100
AcDbArc
 50
158.10739109331371
 51
201.89260890668552
  0
ARC
  5
614
100
AcDbEntity
  8
0
  6
CONTINUOUS
 62
               4
100
AcDbCircle
 10
0.0000000000005258
 20
50.49999999997226
 30
0.0
 40
7.0
100
AcDbArc
 50
98.107391093313822
 51
141.89260890668567
  0
LINE
  5
615
100
AcDbEntity
  8
0
  6
CONTINUOUS
 62
               4
100
AcDbLine
 10
-7.2499999999994742
 20
55.49999999997226
 30
0.0
 11
-4.8989794855657891
 21
55.49999999997226
 31
0.0
  0
ARC
  5
616
100
AcDbEntity
  8
0
  6
CONTINUOUS
 62
               4
100
AcDbCircle
 10
0.0000000000005258
 20
50.49999999997226
 30
0.0
 40
6.5
100
AcDbArc
 50
225.8533523675616
 51
254.14664763243732
  0
ARC
  5
617
100
AcDbEntity
  8
0
  6
CONTINUOUS
 62
               4
100
AcDbCircle
 10
0.0000000000005258
 20
50.49999999997226
 30
0.0
 40
6.5
100
AcDbArc
 50
285.85335236756146
 51
314.14664763243718
  0
ARC
  5
618
100
AcDbEntity
  8
0
  6
CONTINUOUS
 62
               4
100
AcDbCircle
 10
0.0000000000005258
 20
50.49999999997226
 30
0.0
 40
6.5
100
AcDbArc
 50
345.85335236756129
 51
14.146647632437864
  0
ARC
  5
619
100
AcDbEntity
  8
0
  6
CONTINUOUS
 62
               4
100
AcDbCircle
 10
0.0000000000005258
 20
50.49999999997226
 30
0.0
 40
6.5
100
AcDbArc
 50
45.853352367561996
 51
74.146647632437677
  0
ARC
  5
61A
100
AcDbEntity
  8
0
  6
CONTINUOUS
 62
               4
100
AcDbCircle
 10
0.0000000000005258
 20
50.49999999997226
 30
0.0
 40
6.5
100
AcDbArc
 50
105.85335236756191
 51
134.14664763243758
  0
LINE
  5
61B
100
AcDbEntity
  8
0
  6
CONTINUOUS
 62
               4
100
AcDbLine
 10
-4.7631397208137258
 20
55.24999999997226
 30
0.0
 11
-4.5272320069556571
 21
55.164136614094105
 31
0.0
  0
LINE
  5
61C
100
AcDbEntity
  8
0
  6
CONTINUOUS
 62
               4
100
AcDbLine
 10
-6.4951905283827926
 20
52.24999999997226
 30
0.0
 11
-6.3028767980280662
 21
52.088629619761377
 31
0.0
  0
LINE
  5
61D
100
AcDbEntity
  8
0
  6
CONTINUOUS
 62
               4
100
AcDbLine
 10
-6.4951905283827926
 20
48.74999999997226
 30
0.0
 11
-6.3028767980280662
 21
48.911370380183143
 31
0.0
  0
LINE
  5
61E
100
AcDbEntity
  8
0
  6
CONTINUOUS
 62
               4
100
AcDbLine
 10
-4.7631397208137258
 20
45.74999999997226
 30
0.0
 11
-4.5272320069556571
 21
45.835863385850416
 31
0.0
  0
LINE
  5
61F
100
AcDbEntity
  8
0
  6
CONTINUOUS
 62
               4
100
AcDbLine
 10
-1.7320508075683136
 20
43.99999999997226
 30
0.0
 11
-1.7756447910718833
 21
44.247233766061299
 31
0.0
  0
LINE
  5
620
100
AcDbEntity
  8
0
  6
CONTINUOUS
 62
               4
100
AcDbLine
 10
1.7320508075695926
 20
43.99999999997226
 30
0.0
 11
1.7756447910731623
 21
44.247233766061299
 31
0.0
  0
LINE
  5
621
100
AcDbEntity
  8
0
  6
CONTINUOUS
 62
               4
100
AcDbLine
 10
4.7631397208150048
 20
45.74999999997226
 30
0.0
 11
4.5272320069567087
 21
45.835863385850416
 31
0.0
  0
LINE
  5
622
100
AcDbEntity
  8
0
  6
CONTINUOUS
 62
               4
100
AcDbLine
 10
6.4951905283838443
 20
48.74999999997226
 30
0.0
 11
6.3028767980293452
 21
48.911370380183143
 31
0.0
  0
LINE
  5
623
100
AcDbEntity
  8
0
  6
CONTINUOUS
 62
               4
100
AcDbLine
 10
6.4951905283838443
 20
52.24999999997226
 30
0.0
 11
6.3028767980293452
 21
52.088629619761377
 31
0.0
  0
LINE
  5
624
100
AcDbEntity
  8
0
  6
CONTINUOUS
 62
               4
100
AcDbLine
 10
4.7631397208150048
 20
55.24999999997226
 30
0.0
 11
4.5272320069567087
 21
55.164136614094105
 31
0.0
  0
LINE
  5
625
100
AcDbEntity
  8
0
  6
CONTINUOUS
 62
               4
100
AcDbLine
 10
1.7320508075695926
 20
56.99999999997226
 30
0.0
 11
1.7756447910731623
 21
56.752766233883222
 31
0.0
  0
LINE
  5
626
100
AcDbEntity
  8
0
  6
CONTINUOUS
 62
               4
100
AcDbLine
 10
-1.7320508075683136
 20
56.99999999997226
 30
0.0
 11
-1.7756447910718833
 21
56.752766233883222
 31
0.0
  0
ARC
  5
627
100
AcDbEntity
  8
0
  6
CONTINUOUS
 62
               4
100
AcDbCircle
 10
0.0000000000005258
 20
50.49999999997226
 30
0.0
 40
6.5
100
AcDbArc
 50
165.85335236756171
 51
194.14664763243749
  0
LINE
  5
628
100
AcDbEntity
  8
0
  6
CONTINUOUS
 62
               4
100
AcDbLine
 10
-6.4951905283827926
 20
54.24999999997226
 30
0.0
 11
-4.7631397208137258
 21
55.24999999997226
 31
0.0
  0
LINE
  5
629
100
AcDbEntity
  8
0
  6
CONTINUOUS
 62
               4
100
AcDbLine
 10
-6.4951905283827926
 20
54.24999999997226
 30
0.0
 11
-6.4951905283827926
 21
52.24999999997226
 31
0.0
  0
LINE
  5
62A
100
AcDbEntity
  8
0
  6
CONTINUOUS
 62
               4
100
AcDbLine
 10
-6.4951905283827926
 20
46.74999999997226
 30
0.0
 11
-6.4951905283827926
 21
48.74999999997226
 31
0.0
  0
LINE
  5
62B
100
AcDbEntity
  8
0
  6
CONTINUOUS
 62
               4
100
AcDbLine
 10
-6.4951905283827926
 20
46.74999999997226
 30
0.0
 11
-4.7631397208137258
 21
45.74999999997226
 31
0.0
  0
LINE
  5
62C
100
AcDbEntity
  8
0
  6
CONTINUOUS
 62
               4
100
AcDbLine
 10
0.0000000000005258
 20
42.99999999997226
 30
0.0
 11
-1.7320508075683136
 21
43.99999999997226
 31
0.0
  0
LINE
  5
62D
100
AcDbEntity
  8
0
  6
CONTINUOUS
 62
               4
100
AcDbLine
 10
0.0000000000005258
 20
42.99999999997226
 30
0.0
 11
1.7320508075695926
 21
43.99999999997226
 31
0.0
  0
LINE
  5
62E
100
AcDbEntity
  8
0
  6
CONTINUOUS
 62
               4
100
AcDbLine
 10
6.4951905283838443
 20
46.74999999997226
 30
0.0
 11
4.7631397208150048
 21
45.74999999997226
 31
0.0
  0
LINE
  5
62F
100
AcDbEntity
  8
0
  6
CONTINUOUS
 62
               4
100
AcDbLine
 10
6.4951905283838443
 20
46.74999999997226
 30
0.0
 11
6.4951905283838443
 21
48.74999999997226
 31
0.0
  0
LINE
  5
630
100
AcDbEntity
  8
0
  6
CONTINUOUS
 62
               4
100
AcDbLine
 10
6.4951905283838443
 20
54.24999999997226
 30
0.0
 11
6.4951905283838443
 21
52.24999999997226
 31
0.0
  0
LINE
  5
631
100
AcDbEntity
  8
0
  6
CONTINUOUS
 62
               4
100
AcDbLine
 10
6.4951905283838443
 20
54.24999999997226
 30
0.0
 11
4.7631397208150048
 21
55.24999999997226
 31
0.0
  0
LINE
  5
632
100
AcDbEntity
  8
0
  6
CONTINUOUS
 62
               4
100
AcDbLine
 10
0.0000000000005258
 20
57.99999999997226
 30
0.0
 11
-1.7320508075683136
 21
56.99999999997226
 31
0.0
  0
LINE
  5
633
100
AcDbEntity
  8
0
  6
CONTINUOUS
 62
               4
100
AcDbLine
 10
0.0000000000005258
 20
57.99999999997226
 30
0.0
 11
1.7320508075695926
 21
56.99999999997226
 31
0.0
  0
LINE
  5
634
100
AcDbEntity
  8
0
  6
CONTINUOUS
 62
               4
100
AcDbLine
 10
-7.7499999999994742
 20
39.999999999998636
 30
0.0
 11
-7.7499999999994742
 21
54.99999999997226
 31
0.0
  0
LINE
  5
635
100
AcDbEntity
  8
0
  6
CONTINUOUS
 62
               4
100
AcDbLine
 10
7.7500000000005258
 20
39.999999999998408
 30
0.0
 11
7.7500000000005258
 21
54.99999999997226
 31
0.0
  0
ENDBLK
  5
636
100
AcDbEntity
  8
0
100
AcDbBlockEnd
  0
BLOCK
  5
65D
100
AcDbEntity
  8
0
  6
ByBlock
 62
               0
100
AcDbBlockBegin
  2
_OPEN30
 70
               2
 10
0.0
 20
0.0
 30
0.0
  3
_OPEN30
  1

  0
LINE
  5
65E
100
AcDbEntity
  8
0
  6
ByBlock
 62
               0
100
AcDbLine
 10
-1.0
 20
0.267949
 30
0.0
 11
0.0
 21
0.0
 31
0.0
  0
LINE
  5
65F
100
AcDbEntity
  8
0
  6
ByBlock
 62
               0
100
AcDbLine
 10
0.0
 20
0.0
 30
0.0
 11
-1.0
 21
-0.267949
 31
0.0
  0
LINE
  5
660
100
AcDbEntity
  8
0
  6
ByBlock
 62
               0
100
AcDbLine
 10
0.0
 20
0.0
 30
0.0
 11
-1.0
 21
0.0
 31
0.0
  0
ENDBLK
  5
661
100
AcDbEntity
  8
0
  6
ByBlock
 62
               0
100
AcDbBlockEnd
  0
ENDSEC
  0
SECTION
  2
ENTITIES
  0
INSERT
  5
637
100
AcDbEntity
  8
0
  6
ByBlock
100
AcDbBlockReference
  2
PA24A6-1
 10
-216.26245117187753
 20
44.231942883538238
 30
0.0
  0
INSERT
  5
638
100
AcDbEntity
  8
0
  6
ByBlock
100
AcDbBlockReference
  2
PA24A6-7
 10
-340.56245117187723
 20
44.231942883538238
 30
0.0
  0
INSERT
  5
639
100
AcDbEntity
  8
0
  6
ByBlock
100
AcDbBlockReference
  2
PA24A6-8
 10
-56.562451171877314
 20
44.231942883538238
 30
0.0
  0
INSERT
  5
63A
100
AcDbEntity
  8
0
  6
ByBlock
100
AcDbBlockReference
  2
PA24A6-9
 10
-216.26245117187753
 20
-76.37387066244338
 30
0.0
  0
INSERT
  5
63B
100
AcDbEntity
  8
0
  6
ByBlock
100
AcDbBlockReference
  2
PA24A6-10
 10
183.26245117187247
 20
44.231942883538267
 30
0.0
  0
INSERT
  5
63C
100
AcDbEntity
  8
0
  6
ByBlock
100
AcDbBlockReference
  2
PA24A6-11
 10
50.962451171882748
 20
44.231942883538267
 30
0.0
  0
INSERT
  5
63D
100
AcDbEntity
  8
0
  6
ByBlock
100
AcDbBlockReference
  2
PA24A6-12
 10
340.96245117188266
 20
44.231942883538267
 30
0.0
  0
INSERT
  5
63E
100
AcDbEntity
  8
0
  6
ByBlock
100
AcDbBlockReference
  2
PA24A6-13
 10
183.26245117187247
 20
-84.373870662443352
 30
0.0
  0
INSERT
  5
63F
100
AcDbEntity
  8
0
  6
ByBlock
100
AcDbBlockReference
  2
PA24A6-14
 10
-86.331235660298901
 20
-203.49999999999983
 30
0.0
  0
INSERT
  5
640
100
AcDbEntity
  8
0
  6
ByBlock
100
AcDbBlockReference
  2
PA24A6-2
 10
-195.83637472814257
 20
-203.50000000000017
 30
0.0
 50
359.99999999999869
  0
INSERT
  5
641
100
AcDbEntity
  8
0
  6
ByBlock
100
AcDbBlockReference
  2
PA24A6-3
 10
-281.4979083083158
 20
-203.5
 30
0.0
  0
INSERT
  5
642
100
AcDbEntity
  8
0
  6
ByBlock
100
AcDbBlockReference
  2
PA24A6-6
 10
211.83190131077333
 20
-203.50000000000034
 30
0.0
 50
359.99999999999869
  0
INSERT
  5
643
100
AcDbEntity
  8
0
  6
ByBlock
100
AcDbBlockReference
  2
PA24A6-5
 10
313.69589922977605
 20
-203.50000000000017
 30
0.0
  0
INSERT
  5
644
100
AcDbEntity
  8
0
  6
ByBlock
100
AcDbBlockReference
  2
PA24A6-4
 10
62.755732950831387
 20
-203.50000000000037
 30
0.0
 50
359.99999999999869
  0
LINE
  5
645
100
AcDbEntity
  8
0
  6
CONTINUOUS
 62
               7
100
AcDbLine
 10
399.52490234375
 20
276.5
 30
0.0
 11
399.52490234375
 21
-276.5
 31
0.0
  0
LINE
  5
646
100
AcDbEntity
  8
0
  6
CONTINUOUS
 62
               7
100
AcDbLine
 10
-399.52490234375
 20
276.5
 30
0.0
 11
-399.52490234375
 21
-276.5
 31
0.0
  0
LINE
  5
647
100
AcDbEntity
  8
0
  6
CONTINUOUS
 62
               7
100
AcDbLine
 10
-399.52490234375
 20
276.5
 30
0.0
 11
399.52490234375
 21
276.5
 31
0.0
  0
LINE
  5
648
100
AcDbEntity
  8
0
  6
CONTINUOUS
 62
               7
100
AcDbLine
 10
-399.52490234375
 20
-276.5
 30
0.0
 11
399.52490234375
 21
-276.5
 31
0.0
  0
MTEXT
  5
649
100
AcDbEntity
  8
0
  6
CONTINUOUS
 62
               7
100
AcDbMText
 10
-376.20656023800552
 20
266.5
 30
0.0
 40
6.3000001907348633
 41
0.0
 71
               4
 72
               1
  1
\W1.065;\A1;PA/PB SERIES
  0
LINE
  5
64A
100
AcDbEntity
  8
0
  6
CONTINUOUS
 62
               7
100
AcDbLine
 10
-279.52490234375
 20
276.5
 30
0.0
 11
-279.52490234375
 21
256.5
 31
0.0
  0
LINE
  5
64B
100
AcDbEntity
  8
0
  6
CONTINUOUS
 62
               7
100
AcDbLine
 10
-399.52490234375
 20
256.5
 30
0.0
 11
-279.52490234375
 21
256.5
 31
0.0
  0
LINE
  5
64C
100
AcDbEntity
  8
0
  6
CONTINUOUS
 62
               7
100
AcDbLine
 10
279.5250244140625
 20
276.5
 30
0.0
 11
279.5250244140625
 21
256.5
 31
0.0
  0
LINE
  5
64D
100
AcDbEntity
  8
0
  6
CONTINUOUS
 62
               7
100
AcDbLine
 10
279.5250244140625
 20
256.5
 30
0.0
 11
399.52490234375
 21
256.5
 31
0.0
  0
MTEXT
  5
64E
100
AcDbEntity
  8
0
  6
CONTINUOUS
 62
               7
100
AcDbMText
 10
315.70207289592116
 20
266.5
 30
0.0
 40
6.3000001907348633
 41
0.0
 71
               4
 72
               1
  1
\W1.311;\A1;Ver. 1.0
  0
MTEXT
  5
64F
100
AcDbEntity
  8
0
  6
CONTINUOUS
 62
               7
100
AcDbMText
 10
287.70604688092931
 20
-266.5
 30
0.0
 40
9.0
 41
0.0
 71
               4
 72
               1
  1
\W1.121;\A1;KOGANEI CORP.
  0
LINE
  5
650
100
AcDbEntity
  8
0
  6
CONTINUOUS
 62
               7
100
AcDbLine
 10
279.5250244140625
 20
-256.5
 30
0.0
 11
279.5250244140625
 21
-276.5
 31
0.0
  0
LINE
  5
651
100
AcDbEntity
  8
0
  6
CONTINUOUS
 62
               7
100
AcDbLine
 10
279.5250244140625
 20
-256.5
 30
0.0
 11
399.52490234375
 21
-256.5
 31
0.0
  0
LINE
  5
652
100
AcDbEntity
  8
0
  6
CONTINUOUS
 62
               7
100
AcDbLine
 10
155.0
 20
-121.5
 30
0.0
 11
155.0
 21
-276.5
 31
0.0
  0
MTEXT
  5
653
100
AcDbEntity
  8
0
  6
CONTINUOUS
 62
               7
100
AcDbMText
 10
-348.76963237169673
 20
231.5
 30
0.0
 40
6.3000001907348633
 41
0.0
 71
               4
 72
               1
  1
\W1.053;\A1;PA24HA6-02(03)-25-G2
  0
MTEXT
  5
654
100
AcDbEntity
  8
0
  6
CONTINUOUS
 62
               7
100
AcDbMText
 10
-386.79018480252648
 20
241.5
 30
0.0
 40
6.3000001907348633
 41
0.0
 71
               4
 72
               1
  1
\W1.033;\A1;MODEL：PA24A6-02(03)-25-G2
  0
MTEXT
  5
655
100
AcDbEntity
  8
0
  6
CONTINUOUS
 62
               4
100
AcDbMText
 10
-378.45823566118878
 20
-133.67304623923027
 30
0.0
 40
6.4000000953674316
 41
0.0
 71
               1
 72
               1
  1
\A1;-39
  0
MTEXT
  5
656
100
AcDbEntity
  8
0
  6
CONTINUOUS
 62
               4
100
AcDbMText
 10
180.51656901041667
 20
-133.67304623923025
 30
0.0
 40
6.4000000953674316
 41
0.0
 71
               1
 72
               1
  1
\W1.125;\A1;-G1
  0
MTEXT
  5
657
100
AcDbEntity
  8
0
  6
CONTINUOUS
 62
               4
100
AcDbMText
 10
21.066666682561237
 20
-133.67304623923027
 30
0.0
 40
6.4000000953674316
 41
0.0
 71
               1
 72
               1
  1
\A1;-G3
  0
MTEXT
  5
658
100
AcDbEntity
  8
0
  6
CONTINUOUS
 62
               7
100
AcDbMText
 10
50.711059466488237
 20
231.5
 30
0.0
 40
6.3000001907348633
 41
0.0
 71
               4
 72
               1
  1
\W1.011;\A1;PA24HA6-04-25-G2
  0
MTEXT
  5
659
100
AcDbEntity
  8
0
  6
CONTINUOUS
 62
               7
100
AcDbMText
 10
12.698342790381885
 20
241.5
 30
0.0
 40
6.3000001907348633
 41
0.0
 71
               4
 72
               1
  1
\W0.998;\A1;MODEL：PA24A6-04-25-G2
  0
LINE
  5
65A
100
AcDbEntity
  8
0
  6
CONTINUOUS
 62
               7
100
AcDbLine
 10
0.0
 20
276.5
 30
0.0
 11
0.0
 21
-276.5
 31
0.0
  0
MTEXT
  5
65B
100
AcDbEntity
  8
0
  6
CONTINUOUS
 62
               2
100
AcDbMText
 10
-313.92940004628309
 20
23.185001289002628
 30
0.0
 40
6.3000001907348633
 41
0.0
 71
               4
 72
               1
  1
\W1.077;\A1;5-Rc1/4(Rc3/8)
  0
LEADER
  5
662
100
AcDbEntity
  8
0
  6
CONTINUOUS
 62
               2
100
AcDbLeader
  3
MXDIMSTYLE
 73
               3
 74
               0
 75
               0
 40
0.0
 76
               3
 10
-325.16401497331822
 20
54.286031450524533
 30
0.0
 10
-313.92940004216553
 20
17.066251670472354
 30
0.0
 10
-225.72939737187744
 20
17.066251670472354
 30
0.0
 77
               2
1001
ACAD
1000
DSTYLE
1002
{
1070
               6
1000
_OPEN30
1070
               7
1000
_OPEN30
1070
              41
1040
2.77
1070
             173
1070
               1
1070
             341
1005
65C
1002
}
  0
MTEXT
  5
663
100
AcDbEntity
  8
0
  6
CONTINUOUS
 62
               2
100
AcDbMText
 10
92.373730915472308
 20
19.261992638861898
 30
0.0
 40
6.3000001907348633
 41
0.0
 71
               4
 72
               1
  1
\W1.050;\A1;5-Rc1/2
  0
LEADER
  5
664
100
AcDbEntity
  8
0
  6
CONTINUOUS
 62
               2
100
AcDbLeader
  3
MXDIMSTYLE
 73
               3
 74
               0
 75
               0
 40
0.0
 76
               3
 10
72.352207700568954
 20
51.718371321351071
 30
0.0
 10
90.15156099259147
 20
13.143243020331624
 30
0.0
 10
136.47373220383415
 20
13.143243020331624
 30
0.0
 77
               2
1001
ACAD
1000
DSTYLE
1002
{
1070
               6
1000
_OPEN30
1070
               7
1000
_OPEN30
1070
              41
1040
2.77
1070
             173
1070
               1
1070
             341
1005
65C
1002
}
  0
LINE
  5
665
100
AcDbEntity
  8
0
  6
CONTINUOUS
 62
               7
100
AcDbLine
 10
-399.52490234375
 20
-121.5
 30
0.0
 11
399.52490234375
 21
-121.5
 31
0.0
  0
ENDSEC
  0
SECTION
  2
OBJECTS
  0
DICTIONARY
  5
19
100
AcDbDictionary
  3
ACAD_GROUP
350
1A
  3
ACAD_MLINESTYLE
350
1B
  0
DICTIONARY
  5
1A
102
{ACAD_REACTORS
330
19
102
}
100
AcDbDictionary
  0
DICTIONARY
  5
1B
102
{ACAD_REACTORS
330
19
102
}
100
AcDbDictionary
  3
STANDARD
350
1C
  0
MLINESTYLE
  5
1C
102
{ACAD_REACTORS
330
1B
102
}
100
AcDbMlineStyle
  2
Standard
 70
               0
  3

 62
               0
 51
90.0
 52
90.0
 71
               2
 49
0.5
 62
             256
  6
ByLayer
 49
-0.5
 62
             256
  6
ByLayer
  0
ENDSEC
  0
EOF
