  0
SECTION
  2
HEADER
  9
$ACADVER
  1
AC1003
  9
$EXTMIN
 10
-5.64500000E+02
 20
-4.00500000E+02
  9
$EXTMAX
 10
5.74500000E+02
 20
4.00500000E+02
  9
$LIMMIN
 10
-5.64501000E+02
 20
-4.00501000E+02
  9
$LIMMAX
 10
5.74501000E+02
 20
4.00501000E+02
  9
$SNAPUNIT
 10
1
 20
1
  9
$SNAPBASE
 10
0
 20
0
  9
$GRIDMODE
 70
0
  9
$GRIDUNIT
 10
0
 20
0
  9
$LTSCALE
 40
1.89833333E+01
  9
$TEXTSIZE
 40
3.2
  9
$DIMTAD
 70
0
  9
$LUNITS
 70
2
  9
$LUPREC
 70
4
  9
$FILLETRAD
 40
0
  9
$AUNITS
 70
0
  9
$AUPREC
 70
0
  0
ENDSEC
  0
SECTION
  2
TABLES
  0
TABLE
  2
LTYPE
 70
2
  0
LTYPE
  2
CONTINUOUS
 70
64
  3
Solid-Line
 72
65
 73
0
 40
0
  0
LTYPE
  2
DASHED
 70
64
  3
DASHED
 72
65
 73
2
 40
.75
 49
.5
 49
-.25
  0
LTYPE
  2
HIDDEN
 70
64
  3
HIDDEN
 72
65
 73
2
 40
.375
 49
.25
 49
-.125
  0
LTYPE
  2
CENTER
 70
64
  3
CENTER
 72
65
 73
4
 40
2
 49
1.25
 49
-.25
 49
.25
 49
-.25
  0
LTYPE
  2
PHANTOM
 70
64
  3
PHANTOM
 72
65
 73
6
 40
2.5
 49
1.25
 49
-.25
 49
.25
 49
-.25
 49
.25
 49
-.25
  0
ENDTAB
  0
TABLE
  2
LAYER
 70
1
  0
LAYER
  2
0
 70
0
 62
3
  6
CONTINUOUS
 0
ENDTAB
  0
TABLE
  2
STYLE
 70
2
  0
STYLE
  2
MONOTXT
 70
0
 40
0
 41
1
 50
0
 71
0
 42
.2
  3
monotxt
  0
STYLE
  2
BIGFONT
 70
0
 40
0
 41
1
 50
0
 71
0
 42
.2
  3
txt
  4
bigfont
  0
ENDTAB
  0
ENDSEC
  0
SECTION
  2
ENTITIES
  0
LINE
  8
0
  6
CENTER
 62
2
 10
-3.56421931E+02
 20
1.61269122E+02
 11
-3.56421931E+02
 21
7.23902204E+01
  0
LINE
  8
0
  6
PHANTOM
 10
-2.36921931E+02
 20
1.11690220E+02
 11
-2.36921931E+02
 21
1.62321975E+02
  0
LINE
  8
0
  6
PHANTOM
 10
-2.96671931E+02
 20
1.11690220E+02
 11
-2.96671931E+02
 21
7.23902204E+01
  0
LINE
  8
0
  6
PHANTOM
 10
-2.96671931E+02
 20
1.11690220E+02
 11
-2.36921931E+02
 21
1.11690220E+02
  0
LINE
  8
0
 62
7
 10
-4.63421931E+02
 20
1.07990219E+02
 11
-1.49421931E+02
 21
1.07990219E+02
  0
LINE
  8
0
 62
7
 10
-4.63421931E+02
 20
8.83902204E+01
 11
-1.49421931E+02
 21
8.83902204E+01
  0
LINE
  8
0
 62
7
 10
-4.36421931E+02
 20
1.23140220E+02
 11
-1.76421931E+02
 21
1.23140220E+02
  0
LINE
  8
0
 62
7
 10
-4.52047968E+02
 20
1.28658172E+02
 11
-1.60795893E+02
 21
1.28658172E+02
  0
LINE
  8
0
 62
7
 10
-4.94421931E+02
 20
7.73902204E+01
 11
-1.18421931E+02
 21
7.73902204E+01
  0
CIRCLE
  8
0
 62
7
 10
-4.80421931E+02
 20
1.00390220E+02
 40
1.00000000E+01
  0
CIRCLE
  8
0
 62
7
 10
-4.83921931E+02
 20
1.00390220E+02
 40
3.00000000E+00
  0
ARC
  8
0
 62
7
 10
-4.80421931E+02
 20
1.00390220E+02
 40
1.30000000E+01
 50
3.60000000E+02
 51
2.69577629E+01
  0
ARC
  8
0
 62
7
 10
-4.65421931E+02
 20
1.00390220E+02
 40
2.00000000E+00
 50
1.79999991E+02
 51
2.70000000E+02
  0
ARC
  8
0
 62
7
 10
-4.67051814E+02
 20
1.07190223E+02
 40
2.00000000E+00
 50
9.00000002E+01
 51
2.06957764E+02
  0
CIRCLE
  8
0
 62
7
 10
-4.80421931E+02
 20
1.00390220E+02
 40
7.25000000E+00
  0
CIRCLE
  8
0
 62
2
 10
-4.80421931E+02
 20
1.00390220E+02
 40
8.25000000E+00
  0
CIRCLE
  8
0
 62
2
 10
-1.32421931E+02
 20
1.00390220E+02
 40
8.25000000E+00
  0
CIRCLE
  8
0
 62
7
 10
-1.32421931E+02
 20
1.00390220E+02
 40
7.25000000E+00
  0
ARC
  8
0
 62
7
 10
-4.50921931E+02
 20
1.30890220E+02
 40
2.50000000E+00
 50
1.79999991E+02
 51
2.70000000E+02
  0
ARC
  8
0
 62
7
 10
-4.55921931E+02
 20
1.42890220E+02
 40
2.50000000E+00
 50
3.59999995E+02
 51
9.00000002E+01
  0
ARC
  8
0
 62
7
 10
-1.56921931E+02
 20
1.42890220E+02
 40
2.50000000E+00
 50
9.00000002E+01
 51
1.80000005E+02
  0
ARC
  8
0
 62
7
 10
-1.61921931E+02
 20
1.30890220E+02
 40
2.50000000E+00
 50
2.70000000E+02
 51
8.65142206E-06
  0
ARC
  8
0
 62
7
 10
-1.45792048E+02
 20
1.07190223E+02
 40
2.00000000E+00
 50
3.33042236E+02
 51
9.00000002E+01
  0
ARC
  8
0
 62
7
 10
-1.47421931E+02
 20
1.00390220E+02
 40
2.00000000E+00
 50
2.70000000E+02
 51
8.65142224E-06
  0
ARC
  8
0
 62
7
 10
-1.32421931E+02
 20
1.00390220E+02
 40
1.30000000E+01
 50
1.53042232E+02
 51
1.80000005E+02
  0
ARC
  8
0
 62
7
 10
-1.20421931E+02
 20
1.43390220E+02
 40
2.00000000E+00
 50
3.59999995E+02
 51
9.00000002E+01
  0
CIRCLE
  8
0
 62
7
 10
-1.28921931E+02
 20
1.00390220E+02
 40
3.00000000E+00
  0
CIRCLE
  8
0
 62
7
 10
-1.32421931E+02
 20
1.00390220E+02
 40
1.00000000E+01
  0
ARC
  8
0
 62
7
 10
-4.92421931E+02
 20
1.43390220E+02
 40
2.00000000E+00
 50
9.00000002E+01
 51
1.80000005E+02
  0
LINE
  8
0
 62
7
 10
-4.67051814E+02
 20
1.09190223E+02
 11
-4.63421931E+02
 21
1.09190223E+02
  0
LINE
  8
0
 62
7
 10
-4.65421931E+02
 20
9.83902204E+01
 11
-4.63421931E+02
 21
9.83902204E+01
  0
LINE
  8
0
  6
CENTER
 62
2
 10
-4.80421931E+02
 20
1.15390220E+02
 11
-4.80421931E+02
 21
8.53902204E+01
  0
LINE
  8
0
  6
CENTER
 62
2
 10
-4.65421931E+02
 20
1.00390220E+02
 11
-4.95421931E+02
 21
1.00390220E+02
  0
LINE
  8
0
  6
CENTER
 62
2
 10
-4.83921931E+02
 20
1.05890220E+02
 11
-4.83921931E+02
 21
9.48902204E+01
  0
LINE
  8
0
  6
CENTER
 62
2
 10
-1.28921931E+02
 20
1.05890220E+02
 11
-1.28921931E+02
 21
9.48902204E+01
  0
LINE
  8
0
  6
CENTER
 62
2
 10
-1.47421931E+02
 20
1.00390220E+02
 11
-1.17421931E+02
 21
1.00390220E+02
  0
LINE
  8
0
  6
CENTER
 62
2
 10
-1.32421931E+02
 20
1.15390220E+02
 11
-1.32421931E+02
 21
8.53902204E+01
  0
LINE
  8
0
 62
7
 10
-4.38421931E+02
 20
1.01390220E+02
 11
-4.38421931E+02
 21
1.04790222E+02
  0
LINE
  8
0
 62
7
 10
-4.63421931E+02
 20
1.01825789E+02
 11
-4.38421931E+02
 21
1.01825789E+02
  0
LINE
  8
0
 62
7
 10
-4.36421931E+02
 20
1.15890220E+02
 11
-4.63421931E+02
 21
1.15890220E+02
  0
LINE
  8
0
 62
7
 10
-4.63421931E+02
 20
7.73902204E+01
 11
-4.63421931E+02
 21
1.45390220E+02
  0
LINE
  8
0
 62
7
 10
-4.36421931E+02
 20
1.28390220E+02
 11
-4.50921931E+02
 21
1.28390220E+02
  0
LINE
  8
0
 62
7
 10
-4.36421931E+02
 20
1.15890220E+02
 11
-4.36421931E+02
 21
1.28390220E+02
  0
LINE
  8
0
 62
7
 10
-4.47921931E+02
 20
1.32064541E+02
 11
-2.64921954E+02
 21
1.32064541E+02
  0
LINE
  8
0
 62
7
 10
-4.49821925E+02
 20
1.30390220E+02
 11
-4.49821925E+02
 21
1.30967571E+02
  0
LINE
  8
0
 62
7
 10
-4.49821929E+02
 20
1.30967570E+02
 11
-4.47921922E+02
 21
1.32064540E+02
  0
LINE
  8
0
 62
7
 10
-4.47921931E+02
 20
1.35890220E+02
 11
-4.47921931E+02
 21
1.32064541E+02
  0
LINE
  8
0
 62
7
 10
-2.63021937E+02
 20
1.30390220E+02
 11
-2.63021937E+02
 21
1.30967571E+02
  0
LINE
  8
0
 62
7
 10
-2.63021945E+02
 20
1.30967569E+02
 11
-2.64921952E+02
 21
1.32064539E+02
  0
LINE
  8
0
 62
7
 10
-2.64921931E+02
 20
1.35890220E+02
 11
-2.64921931E+02
 21
1.32064525E+02
  0
LINE
  8
0
 62
7
 10
-4.53421931E+02
 20
1.42890220E+02
 11
-4.53421931E+02
 21
1.30390220E+02
  0
LINE
  8
0
 62
7
 10
-4.50421931E+02
 20
1.45390220E+02
 11
-4.50421931E+02
 21
1.35890220E+02
  0
LINE
  8
0
 62
7
 10
-4.49421931E+02
 20
1.35890220E+02
 11
-4.53421931E+02
 21
1.35890220E+02
  0
LINE
  8
0
 62
7
 10
-4.49421931E+02
 20
1.45390220E+02
 11
-4.49421931E+02
 21
1.35890220E+02
  0
LINE
  8
0
 62
7
 10
-1.76421931E+02
 20
1.15890220E+02
 11
-1.49421931E+02
 21
1.15890220E+02
  0
LINE
  8
0
 62
7
 10
-1.63421931E+02
 20
1.45390220E+02
 11
-1.63421931E+02
 21
1.35890220E+02
  0
LINE
  8
0
 62
7
 10
-1.62421931E+02
 20
1.45390220E+02
 11
-1.62421931E+02
 21
1.35890220E+02
  0
LINE
  8
0
 62
7
 10
-1.59421931E+02
 20
1.42890220E+02
 11
-1.59421931E+02
 21
1.30890220E+02
  0
LINE
  8
0
 62
7
 10
-1.63421931E+02
 20
1.35890220E+02
 11
-1.59421931E+02
 21
1.35890220E+02
  0
LINE
  8
0
 62
7
 10
-1.63421931E+02
 20
1.45390220E+02
 11
-1.49421931E+02
 21
1.45390220E+02
  0
LINE
  8
0
 62
7
 10
-1.76421931E+02
 20
1.28390220E+02
 11
-1.61921931E+02
 21
1.28390220E+02
  0
LINE
  8
0
 62
7
 10
-1.76421931E+02
 20
1.15890220E+02
 11
-1.76421931E+02
 21
1.28390220E+02
  0
LINE
  8
0
 62
7
 10
-1.47421931E+02
 20
9.83902204E+01
 11
-1.49421931E+02
 21
9.83902204E+01
  0
LINE
  8
0
 62
7
 10
-1.45792048E+02
 20
1.09190223E+02
 11
-1.49421931E+02
 21
1.09190223E+02
  0
LINE
  8
0
 62
7
 10
-1.18421931E+02
 20
7.73902204E+01
 11
-1.18421931E+02
 21
1.43390220E+02
  0
LINE
  8
0
 62
7
 10
-1.49421931E+02
 20
7.73902204E+01
 11
-1.49421931E+02
 21
1.45390220E+02
  0
LINE
  8
0
 62
7
 10
-1.49421931E+02
 20
1.45390220E+02
 11
-1.20421931E+02
 21
1.45390220E+02
  0
LINE
  8
0
 62
7
 10
-4.48421931E+02
 20
1.49390220E+02
 11
-2.64421931E+02
 21
1.49390220E+02
  0
LINE
  8
0
 62
7
 10
-4.48421931E+02
 20
1.49390220E+02
 11
-4.48421931E+02
 21
1.35890220E+02
  0
LINE
  8
0
 62
7
 10
-2.64421931E+02
 20
1.49390220E+02
 11
-2.64421931E+02
 21
1.35890220E+02
  0
LINE
  8
0
 62
7
 10
-4.48421931E+02
 20
1.35890220E+02
 11
-2.64421931E+02
 21
1.35890220E+02
  0
LINE
  8
0
 62
7
 10
-4.92421931E+02
 20
1.45390220E+02
 11
-4.49421931E+02
 21
1.45390220E+02
  0
LINE
  8
0
 62
7
 10
-4.94421931E+02
 20
7.73902204E+01
 11
-4.94421931E+02
 21
1.43390220E+02
  0
LINE
  8
0
 62
7
 10
-1.74421931E+02
 20
1.01390220E+02
 11
-1.74421931E+02
 21
1.04790222E+02
  0
LINE
  8
0
 62
7
 10
-1.49421931E+02
 20
1.01825789E+02
 11
-1.74421931E+02
 21
1.01825789E+02
  0
LINE
  8
0
 62
7
 10
-1.49421931E+02
 20
1.01390220E+02
 11
-1.74421931E+02
 21
1.01390220E+02
  0
LINE
  8
0
 62
7
 10
-4.63421931E+02
 20
8.35902173E+01
 11
-1.49421931E+02
 21
8.35902173E+01
  0
LINE
  8
0
 62
7
 10
-4.38421931E+02
 20
1.04790222E+02
 11
-1.74421931E+02
 21
1.04790222E+02
  0
LINE
  8
0
 62
7
 10
-4.63421931E+02
 20
1.15390220E+02
 11
-1.49421931E+02
 21
1.15390220E+02
  0
LINE
  8
0
 62
7
 10
-4.36421931E+02
 20
1.25640220E+02
 11
-1.76421931E+02
 21
1.25640220E+02
  0
LINE
  8
0
 62
7
 10
-4.53421931E+02
 20
1.30390220E+02
 11
-1.59472437E+02
 21
1.30390220E+02
  0
LINE
  8
0
 62
7
 10
-4.63421931E+02
 20
1.01390220E+02
 11
-4.38421931E+02
 21
1.01390220E+02
  0
LINE
  8
0
 62
4
 10
-2.67421931E+02
 20
1.07990220E+02
 11
-2.46421931E+02
 21
1.07990220E+02
  0
LINE
  8
0
 62
4
 10
-2.67421931E+02
 20
1.04790220E+02
 11
-2.46421931E+02
 21
1.04790220E+02
  0
LINE
  8
0
 62
4
 10
-2.48641931E+02
 20
1.05620220E+02
 11
-2.50191931E+02
 21
1.07160220E+02
  0
LINE
  8
0
 62
4
 10
-2.48641931E+02
 20
1.07160220E+02
 11
-2.50191931E+02
 21
1.05620220E+02
  0
CIRCLE
  8
0
 62
4
 10
-2.49421931E+02
 20
1.06390220E+02
 40
1.50000000E+00
  0
LINE
  8
0
 62
4
 10
-2.52421931E+02
 20
1.07990220E+02
 11
-2.52421931E+02
 21
1.04790220E+02
  0
LINE
  8
0
 62
4
 10
-2.46421931E+02
 20
1.07990220E+02
 11
-2.46421931E+02
 21
1.04790220E+02
  0
LINE
  8
0
 62
4
 10
-2.67421931E+02
 20
1.07990220E+02
 11
-2.67421931E+02
 21
1.04790220E+02
  0
LINE
  8
0
 62
4
 10
-2.68921931E+02
 20
1.07580220E+02
 11
-2.68921931E+02
 21
1.05200220E+02
  0
LINE
  8
0
 62
4
 10
-2.67421931E+02
 20
1.07990220E+02
 11
-2.68921931E+02
 21
1.07580220E+02
  0
LINE
  8
0
 62
4
 10
-2.68921931E+02
 20
1.07580220E+02
 11
-2.74203156E+02
 21
1.07580220E+02
  0
LINE
  8
0
 62
6
 10
-2.74203156E+02
 20
1.07580220E+02
 11
-2.75284974E+02
 21
1.05200220E+02
  0
LINE
  8
0
 62
4
 10
-2.67421931E+02
 20
1.04790220E+02
 11
-2.68921931E+02
 21
1.05200220E+02
  0
LINE
  8
0
 62
4
 10
-2.68921931E+02
 20
1.05200220E+02
 11
-2.75284974E+02
 21
1.05200220E+02
  0
LINE
  8
0
 62
4
 10
-3.67421931E+02
 20
1.07990220E+02
 11
-3.46421931E+02
 21
1.07990220E+02
  0
LINE
  8
0
 62
4
 10
-3.67421931E+02
 20
1.04790220E+02
 11
-3.46421931E+02
 21
1.04790220E+02
  0
LINE
  8
0
 62
4
 10
-3.48641931E+02
 20
1.05620220E+02
 11
-3.50191931E+02
 21
1.07160220E+02
  0
LINE
  8
0
 62
4
 10
-3.48641931E+02
 20
1.07160220E+02
 11
-3.50191931E+02
 21
1.05620220E+02
  0
CIRCLE
  8
0
 62
4
 10
-3.49421931E+02
 20
1.06390220E+02
 40
1.50000000E+00
  0
LINE
  8
0
 62
4
 10
-3.52421931E+02
 20
1.07990220E+02
 11
-3.52421931E+02
 21
1.04790220E+02
  0
LINE
  8
0
 62
4
 10
-3.46421931E+02
 20
1.07990220E+02
 11
-3.46421931E+02
 21
1.04790220E+02
  0
LINE
  8
0
 62
4
 10
-3.67421931E+02
 20
1.07990220E+02
 11
-3.67421931E+02
 21
1.04790220E+02
  0
LINE
  8
0
 62
4
 10
-3.68921931E+02
 20
1.07580220E+02
 11
-3.68921931E+02
 21
1.05200220E+02
  0
LINE
  8
0
 62
4
 10
-3.67421931E+02
 20
1.07990220E+02
 11
-3.68921931E+02
 21
1.07580220E+02
  0
LINE
  8
0
 62
4
 10
-3.68921931E+02
 20
1.07580220E+02
 11
-3.74203156E+02
 21
1.07580220E+02
  0
LINE
  8
0
 62
6
 10
-3.74203156E+02
 20
1.07580220E+02
 11
-3.75284974E+02
 21
1.05200220E+02
  0
LINE
  8
0
 62
4
 10
-3.67421931E+02
 20
1.04790220E+02
 11
-3.68921931E+02
 21
1.05200220E+02
  0
LINE
  8
0
 62
4
 10
-3.68921931E+02
 20
1.05200220E+02
 11
-3.75284974E+02
 21
1.05200220E+02
  0
CIRCLE
  8
0
 62
7
 10
5.25780693E+01
 20
8.53902204E+01
 40
6.50000000E+00
  0
CIRCLE
  8
0
 62
7
 10
5.25780693E+01
 20
8.53902204E+01
 40
3.46410155E+00
  0
CIRCLE
  8
0
 62
7
 10
-2.99219307E+01
 20
1.24390220E+02
 40
6.50000000E+00
  0
CIRCLE
  8
0
 62
7
 10
-2.99219307E+01
 20
1.24390220E+02
 40
3.46410155E+00
  0
CIRCLE
  8
0
 62
7
 10
5.30780693E+01
 20
1.24390220E+02
 40
3.46410155E+00
  0
CIRCLE
  8
0
 62
7
 10
5.30780693E+01
 20
1.24390220E+02
 40
6.50000000E+00
  0
CIRCLE
  8
0
 62
7
 10
-2.99219307E+01
 20
1.24390220E+02
 40
7.00000000E+00
  0
ARC
  8
0
 62
7
 10
-2.14219307E+01
 20
1.27390220E+02
 40
1.80000000E+01
 50
9.00000002E+01
 51
1.80000005E+02
  0
ARC
  8
0
 62
7
 10
4.45780693E+01
 20
1.27390220E+02
 40
1.80000000E+01
 50
9.33466765E-06
 51
9.00000002E+01
  0
ARC
  8
0
 62
7
 10
5.93780570E+01
 20
1.07190223E+02
 40
2.00000000E+00
 50
9.00000002E+01
 51
1.80000005E+02
  0
ARC
  8
0
 62
7
 10
5.93780570E+01
 20
1.00390220E+02
 40
2.00000000E+00
 50
1.79999991E+02
 51
2.70000000E+02
  0
CIRCLE
  8
0
 62
7
 10
5.25780693E+01
 20
8.53902204E+01
 40
7.00000000E+00
  0
CIRCLE
  8
0
 62
7
 10
5.30780693E+01
 20
1.24390220E+02
 40
7.00000000E+00
  0
LINE
  8
0
 62
7
 10
5.43101249E+01
 20
8.83902204E+01
 11
5.08460136E+01
 21
8.83902204E+01
  0
LINE
  8
0
 62
7
 10
4.91139671E+01
 20
8.53902137E+01
 11
5.08460227E+01
 21
8.83902220E+01
  0
LINE
  8
0
 62
7
 10
5.43101194E+01
 20
8.23902137E+01
 11
5.60421751E+01
 21
8.53902220E+01
  0
LINE
  8
0
 62
7
 10
5.43101249E+01
 20
8.23902204E+01
 11
5.08460136E+01
 21
8.23902204E+01
  0
LINE
  8
0
 62
7
 10
5.60421720E+01
 20
8.53902242E+01
 11
5.43101240E+01
 21
8.83902194E+01
  0
LINE
  8
0
 62
7
 10
5.08460197E+01
 20
8.23902242E+01
 11
4.91139716E+01
 21
8.53902194E+01
  0
LINE
  8
0
 62
7
 10
-3.33860317E+01
 20
1.24390217E+02
 11
-3.16539836E+01
 21
1.27390213E+02
  0
LINE
  8
0
 62
7
 10
-2.81898793E+01
 20
1.21390217E+02
 11
-2.64578313E+01
 21
1.24390213E+02
  0
LINE
  8
0
 62
7
 10
-3.16539828E+01
 20
1.21390225E+02
 11
-3.33860308E+01
 21
1.24390220E+02
  0
LINE
  8
0
 62
7
 10
-2.81898751E+01
 20
1.21390220E+02
 11
-3.16539864E+01
 21
1.21390220E+02
  0
LINE
  8
0
 62
7
 10
-2.81898751E+01
 20
1.27390220E+02
 11
-3.16539864E+01
 21
1.27390220E+02
  0
LINE
  8
0
 62
7
 10
-2.64578305E+01
 20
1.24390225E+02
 11
-2.81898785E+01
 21
1.27390220E+02
  0
LINE
  8
0
 62
7
 10
5.48101249E+01
 20
1.27390220E+02
 11
5.13460136E+01
 21
1.27390220E+02
  0
LINE
  8
0
 62
7
 10
5.48101249E+01
 20
1.21390220E+02
 11
5.13460136E+01
 21
1.21390220E+02
  0
LINE
  8
0
 62
7
 10
5.13460265E+01
 20
1.21390214E+02
 11
4.96139708E+01
 21
1.24390222E+02
  0
LINE
  8
0
 62
7
 10
5.65421788E+01
 20
1.24390214E+02
 11
5.48101231E+01
 21
1.27390222E+02
  0
LINE
  8
0
 62
7
 10
5.48101223E+01
 20
1.21390215E+02
 11
5.65421703E+01
 21
1.24390210E+02
  0
LINE
  8
0
 62
7
 10
4.96139700E+01
 20
1.24390215E+02
 11
5.13460180E+01
 21
1.27390210E+02
  0
LINE
  8
0
 62
7
 10
8.07806925E+00
 20
1.45190220E+02
 11
1.50780693E+01
 21
1.45190220E+02
  0
LINE
  8
0
 62
7
 10
1.50780693E+01
 20
1.45390220E+02
 11
4.45780693E+01
 21
1.45390220E+02
  0
LINE
  8
0
  6
CENTER
 62
2
 10
4.50780693E+01
 20
1.24390220E+02
 11
6.10780693E+01
 21
1.24390220E+02
  0
LINE
  8
0
 62
7
 10
2.07806925E+00
 20
1.14390220E+02
 11
2.10780693E+01
 21
1.14390220E+02
  0
LINE
  8
0
 62
7
 10
2.10780693E+01
 20
1.34390220E+02
 11
2.10780693E+01
 21
1.14390220E+02
  0
LINE
  8
0
 62
7
 10
2.07806925E+00
 20
1.34390220E+02
 11
8.07806925E+00
 21
1.34390220E+02
  0
LINE
  8
0
 62
7
 10
5.93780570E+01
 20
1.09190223E+02
 11
6.25780693E+01
 21
1.09190223E+02
  0
LINE
  8
0
 62
7
 10
6.25780693E+01
 20
1.27390220E+02
 11
6.25780693E+01
 21
1.09190223E+02
  0
LINE
  8
0
 62
7
 10
-3.94219307E+01
 20
7.73902204E+01
 11
1.00780693E+01
 21
7.73902204E+01
  0
LINE
  8
0
 62
7
 10
1.30780693E+01
 20
7.83902204E+01
 11
1.00780693E+01
 21
7.83902204E+01
  0
LINE
  8
0
 62
7
 10
1.30780693E+01
 20
7.73902204E+01
 11
6.25780693E+01
 21
7.73902204E+01
  0
LINE
  8
0
  6
CENTER
 62
2
 10
5.25780693E+01
 20
9.33902204E+01
 11
5.25780693E+01
 21
7.73902204E+01
  0
LINE
  8
0
  6
CENTER
 62
2
 10
6.05780693E+01
 20
8.53902204E+01
 11
4.45780693E+01
 21
8.53902204E+01
  0
LINE
  8
0
 62
7
 10
5.73780570E+01
 20
1.07190223E+02
 11
5.73780570E+01
 21
1.00390220E+02
  0
LINE
  8
0
 62
7
 10
5.93780570E+01
 20
9.83902204E+01
 11
6.25780693E+01
 21
9.83902204E+01
  0
LINE
  8
0
 62
7
 10
6.25780693E+01
 20
9.83902204E+01
 11
6.25780693E+01
 21
7.73902204E+01
  0
LINE
  8
0
 62
7
 10
-3.94219307E+01
 20
1.27390220E+02
 11
-3.94219307E+01
 21
7.73902204E+01
  0
LINE
  8
0
 62
7
 10
2.07806925E+00
 20
1.34390220E+02
 11
2.07806925E+00
 21
1.14390220E+02
  0
LINE
  8
0
 62
7
 10
1.50780693E+01
 20
1.34390220E+02
 11
1.50780693E+01
 21
1.45390220E+02
  0
LINE
  8
0
 62
7
 10
8.07806925E+00
 20
1.34390220E+02
 11
8.07806925E+00
 21
1.45390220E+02
  0
LINE
  8
0
 62
7
 10
1.50780693E+01
 20
1.34390220E+02
 11
2.10780693E+01
 21
1.34390220E+02
  0
LINE
  8
0
  6
CENTER
 62
2
 10
-2.99219307E+01
 20
1.32390220E+02
 11
-2.99219307E+01
 21
1.16390220E+02
  0
LINE
  8
0
 62
7
 10
1.00780693E+01
 20
7.83902204E+01
 11
1.00780693E+01
 21
7.73902204E+01
  0
LINE
  8
0
 62
7
 10
-2.14219307E+01
 20
1.45390220E+02
 11
8.07806925E+00
 21
1.45390220E+02
  0
LINE
  8
0
 62
7
 10
1.30780693E+01
 20
7.83902204E+01
 11
1.30780693E+01
 21
7.73902204E+01
  0
LINE
  8
0
  6
CENTER
 62
2
 10
-2.19219307E+01
 20
1.24390220E+02
 11
-3.79219307E+01
 21
1.24390220E+02
  0
LINE
  8
0
  6
CENTER
 62
2
 10
5.30780693E+01
 20
1.32390220E+02
 11
5.30780693E+01
 21
1.16390220E+02
  0
LINE
  8
0
 62
7
 10
-2.34219307E+01
 20
1.49390220E+02
 11
-2.34219307E+01
 21
1.45278763E+02
  0
LINE
  8
0
 62
7
 10
4.65780693E+01
 20
1.49390220E+02
 11
4.65780693E+01
 21
1.45278763E+02
  0
LINE
  8
0
 62
7
 10
-2.34219307E+01
 20
1.49390220E+02
 11
4.65780693E+01
 21
1.49390220E+02
  0
LINE
  8
0
  6
CENTER
 62
2
 10
1.15780693E+01
 20
1.54390220E+02
 11
1.15780693E+01
 21
7.23902204E+01
  0
LINE
  8
0
  6
PHANTOM
 10
-2.36921931E+02
 20
3.01370599E+02
 11
-2.36921931E+02
 21
1.62321975E+02
  0
LINE
  8
0
  6
CENTER
 62
2
 10
-4.99421931E+02
 20
2.40390220E+02
 11
-1.09409041E+02
 21
2.40390220E+02
  0
LINE
  8
0
 62
7
 10
-4.92421931E+02
 20
2.91390220E+02
 11
-1.49421931E+02
 21
2.91390220E+02
  0
LINE
  8
0
 62
7
 10
-2.64421931E+02
 20
2.31890220E+02
 11
-1.63421931E+02
 21
2.31890220E+02
  0
ARC
  8
0
 62
7
 10
-4.50421931E+02
 20
2.35301109E+02
 40
1.00000000E+00
 50
8.65142138E-06
 51
7.99999907E+01
  0
ARC
  8
0
 62
7
 10
-4.50421931E+02
 20
2.31479332E+02
 40
1.00000000E+00
 50
2.79999996E+02
 51
8.65142138E-06
  0
ARC
  8
0
 62
7
 10
-4.52162470E+02
 20
2.24265220E+02
 40
5.59466302E-01
 50
9.99999936E+01
 51
2.60000003E+02
  0
ARC
  8
0
 62
7
 10
-4.55921931E+02
 20
1.92390220E+02
 40
2.50000000E+00
 50
2.70000000E+02
 51
8.65142206E-06
  0
ARC
  8
0
 62
7
 10
-4.55921931E+02
 20
2.88390220E+02
 40
2.50000000E+00
 50
3.59999995E+02
 51
9.00000002E+01
  0
ARC
  8
0
 62
7
 10
-4.50421931E+02
 20
2.49301109E+02
 40
1.00000000E+00
 50
8.65142138E-06
 51
7.99999907E+01
  0
ARC
  8
0
 62
7
 10
-4.50421931E+02
 20
2.45479332E+02
 40
1.00000000E+00
 50
2.79999996E+02
 51
8.65142138E-06
  0
ARC
  8
0
 62
7
 10
-4.52221934E+02
 20
2.38315117E+02
 40
5.00000000E-01
 50
9.99999936E+01
 51
1.80000005E+02
  0
ARC
  8
0
 62
7
 10
-4.52221934E+02
 20
2.51141655E+02
 40
5.00000000E-01
 50
1.79999991E+02
 51
2.60000003E+02
  0
ARC
  8
0
 62
7
 10
-4.52221934E+02
 20
2.42465324E+02
 40
5.00000000E-01
 50
1.79999991E+02
 51
2.60000003E+02
  0
ARC
  8
0
 62
7
 10
-4.52221934E+02
 20
2.43638786E+02
 40
5.00000000E-01
 50
9.99999936E+01
 51
1.80000005E+02
  0
ARC
  8
0
 62
7
 10
-4.52221934E+02
 20
2.52315117E+02
 40
5.00000000E-01
 50
9.99999936E+01
 51
1.80000005E+02
  0
ARC
  8
0
 62
7
 10
-4.52221934E+02
 20
2.37141655E+02
 40
5.00000000E-01
 50
1.79999991E+02
 51
2.60000003E+02
  0
ARC
  8
0
 62
7
 10
-4.52221934E+02
 20
2.29638786E+02
 40
5.00000000E-01
 50
9.99999936E+01
 51
1.80000005E+02
  0
ARC
  8
0
 62
7
 10
-4.52162470E+02
 20
2.56515220E+02
 40
5.59466302E-01
 50
9.99999936E+01
 51
2.60000003E+02
  0
ARC
  8
0
 62
7
 10
-4.52221934E+02
 20
2.28465324E+02
 40
5.00000000E-01
 50
1.79999991E+02
 51
2.60000003E+02
  0
ARC
  8
0
 62
7
 10
-1.56921931E+02
 20
1.92390220E+02
 40
2.50000000E+00
 50
1.79999991E+02
 51
2.70000000E+02
  0
ARC
  8
0
 62
7
 10
-1.56921931E+02
 20
2.88390220E+02
 40
2.50000000E+00
 50
9.00000002E+01
 51
1.80000005E+02
  0
ARC
  8
0
 62
7
 10
-1.60681391E+02
 20
2.56515220E+02
 40
5.59466302E-01
 50
2.79999996E+02
 51
7.99999976E+01
  0
ARC
  8
0
 62
7
 10
-1.62421931E+02
 20
2.49301109E+02
 40
1.00000000E+00
 50
1.00000000E+02
 51
1.80000005E+02
  0
ARC
  8
0
 62
7
 10
-1.62421931E+02
 20
2.45479332E+02
 40
1.00000000E+00
 50
1.80000008E+02
 51
2.59999993E+02
  0
ARC
  8
0
 62
7
 10
-1.62421931E+02
 20
2.31479332E+02
 40
1.00000000E+00
 50
1.80000008E+02
 51
2.59999993E+02
  0
ARC
  8
0
 62
7
 10
-1.62421931E+02
 20
2.35301109E+02
 40
1.00000000E+00
 50
1.00000000E+02
 51
1.80000005E+02
  0
ARC
  8
0
 62
7
 10
-1.60621943E+02
 20
2.37141655E+02
 40
5.00000000E-01
 50
2.79999996E+02
 51
8.65142138E-06
  0
ARC
  8
0
 62
7
 10
-1.60621943E+02
 20
2.38315117E+02
 40
5.00000000E-01
 50
3.59999995E+02
 51
7.99999976E+01
  0
ARC
  8
0
 62
7
 10
-1.60621943E+02
 20
2.42465324E+02
 40
5.00000000E-01
 50
2.79999996E+02
 51
8.65142138E-06
  0
ARC
  8
0
 62
7
 10
-1.60621943E+02
 20
2.29638786E+02
 40
5.00000000E-01
 50
3.59999995E+02
 51
7.99999976E+01
  0
ARC
  8
0
 62
7
 10
-1.60621943E+02
 20
2.43638786E+02
 40
5.00000000E-01
 50
3.59999995E+02
 51
7.99999976E+01
  0
ARC
  8
0
 62
7
 10
-1.60621943E+02
 20
2.28465324E+02
 40
5.00000000E-01
 50
2.79999996E+02
 51
8.65142138E-06
  0
ARC
  8
0
 62
7
 10
-1.60621943E+02
 20
2.51141655E+02
 40
5.00000000E-01
 50
2.79999996E+02
 51
8.65142138E-06
  0
ARC
  8
0
 62
7
 10
-1.60621943E+02
 20
2.52315117E+02
 40
5.00000000E-01
 50
3.59999995E+02
 51
7.99999976E+01
  0
ARC
  8
0
 62
7
 10
-1.60681391E+02
 20
2.24265220E+02
 40
5.59466302E-01
 50
2.79999996E+02
 51
7.99999976E+01
  0
ARC
  8
0
 62
7
 10
-4.92421931E+02
 20
1.91390220E+02
 40
2.00000000E+00
 50
1.79999991E+02
 51
2.70000000E+02
  0
CIRCLE
  8
0
 62
7
 10
-4.72421931E+02
 20
2.62390220E+02
 40
7.00000000E+00
  0
CIRCLE
  8
0
 62
7
 10
-4.72421931E+02
 20
2.62390220E+02
 40
4.50000000E+00
  0
CIRCLE
  8
0
 62
7
 10
-4.72421931E+02
 20
2.18390220E+02
 40
7.00000000E+00
  0
ARC
  8
0
 62
7
 10
-4.92421931E+02
 20
2.89390220E+02
 40
2.00000000E+00
 50
9.00000002E+01
 51
1.80000005E+02
  0
CIRCLE
  8
0
 62
7
 10
-4.72421931E+02
 20
2.18390220E+02
 40
4.50000000E+00
  0
ARC
  8
0
 62
7
 10
-1.20421931E+02
 20
2.89390220E+02
 40
2.00000000E+00
 50
3.59999995E+02
 51
9.00000002E+01
  0
CIRCLE
  8
0
 62
7
 10
-1.40421931E+02
 20
2.18390220E+02
 40
7.00000000E+00
  0
CIRCLE
  8
0
 62
7
 10
-1.40421931E+02
 20
2.18390220E+02
 40
4.50000000E+00
  0
CIRCLE
  8
0
 62
7
 10
-1.40421931E+02
 20
2.62390220E+02
 40
4.50000000E+00
  0
CIRCLE
  8
0
 62
7
 10
-1.40421931E+02
 20
2.62390220E+02
 40
7.00000000E+00
  0
ARC
  8
0
 62
7
 10
-1.20421931E+02
 20
1.91390220E+02
 40
2.00000000E+00
 50
2.70000000E+02
 51
8.65142224E-06
  0
CIRCLE
  8
0
 62
2
 10
-2.96421931E+02
 20
2.64390220E+02
 40
4.00000000E+00
  0
ARC
  8
0
 62
7
 10
-4.35421931E+02
 20
2.17390220E+02
 40
1.20000000E+01
 50
1.79999995E+02
 51
2.70000000E+02
  0
CIRCLE
  8
0
 62
2
 10
-4.16421931E+02
 20
2.16390220E+02
 40
4.00000000E+00
  0
ARC
  8
0
 62
7
 10
-4.35421931E+02
 20
2.63390220E+02
 40
1.20000000E+01
 50
9.00000002E+01
 51
1.80000005E+02
  0
CIRCLE
  8
0
 62
7
 10
-4.16421931E+02
 20
2.16390220E+02
 40
3.40000010E+00
  0
ARC
  8
0
 62
7
 10
-2.77421931E+02
 20
2.63390220E+02
 40
1.20000000E+01
 50
3.59999995E+02
 51
9.00000002E+01
  0
ARC
  8
0
 62
7
 10
-2.77421931E+02
 20
2.17390220E+02
 40
1.20000000E+01
 50
2.70000000E+02
 51
8.65142224E-06
  0
CIRCLE
  8
0
 62
7
 10
-2.96421931E+02
 20
2.16390220E+02
 40
3.40000010E+00
  0
CIRCLE
  8
0
 62
7
 10
-2.96421931E+02
 20
2.64390220E+02
 40
3.40000010E+00
  0
ARC
  8
0
 62
7
 10
-4.38421931E+02
 20
2.49590217E+02
 40
1.00000000E+00
 50
9.00000002E+01
 51
1.80000005E+02
  0
ARC
  8
0
 62
7
 10
-2.75421931E+02
 20
2.31190223E+02
 40
1.00000000E+00
 50
2.70000000E+02
 51
8.65142138E-06
  0
ARC
  8
0
 62
7
 10
-2.75421931E+02
 20
2.49590217E+02
 40
1.00000000E+00
 50
3.59999995E+02
 51
9.00000002E+01
  0
ARC
  8
0
 62
7
 10
-4.38421931E+02
 20
2.31190223E+02
 40
1.00000000E+00
 50
1.79999995E+02
 51
2.70000000E+02
  0
CIRCLE
  8
0
 62
7
 10
-4.16421931E+02
 20
2.64390220E+02
 40
3.40000010E+00
  0
CIRCLE
  8
0
 62
2
 10
-2.96421931E+02
 20
2.16390220E+02
 40
4.00000000E+00
  0
CIRCLE
  8
0
 62
2
 10
-4.16421931E+02
 20
2.64390220E+02
 40
4.00000000E+00
  0
LINE
  8
0
 62
7
 10
-1.76421931E+02
 20
1.89890220E+02
 11
-1.76421931E+02
 21
1.93390220E+02
  0
LINE
  8
0
 62
7
 10
-1.76421931E+02
 20
2.90890220E+02
 11
-1.76421931E+02
 21
2.87390220E+02
  0
LINE
  8
0
 62
7
 10
-4.36421931E+02
 20
1.89890220E+02
 11
-4.36421931E+02
 21
1.93390220E+02
  0
LINE
  8
0
 62
7
 10
-4.36421931E+02
 20
2.90890220E+02
 11
-4.36421931E+02
 21
2.87390220E+02
  0
LINE
  8
0
  6
CENTER
 62
2
 10
-1.40421931E+02
 20
2.30390220E+02
 11
-1.40421931E+02
 21
2.06390220E+02
  0
LINE
  8
0
  6
CENTER
 62
2
 10
-1.28421931E+02
 20
2.18390220E+02
 11
-1.52421931E+02
 21
2.18390220E+02
  0
LINE
  8
0
  6
CENTER
 62
2
 10
-1.40421931E+02
 20
2.74390220E+02
 11
-1.40421931E+02
 21
2.50390220E+02
  0
LINE
  8
0
  6
CENTER
 62
2
 10
-1.28421931E+02
 20
2.62390220E+02
 11
-1.52421931E+02
 21
2.62390220E+02
  0
LINE
  8
0
  6
CENTER
 62
2
 10
-4.72421931E+02
 20
2.74390220E+02
 11
-4.72421931E+02
 21
2.50390220E+02
  0
LINE
  8
0
  6
CENTER
 62
2
 10
-4.60421931E+02
 20
2.62390220E+02
 11
-4.84421931E+02
 21
2.62390220E+02
  0
LINE
  8
0
  6
CENTER
 62
2
 10
-4.72421931E+02
 20
2.30390220E+02
 11
-4.72421931E+02
 21
2.06390220E+02
  0
LINE
  8
0
  6
CENTER
 62
2
 10
-4.60421931E+02
 20
2.18390220E+02
 11
-4.84421931E+02
 21
2.18390220E+02
  0
LINE
  8
0
  6
CENTER
 62
2
 10
-2.96421931E+02
 20
2.22890220E+02
 11
-2.96421931E+02
 21
2.09890220E+02
  0
LINE
  8
0
  6
CENTER
 62
2
 10
-2.89921931E+02
 20
2.16390220E+02
 11
-3.02921931E+02
 21
2.16390220E+02
  0
LINE
  8
0
  6
CENTER
 62
2
 10
-4.16421931E+02
 20
2.22890220E+02
 11
-4.16421931E+02
 21
2.09890220E+02
  0
LINE
  8
0
  6
CENTER
 62
2
 10
-4.09921931E+02
 20
2.16390220E+02
 11
-4.22921931E+02
 21
2.16390220E+02
  0
LINE
  8
0
  6
CENTER
 62
2
 10
-4.16421931E+02
 20
2.70890220E+02
 11
-4.16421931E+02
 21
2.57890220E+02
  0
LINE
  8
0
  6
CENTER
 62
2
 10
-4.09921931E+02
 20
2.64390220E+02
 11
-4.22921931E+02
 21
2.64390220E+02
  0
LINE
  8
0
  6
CENTER
 62
2
 10
-2.96421931E+02
 20
2.70890220E+02
 11
-2.96421931E+02
 21
2.57890220E+02
  0
LINE
  8
0
  6
CENTER
 62
2
 10
-2.89921931E+02
 20
2.64390220E+02
 11
-3.02921931E+02
 21
2.64390220E+02
  0
LINE
  8
0
 62
7
 10
-4.48421931E+02
 20
2.22390220E+02
 11
-4.48421931E+02
 21
2.58390220E+02
  0
LINE
  8
0
 62
7
 10
-4.53421931E+02
 20
2.20390220E+02
 11
-4.50421931E+02
 21
2.20390220E+02
  0
LINE
  8
0
 62
7
 10
-4.53421931E+02
 20
2.60390220E+02
 11
-4.50421931E+02
 21
2.60390220E+02
  0
LINE
  8
0
 62
7
 10
-4.50421928E+02
 20
2.23390212E+02
 11
-4.52259607E+02
 21
2.23714244E+02
  0
LINE
  8
0
 62
7
 10
-4.50421931E+02
 20
2.57390220E+02
 11
-4.50421931E+02
 21
2.60390220E+02
  0
LINE
  8
0
 62
7
 10
-4.50248290E+02
 20
2.50285915E+02
 11
-4.52308758E+02
 21
2.50649232E+02
  0
LINE
  8
0
 62
7
 10
-4.52721934E+02
 20
2.43638786E+02
 11
-4.52721934E+02
 21
2.42465324E+02
  0
LINE
  8
0
 62
7
 10
-4.49421931E+02
 20
2.35301109E+02
 11
-4.49421931E+02
 21
2.31479332E+02
  0
LINE
  8
0
 62
7
 10
-4.63421931E+02
 20
2.90890220E+02
 11
-4.36421931E+02
 21
2.90890220E+02
  0
LINE
  8
0
 62
7
 10
-4.53421931E+02
 20
2.20390220E+02
 11
-4.53421931E+02
 21
1.92390220E+02
  0
LINE
  8
0
 62
7
 10
-4.52721934E+02
 20
2.28465324E+02
 11
-4.52721934E+02
 21
2.29638786E+02
  0
LINE
  8
0
 62
7
 10
-4.50421943E+02
 20
2.57390216E+02
 11
-4.52259622E+02
 21
2.57066184E+02
  0
LINE
  8
0
 62
7
 10
-4.52721934E+02
 20
2.37141655E+02
 11
-4.52721934E+02
 21
2.38315117E+02
  0
LINE
  8
0
 62
7
 10
-4.52721934E+02
 20
2.52315117E+02
 11
-4.52721934E+02
 21
2.51141655E+02
  0
LINE
  8
0
 62
7
 10
-4.50421931E+02
 20
2.53140220E+02
 11
-4.50421931E+02
 21
2.55640220E+02
  0
LINE
  8
0
 62
7
 10
-4.50421931E+02
 20
2.39140220E+02
 11
-4.50421931E+02
 21
2.41640220E+02
  0
LINE
  8
0
 62
7
 10
-4.50421931E+02
 20
2.27640204E+02
 11
-4.52308748E+02
 21
2.27972901E+02
  0
LINE
  8
0
 62
7
 10
-4.50421932E+02
 20
2.25140213E+02
 11
-4.52259626E+02
 21
2.24816178E+02
  0
LINE
  8
0
 62
7
 10
-4.49421931E+02
 20
2.45479332E+02
 11
-4.49421931E+02
 21
2.49301109E+02
  0
LINE
  8
0
 62
7
 10
-4.50421932E+02
 20
2.53140226E+02
 11
-4.52308763E+02
 21
2.52807527E+02
  0
LINE
  8
0
 62
7
 10
-4.50421933E+02
 20
2.55640210E+02
 11
-4.52259612E+02
 21
2.55964242E+02
  0
LINE
  8
0
 62
7
 10
-4.50421931E+02
 20
2.23390220E+02
 11
-4.50421931E+02
 21
2.20390220E+02
  0
LINE
  8
0
 62
7
 10
-4.50421931E+02
 20
2.27640220E+02
 11
-4.50421931E+02
 21
2.25140220E+02
  0
LINE
  8
0
 62
7
 10
-4.53421931E+02
 20
2.60390220E+02
 11
-4.53421931E+02
 21
2.88390220E+02
  0
LINE
  8
0
 62
7
 10
-4.50421936E+02
 20
2.39140242E+02
 11
-4.52308768E+02
 21
2.38807543E+02
  0
LINE
  8
0
 62
7
 10
-4.50421914E+02
 20
2.41640223E+02
 11
-4.52308761E+02
 21
2.41972925E+02
  0
LINE
  8
0
 62
7
 10
-4.50248270E+02
 20
2.36285929E+02
 11
-4.52308739E+02
 21
2.36649245E+02
  0
LINE
  8
0
 62
7
 10
-4.50248287E+02
 20
2.44494507E+02
 11
-4.52308755E+02
 21
2.44131190E+02
  0
LINE
  8
0
 62
7
 10
-4.50248289E+02
 20
2.30494508E+02
 11
-4.52308757E+02
 21
2.30131191E+02
  0
LINE
  8
0
 62
7
 10
-4.63421931E+02
 20
1.89890220E+02
 11
-4.36421931E+02
 21
1.89890220E+02
  0
LINE
  8
0
 62
7
 10
-1.49421931E+02
 20
1.89890220E+02
 11
-1.76421931E+02
 21
1.89890220E+02
  0
LINE
  8
0
 62
7
 10
-1.49421931E+02
 20
2.90890220E+02
 11
-1.76421931E+02
 21
2.90890220E+02
  0
LINE
  8
0
 62
7
 10
-1.62595567E+02
 20
2.50285929E+02
 11
-1.60535098E+02
 21
2.50649245E+02
  0
LINE
  8
0
 62
7
 10
-1.62595586E+02
 20
2.36285942E+02
 11
-1.60535118E+02
 21
2.36649258E+02
  0
LINE
  8
0
 62
7
 10
-1.62595577E+02
 20
2.44494495E+02
 11
-1.60535109E+02
 21
2.44131179E+02
  0
LINE
  8
0
 62
7
 10
-1.62421934E+02
 20
2.39140200E+02
 11
-1.60535117E+02
 21
2.38807504E+02
  0
LINE
  8
0
 62
7
 10
-1.62421937E+02
 20
2.41640206E+02
 11
-1.60535090E+02
 21
2.41972908E+02
  0
LINE
  8
0
 62
7
 10
-1.59421931E+02
 20
2.20390220E+02
 11
-1.59421931E+02
 21
1.92390220E+02
  0
LINE
  8
0
 62
7
 10
-1.62421931E+02
 20
2.53140220E+02
 11
-1.62421931E+02
 21
2.55640220E+02
  0
LINE
  8
0
 62
7
 10
-1.62421931E+02
 20
2.57390220E+02
 11
-1.62421931E+02
 21
2.60390220E+02
  0
LINE
  8
0
 62
7
 10
-1.62421944E+02
 20
2.25140219E+02
 11
-1.60584266E+02
 21
2.24816187E+02
  0
LINE
  8
0
 62
7
 10
-1.62421927E+02
 20
2.27640225E+02
 11
-1.60535110E+02
 21
2.27972921E+02
  0
LINE
  8
0
 62
7
 10
-1.63421931E+02
 20
2.35301109E+02
 11
-1.63421931E+02
 21
2.31479332E+02
  0
LINE
  8
0
 62
7
 10
-1.62421923E+02
 20
2.55640223E+02
 11
-1.60584245E+02
 21
2.55964255E+02
  0
LINE
  8
0
 62
7
 10
-1.62421950E+02
 20
2.53140202E+02
 11
-1.60535103E+02
 21
2.52807500E+02
  0
LINE
  8
0
 62
7
 10
-1.62421931E+02
 20
2.41640220E+02
 11
-1.62421931E+02
 21
2.39140220E+02
  0
LINE
  8
0
 62
7
 10
-1.62421931E+02
 20
2.27640220E+02
 11
-1.62421931E+02
 21
2.25140220E+02
  0
LINE
  8
0
 62
7
 10
-1.60121943E+02
 20
2.28465324E+02
 11
-1.60121943E+02
 21
2.29638786E+02
  0
LINE
  8
0
 62
7
 10
-1.60121943E+02
 20
2.43638786E+02
 11
-1.60121943E+02
 21
2.42465324E+02
  0
LINE
  8
0
 62
7
 10
-1.62421930E+02
 20
2.23390232E+02
 11
-1.60584251E+02
 21
2.23714265E+02
  0
LINE
  8
0
 62
7
 10
-1.60121943E+02
 20
2.52315117E+02
 11
-1.60121943E+02
 21
2.51141655E+02
  0
LINE
  8
0
 62
7
 10
-1.59421931E+02
 20
2.60390220E+02
 11
-1.59421931E+02
 21
2.88390220E+02
  0
LINE
  8
0
 62
7
 10
-1.59421931E+02
 20
2.60390220E+02
 11
-1.62421931E+02
 21
2.60390220E+02
  0
LINE
  8
0
 62
7
 10
-1.59421931E+02
 20
2.20390220E+02
 11
-1.62421931E+02
 21
2.20390220E+02
  0
LINE
  8
0
 62
7
 10
-1.62421953E+02
 20
2.57390194E+02
 11
-1.60584245E+02
 21
2.57066157E+02
  0
LINE
  8
0
 62
7
 10
-1.62421931E+02
 20
2.23390220E+02
 11
-1.62421931E+02
 21
2.20390220E+02
  0
LINE
  8
0
 62
7
 10
-1.62595588E+02
 20
2.30494513E+02
 11
-1.60535119E+02
 21
2.30131197E+02
  0
LINE
  8
0
 62
7
 10
-1.60121943E+02
 20
2.37141655E+02
 11
-1.60121943E+02
 21
2.38315117E+02
  0
LINE
  8
0
 62
7
 10
-1.63421931E+02
 20
2.45479332E+02
 11
-1.63421931E+02
 21
2.49301109E+02
  0
LINE
  8
0
 62
7
 10
-4.94421931E+02
 20
2.36890220E+02
 11
-4.63421931E+02
 21
2.36890220E+02
  0
LINE
  8
0
 62
7
 10
-4.94421931E+02
 20
2.43890220E+02
 11
-4.63421931E+02
 21
2.43890220E+02
  0
LINE
  8
0
 62
7
 10
-4.63421931E+02
 20
2.91390220E+02
 11
-4.63421931E+02
 21
1.89390220E+02
  0
LINE
  8
0
 62
7
 10
-4.94421931E+02
 20
2.89390220E+02
 11
-4.94421931E+02
 21
1.91390220E+02
  0
LINE
  8
0
 62
7
 10
-1.18421931E+02
 20
2.36890220E+02
 11
-1.49421931E+02
 21
2.36890220E+02
  0
LINE
  8
0
 62
7
 10
-1.18421931E+02
 20
2.43890220E+02
 11
-1.49421931E+02
 21
2.43890220E+02
  0
LINE
  8
0
 62
7
 10
-1.49421931E+02
 20
1.89390220E+02
 11
-1.20421931E+02
 21
1.89390220E+02
  0
LINE
  8
0
 62
7
 10
-1.49421931E+02
 20
2.91390220E+02
 11
-1.20421931E+02
 21
2.91390220E+02
  0
LINE
  8
0
 62
7
 10
-1.49421931E+02
 20
2.91390220E+02
 11
-1.49421931E+02
 21
1.89390220E+02
  0
LINE
  8
0
 62
7
 10
-1.18421931E+02
 20
2.89390220E+02
 11
-1.18421931E+02
 21
1.91390220E+02
  0
LINE
  8
0
 62
7
 10
-4.92421931E+02
 20
1.89390220E+02
 11
-1.49421931E+02
 21
1.89390220E+02
  0
LINE
  8
0
 62
7
 10
-4.53421931E+02
 20
1.93390220E+02
 11
-1.59421931E+02
 21
1.93390220E+02
  0
LINE
  8
0
 62
7
 10
-4.53421931E+02
 20
1.96390220E+02
 11
-1.59421931E+02
 21
1.96390220E+02
  0
LINE
  8
0
 62
7
 10
-4.53421931E+02
 20
2.84390220E+02
 11
-1.59421931E+02
 21
2.84390220E+02
  0
LINE
  8
0
 62
7
 10
-4.53421931E+02
 20
2.87390220E+02
 11
-1.59421931E+02
 21
2.87390220E+02
  0
LINE
  8
0
 62
7
 10
-2.65421931E+02
 20
2.58390220E+02
 11
-2.65421931E+02
 21
2.63390220E+02
  0
LINE
  8
0
 62
7
 10
-2.65421931E+02
 20
2.58390220E+02
 11
-2.64421931E+02
 21
2.58390220E+02
  0
LINE
  8
0
 62
7
 10
-4.47421931E+02
 20
2.22390220E+02
 11
-4.47421931E+02
 21
2.17390220E+02
  0
LINE
  8
0
  6
CENTER
 62
2
 10
-3.56421931E+02
 20
3.01370599E+02
 11
-3.56421931E+02
 21
1.80452304E+02
  0
LINE
  8
0
 62
7
 10
-4.35421931E+02
 20
2.05390220E+02
 11
-2.77421931E+02
 21
2.05390220E+02
  0
LINE
  8
0
 62
7
 10
-4.47421931E+02
 20
2.22390220E+02
 11
-4.48421931E+02
 21
2.22390220E+02
  0
LINE
  8
0
 62
7
 10
-2.64421931E+02
 20
2.22390220E+02
 11
-2.64421931E+02
 21
2.58390220E+02
  0
LINE
  8
0
 62
7
 10
-4.47421931E+02
 20
2.58390220E+02
 11
-4.47421931E+02
 21
2.63390220E+02
  0
LINE
  8
0
 62
7
 10
-4.47421931E+02
 20
2.58390220E+02
 11
-4.48421931E+02
 21
2.58390220E+02
  0
LINE
  8
0
 62
7
 10
-2.74421931E+02
 20
2.31190223E+02
 11
-2.74421931E+02
 21
2.49590217E+02
  0
LINE
  8
0
 62
7
 10
-2.65421931E+02
 20
2.22390220E+02
 11
-2.64421931E+02
 21
2.22390220E+02
  0
LINE
  8
0
 62
7
 10
-2.75421931E+02
 20
2.30190223E+02
 11
-4.38421931E+02
 21
2.30190223E+02
  0
LINE
  8
0
 62
7
 10
-4.35421931E+02
 20
2.75390220E+02
 11
-2.77421931E+02
 21
2.75390220E+02
  0
LINE
  8
0
 62
7
 10
-2.75421931E+02
 20
2.50590217E+02
 11
-4.38421931E+02
 21
2.50590217E+02
  0
LINE
  8
0
 62
7
 10
-4.39421931E+02
 20
2.31190223E+02
 11
-4.39421931E+02
 21
2.49590217E+02
  0
LINE
  8
0
 62
7
 10
-2.65421931E+02
 20
2.22390220E+02
 11
-2.65421931E+02
 21
2.17390220E+02
  0
LINE
  8
0
 62
7
 10
-2.64421931E+02
 20
2.48890220E+02
 11
-1.63421931E+02
 21
2.48890220E+02
  0
LINE
  8
0
  6
PHANTOM
 10
-2.36921931E+02
 20
-1.85632470E+02
 11
-2.36921931E+02
 21
-3.16267324E+02
  0
LINE
  8
0
 62
7
 10
-4.48422022E+02
 20
-2.37877694E+02
 11
-2.64422022E+02
 21
-2.37877694E+02
  0
LINE
  8
0
 62
4
 10
-4.94421931E+02
 20
-3.09877694E+02
 11
-4.02885511E+02
 21
-3.09877694E+02
  0
LINE
  8
0
 62
4
 10
-4.81507090E+02
 20
-2.70877694E+02
 11
-4.93422022E+02
 21
-2.70877694E+02
  0
LINE
  8
0
 62
4
 10
-4.91291254E+02
 20
-2.08877694E+02
 11
-4.54878191E+02
 21
-2.08877694E+02
  0
LINE
  8
0
  6
DASHED
 62
6
 10
-4.53772822E+02
 20
-2.13877694E+02
 11
-4.94422022E+02
 21
-2.13877694E+02
  0
LINE
  8
0
  6
DASHED
 62
6
 10
-4.53746638E+02
 20
-2.14627694E+02
 11
-4.94422022E+02
 21
-2.14627694E+02
  0
LINE
  8
0
  6
DASHED
 62
6
 10
-4.53004565E+02
 20
-2.35877694E+02
 11
-4.94422022E+02
 21
-2.35877694E+02
  0
LINE
  8
0
  6
DASHED
 62
6
 10
-4.53030756E+02
 20
-2.35127694E+02
 11
-4.94422022E+02
 21
-2.35127694E+02
  0
LINE
  8
0
 62
4
 10
-4.41267321E+02
 20
-2.65877694E+02
 11
-4.04422022E+02
 21
-2.65877694E+02
  0
LINE
  8
0
 62
4
 10
-4.42999368E+02
 20
-2.64877694E+02
 11
-4.52284286E+02
 21
-2.48795745E+02
  0
LINE
  8
0
 62
4
 10
-4.94395147E+02
 20
-2.70107986E+02
 11
-4.92290641E+02
 21
-2.09842801E+02
  0
LINE
  8
0
 62
4
 10
-4.92290644E+02
 20
-2.09842797E+02
 11
-4.94421931E+02
 21
-2.09842797E+02
  0
LINE
  8
0
 62
4
 10
-4.04422025E+02
 20
-2.65877702E+02
 11
-4.02885511E+02
 21
-3.09877708E+02
  0
LINE
  8
0
 62
4
 10
-4.52551014E+02
 20
-2.47865544E+02
 11
-4.53878797E+02
 21
-2.09842799E+02
  0
LINE
  8
0
 62
4
 10
-2.72922022E+02
 20
-2.26877694E+02
 11
-4.39922022E+02
 21
-2.26877694E+02
  0
LINE
  8
0
 62
4
 10
-2.72922022E+02
 20
-2.17877694E+02
 11
-4.39922022E+02
 21
-2.17877694E+02
  0
LINE
  8
0
 62
4
 10
-2.72922022E+02
 20
-2.18377694E+02
 11
-4.39922022E+02
 21
-2.18377694E+02
  0
LINE
  8
0
 62
4
 10
-2.72922022E+02
 20
-2.26377694E+02
 11
-4.39922022E+02
 21
-2.26377694E+02
  0
LINE
  8
0
 62
4
 10
-2.65404505E+02
 20
-2.31228547E+02
 11
-2.72922022E+02
 21
-2.31228547E+02
  0
LINE
  8
0
 62
4
 10
-2.65404505E+02
 20
-2.12175988E+02
 11
-2.72922022E+02
 21
-2.12175988E+02
  0
LINE
  8
0
 62
4
 10
-2.65404505E+02
 20
-2.37579400E+02
 11
-2.72922022E+02
 21
-2.37579400E+02
  0
LINE
  8
0
 62
4
 10
-2.64422022E+02
 20
-2.13877694E+02
 11
-2.64422022E+02
 21
-2.35877694E+02
  0
LINE
  8
0
 62
4
 10
-4.39922022E+02
 20
-2.06877694E+02
 11
-4.39922022E+02
 21
-2.37877694E+02
  0
LINE
  8
0
 62
4
 10
-4.39922022E+02
 20
-2.06877694E+02
 11
-2.72922022E+02
 21
-2.06877694E+02
  0
LINE
  8
0
 62
4
 10
-2.72922022E+02
 20
-2.06877694E+02
 11
-2.72922022E+02
 21
-2.37877694E+02
  0
LINE
  8
0
 62
4
 10
-4.48422022E+02
 20
-2.13877694E+02
 11
-4.48422022E+02
 21
-2.35877694E+02
  0
LINE
  8
0
 62
4
 10
-4.47439539E+02
 20
-2.37579400E+02
 11
-4.39922022E+02
 21
-2.37579400E+02
  0
LINE
  8
0
 62
4
 10
-4.47439539E+02
 20
-2.12175988E+02
 11
-4.39922022E+02
 21
-2.12175988E+02
  0
LINE
  8
0
 62
4
 10
-4.47439539E+02
 20
-2.31228547E+02
 11
-4.39922022E+02
 21
-2.31228547E+02
  0
LINE
  8
0
 62
4
 10
-4.47439539E+02
 20
-2.18526841E+02
 11
-4.39922022E+02
 21
-2.18526841E+02
  0
LINE
  8
0
 62
4
 10
-4.48422019E+02
 20
-2.13877692E+02
 11
-4.47439540E+02
 21
-2.12175989E+02
  0
LINE
  8
0
 62
4
 10
-2.65404505E+02
 20
-2.18526841E+02
 11
-2.72922022E+02
 21
-2.18526841E+02
  0
LINE
  8
0
 62
4
 10
-4.48422026E+02
 20
-2.35877695E+02
 11
-4.47439545E+02
 21
-2.37579402E+02
  0
LINE
  8
0
 62
4
 10
-2.64422020E+02
 20
-2.35877699E+02
 11
-2.65404499E+02
 21
-2.37579403E+02
  0
LINE
  8
0
 62
4
 10
-2.64422028E+02
 20
-2.13877685E+02
 11
-2.65404507E+02
 21
-2.12175981E+02
  0
LINE
  8
0
 62
4
 10
-5.48422022E+02
 20
-2.14877694E+02
 11
-5.48422022E+02
 21
-2.24227693E+02
  0
LINE
  8
0
 62
4
 10
-5.46422022E+02
 20
-2.14877694E+02
 11
-5.46422022E+02
 21
-2.34877694E+02
  0
LINE
  8
0
 62
6
 10
-5.45422022E+02
 20
-2.13877694E+02
 11
-5.45422022E+02
 21
-2.35877694E+02
  0
LINE
  8
0
  6
DASHED
 62
6
 10
-4.53922022E+02
 20
-2.13877694E+02
 11
-4.53922022E+02
 21
-2.35877694E+02
  0
LINE
  8
0
  6
CENTER
 62
6
 10
-4.20741335E+02
 20
-2.24877694E+02
 11
-5.52367411E+02
 21
-2.24877694E+02
  0
LINE
  8
0
  6
PHANTOM
 62
6
 10
-4.23422022E+02
 20
-2.21877694E+02
 11
-4.23422022E+02
 21
-2.27877694E+02
  0
LINE
  8
0
 62
4
 10
-5.48422022E+02
 20
-2.25527696E+02
 11
-5.48422022E+02
 21
-2.34877694E+02
  0
LINE
  8
0
 62
4
 10
-5.46922022E+02
 20
-2.24227693E+02
 11
-5.46922022E+02
 21
-2.25527696E+02
  0
LINE
  8
0
 62
4
 10
-4.52922022E+02
 20
-2.14877694E+02
 11
-4.48422022E+02
 21
-2.14877694E+02
  0
LINE
  8
0
 62
4
 10
-5.46422022E+02
 20
-2.14877694E+02
 11
-5.48422022E+02
 21
-2.14877694E+02
  0
LINE
  8
0
 62
4
 10
-5.46422022E+02
 20
-2.34877694E+02
 11
-5.48422022E+02
 21
-2.34877694E+02
  0
LINE
  8
0
 62
4
 10
-4.52922022E+02
 20
-2.34877694E+02
 11
-4.48422022E+02
 21
-2.34877694E+02
  0
LINE
  8
0
 62
4
 10
-5.46422028E+02
 20
-2.34877703E+02
 11
-5.45422027E+02
 21
-2.35877704E+02
  0
LINE
  8
0
 62
4
 10
-5.45422028E+02
 20
-2.13877702E+02
 11
-5.46422029E+02
 21
-2.14877703E+02
  0
LINE
  8
0
  6
PHANTOM
 62
6
 10
-4.23422022E+02
 20
-2.27877694E+02
 11
-4.48422022E+02
 21
-2.27877694E+02
  0
LINE
  8
0
 62
4
 10
-5.46922022E+02
 20
-2.25527696E+02
 11
-5.48422022E+02
 21
-2.25527696E+02
  0
LINE
  8
0
  6
DASHED
 62
6
 10
-4.53922023E+02
 20
-2.13877697E+02
 11
-4.53731239E+02
 21
-2.14068482E+02
  0
LINE
  8
0
  6
PHANTOM
 62
6
 10
-4.23422022E+02
 20
-2.21877694E+02
 11
-4.48422022E+02
 21
-2.21877694E+02
  0
LINE
  8
0
 62
4
 10
-4.52922022E+02
 20
-2.14877694E+02
 11
-4.52922022E+02
 21
-2.34877694E+02
  0
LINE
  8
0
 62
4
 10
-5.46922022E+02
 20
-2.24227693E+02
 11
-5.48422022E+02
 21
-2.24227693E+02
  0
LINE
  8
0
 62
4
 10
-5.03422022E+02
 20
-2.09289239E+02
 11
-5.03422022E+02
 21
-2.40466149E+02
  0
LINE
  8
0
 62
4
 10
-4.95922022E+02
 20
-2.09289239E+02
 11
-5.03422022E+02
 21
-2.09289239E+02
  0
LINE
  8
0
 62
4
 10
-4.95922022E+02
 20
-2.17083466E+02
 11
-5.03422022E+02
 21
-2.17083466E+02
  0
LINE
  8
0
 62
4
 10
-4.95922022E+02
 20
-2.32671922E+02
 11
-5.03422022E+02
 21
-2.32671922E+02
  0
LINE
  8
0
 62
4
 10
-4.95922022E+02
 20
-2.40466149E+02
 11
-5.03422022E+02
 21
-2.40466149E+02
  0
LINE
  8
0
 62
4
 10
-5.03422022E+02
 20
-2.35877694E+02
 11
-5.45422022E+02
 21
-2.35877694E+02
  0
LINE
  8
0
 62
6
 10
-5.03422022E+02
 20
-2.35127694E+02
 11
-5.46172022E+02
 21
-2.35127694E+02
  0
LINE
  8
0
 62
6
 10
-5.03422022E+02
 20
-2.14627694E+02
 11
-5.46172022E+02
 21
-2.14627694E+02
  0
LINE
  8
0
 62
4
 10
-5.03422022E+02
 20
-2.13877694E+02
 11
-5.45422022E+02
 21
-2.13877694E+02
  0
LINE
  8
0
 62
4
 10
-4.53731239E+02
 20
-2.14068482E+02
 11
-4.52922025E+02
 21
-2.14877696E+02
  0
LINE
  8
0
 62
7
 10
-4.47618166E+02
 20
-2.56877694E+02
 11
-1.65225691E+02
 21
-2.56877694E+02
  0
LINE
  8
0
 62
7
 10
-4.46618166E+02
 20
-2.58609742E+02
 11
-1.66225690E+02
 21
-2.58609742E+02
  0
LINE
  8
0
 62
7
 10
-4.37783930E+02
 20
-2.61627694E+02
 11
-1.67968105E+02
 21
-2.61627694E+02
  0
LINE
  8
0
 62
7
 10
-4.37783930E+02
 20
-2.64127694E+02
 11
-1.69411481E+02
 21
-2.64127694E+02
  0
LINE
  8
0
 62
7
 10
-4.04212500E+02
 20
-2.71877694E+02
 11
-2.08631361E+02
 21
-2.71877694E+02
  0
LINE
  8
0
 62
7
 10
-4.03954089E+02
 20
-2.79277688E+02
 11
-2.08889774E+02
 21
-2.79277688E+02
  0
LINE
  8
0
 62
7
 10
-4.03842341E+02
 20
-2.82477700E+02
 11
-2.09001521E+02
 21
-2.82477700E+02
  0
LINE
  8
0
 62
7
 10
-4.03269640E+02
 20
-2.98877694E+02
 11
-2.09574222E+02
 21
-2.98877694E+02
  0
LINE
  8
0
 62
7
 10
-4.03102019E+02
 20
-3.03677697E+02
 11
-2.09741841E+02
 21
-3.03677697E+02
  0
LINE
  8
0
  6
CENTER
 62
6
 10
-4.81783930E+02
 20
-2.75877694E+02
 11
-4.81783930E+02
 21
-2.97877694E+02
  0
LINE
  8
0
  6
CENTER
 62
6
 10
-4.70783930E+02
 20
-2.86877694E+02
 11
-4.92783930E+02
 21
-2.86877694E+02
  0
LINE
  8
0
 62
7
 10
-4.37783930E+02
 20
-2.58877694E+02
 11
-4.46463465E+02
 21
-2.58877694E+02
  0
LINE
  8
0
 62
4
 10
-4.50783930E+02
 20
-2.41877694E+02
 11
-4.52760119E+02
 21
-2.41877694E+02
  0
LINE
  8
0
 62
7
 10
-4.37783930E+02
 20
-2.65877694E+02
 11
-4.37783930E+02
 21
-2.58877694E+02
  0
LINE
  8
0
 62
4
 10
-4.50783930E+02
 20
-2.41877694E+02
 11
-4.50783930E+02
 21
-2.51394425E+02
  0
LINE
  8
0
 62
4
 10
-4.51783930E+02
 20
-2.41877694E+02
 11
-4.51783930E+02
 21
-2.49662377E+02
  0
LINE
  8
0
 62
7
 10
-3.56422022E+02
 20
-2.51377694E+02
 11
-2.64422022E+02
 21
-2.51377694E+02
  0
LINE
  8
0
 62
7
 10
-2.64422022E+02
 20
-2.37877694E+02
 11
-2.64422022E+02
 21
-2.51377694E+02
  0
LINE
  8
0
 62
7
 10
-2.64922022E+02
 20
-2.52002694E+02
 11
-2.64922022E+02
 21
-2.54914704E+02
  0
LINE
  8
0
 62
7
 10
-2.63022043E+02
 20
-2.56300340E+02
 11
-2.64672032E+02
 21
-2.55347719E+02
  0
LINE
  8
0
 62
7
 10
-2.63022028E+02
 20
-2.56877694E+02
 11
-2.63022028E+02
 21
-2.56300347E+02
  0
LINE
  8
0
 62
7
 10
-2.64922022E+02
 20
-2.55203385E+02
 11
-3.56422022E+02
 21
-2.55203385E+02
  0
LINE
  8
0
 62
7
 10
-2.63022028E+02
 20
-2.56300347E+02
 11
-3.56422022E+02
 21
-2.56300347E+02
  0
LINE
  8
0
 62
7
 10
-2.65366801E+02
 20
-2.51578156E+02
 11
-3.56422022E+02
 21
-2.51578156E+02
  0
LINE
  8
0
 62
7
 10
-3.56422022E+02
 20
-2.51377694E+02
 11
-4.48422022E+02
 21
-2.51377694E+02
  0
LINE
  8
0
 62
7
 10
-4.47922022E+02
 20
-2.52002694E+02
 11
-4.47922022E+02
 21
-2.54914704E+02
  0
LINE
  8
0
 62
7
 10
-4.48419130E+02
 20
-2.55490392E+02
 11
-4.48172018E+02
 21
-2.55347722E+02
  0
LINE
  8
0
 62
7
 10
-4.47951495E+02
 20
-2.56300347E+02
 11
-3.56422022E+02
 21
-2.56300347E+02
  0
LINE
  8
0
 62
7
 10
-4.47922022E+02
 20
-2.55203385E+02
 11
-3.56422022E+02
 21
-2.55203385E+02
  0
LINE
  8
0
 62
7
 10
-4.47477244E+02
 20
-2.51578156E+02
 11
-3.56422022E+02
 21
-2.51578156E+02
  0
LINE
  8
0
 62
7
 10
-4.48422022E+02
 20
-2.51377694E+02
 11
-4.48422022E+02
 21
-2.37877694E+02
  0
LINE
  8
0
 62
4
 10
-4.65509524E+02
 20
-2.86598455E+02
 11
-4.65103184E+02
 21
-3.09877700E+02
  0
ARC
  8
0
 62
4
 10
-4.41267321E+02
 20
-2.63877694E+02
 40
2.00000000E+00
 50
2.10000001E+02
 51
2.70000000E+02
  0
ARC
  8
0
 62
4
 10
-4.54878191E+02
 20
-2.09877694E+02
 40
1.00000000E+00
 50
1.99999732E+00
 51
9.00000002E+01
  0
ARC
  8
0
 62
4
 10
-4.91291254E+02
 20
-2.09877694E+02
 40
1.00000000E+00
 50
9.00000002E+01
 51
1.78000000E+02
  0
ARC
  8
0
 62
4
 10
-4.93422022E+02
 20
-2.69877694E+02
 40
1.00000000E+00
 50
1.80000000E+02
 51
2.70000000E+02
  0
ARC
  8
0
 62
4
 10
-4.50552241E+02
 20
-2.47795747E+02
 40
2.00000000E+00
 50
1.82000000E+02
 51
2.10000001E+02
  0
ARC
  8
0
 62
4
 10
-2.70044833E+02
 20
-2.15351418E+02
 40
5.62280989E+00
 50
3.25615757E+02
 51
8.65218100E-06
  0
ARC
  8
0
 62
4
 10
-2.69987742E+02
 20
-2.34386308E+02
 40
5.56574440E+00
 50
3.59999995E+02
 51
3.45660934E+01
  0
ARC
  8
0
 62
4
 10
-4.27404505E+02
 20
-2.24877694E+02
 40
2.10175190E+01
 50
1.62412046E+02
 51
1.97587955E+02
  0
ARC
  8
0
 62
4
 10
-4.42856303E+02
 20
-2.34386308E+02
 40
5.56574440E+00
 50
1.45433905E+02
 51
1.80000000E+02
  0
ARC
  8
0
 62
4
 10
-4.42799220E+02
 20
-2.15351418E+02
 40
5.62280989E+00
 50
1.80000000E+02
 51
2.14384248E+02
  0
ARC
  8
0
 62
4
 10
-5.00230998E+02
 20
-2.36569039E+02
 40
5.80988264E+00
 50
3.17873219E+02
 51
4.21267850E+01
  0
ARC
  8
0
 62
4
 10
-5.15422022E+02
 20
-2.24877694E+02
 40
2.10000000E+01
 50
3.38213208E+02
 51
2.17867958E+01
  0
ARC
  8
0
 62
4
 10
-5.00230998E+02
 20
-2.13186349E+02
 40
5.80988264E+00
 50
3.17873219E+02
 51
4.21267850E+01
  0
CIRCLE
  8
0
 62
6
 10
-4.81783930E+02
 20
-2.86877694E+02
 40
8.30000019E+00
  0
CIRCLE
  8
0
 62
4
 10
-4.81783930E+02
 20
-2.86877694E+02
 40
7.25000000E+00
  0
CIRCLE
  8
0
 62
4
 10
-4.81783930E+02
 20
-2.86877694E+02
 40
1.00000000E+01
  0
ARC
  8
0
 62
7
 10
-2.66997035E+02
 20
-2.51802697E+02
 40
4.25000012E-01
 50
3.18923885E+01
 51
9.00000002E+01
  0
ARC
  8
0
 62
7
 10
-2.65347010E+02
 20
-2.52002694E+02
 40
4.25000012E-01
 50
3.59999995E+02
 51
9.00000002E+01
  0
ARC
  8
0
 62
7
 10
-2.64422022E+02
 20
-2.54914704E+02
 40
5.00000000E-01
 50
2.02226040E+02
 51
2.40000001E+02
  0
ARC
  8
0
 62
7
 10
-4.45847010E+02
 20
-2.51802697E+02
 40
4.25000012E-01
 50
9.00000002E+01
 51
1.48107610E+02
  0
ARC
  8
0
 62
7
 10
-4.47497035E+02
 20
-2.52002694E+02
 40
4.25000012E-01
 50
9.00000002E+01
 51
1.80000005E+02
  0
ARC
  8
0
 62
7
 10
-4.48422022E+02
 20
-2.54914704E+02
 40
5.00000000E-01
 50
3.00000003E+02
 51
3.37773955E+02
  0
ARC
  8
0
 62
4
 10
-4.81507090E+02
 20
-2.86877694E+02
 40
1.60000000E+01
 50
1.00000299E+00
 51
9.00000002E+01
  0
LINE
  8
0
 62
7
 10
-4.02885511E+02
 20
-3.09877694E+02
 11
-2.09958350E+02
 21
-3.09877694E+02
  0
LINE
  8
0
 62
4
 10
-4.52922021E+02
 20
-2.34877694E+02
 11
-4.53001774E+02
 21
-2.34957447E+02
  0
LINE
  8
0
  6
DASHED
 62
6
 10
-4.53001774E+02
 20
-2.34957447E+02
 11
-4.53922026E+02
 21
-2.35877698E+02
  0
LINE
  8
0
 62
4
 10
-1.18421931E+02
 20
-3.09877694E+02
 11
-2.09958350E+02
 21
-3.09877694E+02
  0
LINE
  8
0
 62
4
 10
-1.21552607E+02
 20
-2.08877694E+02
 11
-1.57965670E+02
 21
-2.08877694E+02
  0
LINE
  8
0
  6
DASHED
 62
6
 10
-1.59071040E+02
 20
-2.13877694E+02
 11
-1.18421839E+02
 21
-2.13877694E+02
  0
LINE
  8
0
  6
DASHED
 62
6
 10
-1.59097224E+02
 20
-2.14627694E+02
 11
-1.18421839E+02
 21
-2.14627694E+02
  0
LINE
  8
0
  6
DASHED
 62
6
 10
-1.59839297E+02
 20
-2.35877694E+02
 11
-1.18421839E+02
 21
-2.35877694E+02
  0
LINE
  8
0
  6
DASHED
 62
6
 10
-1.59813105E+02
 20
-2.35127694E+02
 11
-1.18421839E+02
 21
-2.35127694E+02
  0
LINE
  8
0
  6
CENTER
 62
6
 10
-1.92102526E+02
 20
-2.24877694E+02
 11
-6.04764504E+01
 21
-2.24877694E+02
  0
ARC
  8
0
 62
4
 10
-1.31336771E+02
 20
-2.86877694E+02
 40
1.60000000E+01
 50
9.00000002E+01
 51
1.78999997E+02
  0
CIRCLE
  8
0
 62
4
 10
-1.31059931E+02
 20
-2.86877694E+02
 40
1.00000000E+01
  0
CIRCLE
  8
0
 62
4
 10
-1.31059931E+02
 20
-2.86877694E+02
 40
7.25000000E+00
  0
CIRCLE
  8
0
 62
6
 10
-1.31059931E+02
 20
-2.86877694E+02
 40
8.30000019E+00
  0
ARC
  8
0
 62
4
 10
-1.12612864E+02
 20
-2.13186349E+02
 40
5.80988264E+00
 50
1.37873215E+02
 51
2.22126781E+02
  0
ARC
  8
0
 62
4
 10
-9.74218392E+01
 20
-2.24877694E+02
 40
2.10000000E+01
 50
1.58213204E+02
 51
2.01786792E+02
  0
ARC
  8
0
 62
4
 10
-1.12612864E+02
 20
-2.36569039E+02
 40
5.80988264E+00
 50
1.37873215E+02
 51
2.22126781E+02
  0
ARC
  8
0
  6
DASHED
 62
2
 10
-1.19421839E+02
 20
-2.39877694E+02
 40
1.00000000E+00
 50
2.70000000E+02
 51
7.58854903E-10
  0
ARC
  8
0
 62
4
 10
-1.19421839E+02
 20
-2.69877694E+02
 40
1.00000000E+00
 50
2.70000000E+02
 51
7.58854903E-10
  0
ARC
  8
0
 62
4
 10
-1.21552607E+02
 20
-2.09877694E+02
 40
1.00000000E+00
 50
1.99999999E+00
 51
9.00000002E+01
  0
LINE
  8
0
 62
4
 10
-1.47334337E+02
 20
-2.86598455E+02
 11
-1.47740678E+02
 21
-3.09877700E+02
  0
LINE
  8
0
  6
CENTER
 62
6
 10
-1.42059931E+02
 20
-2.86877694E+02
 11
-1.20059931E+02
 21
-2.86877694E+02
  0
LINE
  8
0
  6
CENTER
 62
6
 10
-1.31059931E+02
 20
-2.75877694E+02
 11
-1.31059931E+02
 21
-2.97877694E+02
  0
LINE
  8
0
 62
4
 10
-1.09421839E+02
 20
-2.13877694E+02
 11
-6.74218392E+01
 21
-2.13877694E+02
  0
LINE
  8
0
 62
6
 10
-1.09421839E+02
 20
-2.14627694E+02
 11
-6.66718392E+01
 21
-2.14627694E+02
  0
LINE
  8
0
 62
6
 10
-1.09421839E+02
 20
-2.35127694E+02
 11
-6.66718392E+01
 21
-2.35127694E+02
  0
LINE
  8
0
 62
4
 10
-1.09421839E+02
 20
-2.35877694E+02
 11
-6.74218392E+01
 21
-2.35877694E+02
  0
LINE
  8
0
 62
4
 10
-1.16921839E+02
 20
-2.40466149E+02
 11
-1.09421839E+02
 21
-2.40466149E+02
  0
LINE
  8
0
 62
4
 10
-1.16921839E+02
 20
-2.32671922E+02
 11
-1.09421839E+02
 21
-2.32671922E+02
  0
LINE
  8
0
 62
4
 10
-1.16921839E+02
 20
-2.17083466E+02
 11
-1.09421839E+02
 21
-2.17083466E+02
  0
LINE
  8
0
 62
4
 10
-1.16921839E+02
 20
-2.09289239E+02
 11
-1.09421839E+02
 21
-2.09289239E+02
  0
LINE
  8
0
 62
4
 10
-1.09421839E+02
 20
-2.09289239E+02
 11
-1.09421839E+02
 21
-2.40466149E+02
  0
LINE
  8
0
 62
4
 10
-6.59218392E+01
 20
-2.24227693E+02
 11
-6.44218392E+01
 21
-2.24227693E+02
  0
LINE
  8
0
 62
4
 10
-6.59218392E+01
 20
-2.25527696E+02
 11
-6.44218392E+01
 21
-2.25527696E+02
  0
LINE
  8
0
 62
4
 10
-6.74218336E+01
 20
-2.13877702E+02
 11
-6.64218325E+01
 21
-2.14877703E+02
  0
LINE
  8
0
 62
4
 10
-6.64218334E+01
 20
-2.34877703E+02
 11
-6.74218345E+01
 21
-2.35877704E+02
  0
LINE
  8
0
 62
4
 10
-6.64218392E+01
 20
-2.34877694E+02
 11
-6.44218392E+01
 21
-2.34877694E+02
  0
LINE
  8
0
 62
4
 10
-6.64218392E+01
 20
-2.14877694E+02
 11
-6.44218392E+01
 21
-2.14877694E+02
  0
LINE
  8
0
 62
4
 10
-6.59218392E+01
 20
-2.24227693E+02
 11
-6.59218392E+01
 21
-2.25527696E+02
  0
LINE
  8
0
 62
4
 10
-6.44218392E+01
 20
-2.25527696E+02
 11
-6.44218392E+01
 21
-2.34877694E+02
  0
LINE
  8
0
 62
6
 10
-6.74218392E+01
 20
-2.13877694E+02
 11
-6.74218392E+01
 21
-2.35877694E+02
  0
LINE
  8
0
 62
4
 10
-6.64218392E+01
 20
-2.14877694E+02
 11
-6.64218392E+01
 21
-2.34877694E+02
  0
LINE
  8
0
 62
4
 10
-6.44218392E+01
 20
-2.14877694E+02
 11
-6.44218392E+01
 21
-2.24227693E+02
  0
LINE
  8
0
 62
4
 10
-1.20553217E+02
 20
-2.09842797E+02
 11
-1.18421931E+02
 21
-2.09842797E+02
  0
LINE
  8
0
 62
4
 10
-1.18448714E+02
 20
-2.70107986E+02
 11
-1.20553221E+02
 21
-2.09842801E+02
  0
LINE
  8
0
 62
4
 10
-1.31336771E+02
 20
-2.70877694E+02
 11
-1.19421839E+02
 21
-2.70877694E+02
  0
LINE
  8
0
 62
4
 10
-2.08421837E+02
 20
-2.65877702E+02
 11
-2.09958351E+02
 21
-3.09877708E+02
  0
LINE
  8
0
 62
4
 10
-1.71576540E+02
 20
-2.65877694E+02
 11
-2.08421839E+02
 21
-2.65877694E+02
  0
LINE
  8
0
 62
4
 10
-1.69844494E+02
 20
-2.64877694E+02
 11
-1.60559576E+02
 21
-2.48795745E+02
  0
ARC
  8
0
 62
4
 10
-1.71576540E+02
 20
-2.63877694E+02
 40
2.00000000E+00
 50
2.70000000E+02
 51
3.29999999E+02
  0
LINE
  8
0
 62
4
 10
-1.60292848E+02
 20
-2.47865544E+02
 11
-1.58965064E+02
 21
-2.09842799E+02
  0
ARC
  8
0
 62
4
 10
-1.62291621E+02
 20
-2.47795747E+02
 40
2.00000000E+00
 50
3.29999999E+02
 51
3.58000000E+02
  0
LINE
  8
0
 62
4
 10
-1.61059931E+02
 20
-2.41877694E+02
 11
-1.61059931E+02
 21
-2.49662377E+02
  0
LINE
  8
0
 62
4
 10
-1.62059931E+02
 20
-2.41877694E+02
 11
-1.62059931E+02
 21
-2.51394425E+02
  0
LINE
  8
0
 62
4
 10
-1.62059931E+02
 20
-2.41877694E+02
 11
-1.60083743E+02
 21
-2.41877694E+02
  0
LINE
  8
0
  6
DASHED
 62
6
 10
-1.58921839E+02
 20
-2.13877694E+02
 11
-1.58921839E+02
 21
-2.35877694E+02
  0
LINE
  8
0
 62
4
 10
-1.59921839E+02
 20
-2.14877694E+02
 11
-1.59921839E+02
 21
-2.34877694E+02
  0
LINE
  8
0
 62
4
 10
-1.59921839E+02
 20
-2.14877694E+02
 11
-1.64421839E+02
 21
-2.14877694E+02
  0
ARC
  8
0
 62
4
 10
-1.57965670E+02
 20
-2.09877694E+02
 40
1.00000000E+00
 50
9.00000002E+01
 51
1.78000003E+02
  0
LINE
  8
0
 62
4
 10
-1.59112623E+02
 20
-2.14068482E+02
 11
-1.59921837E+02
 21
-2.14877696E+02
  0
LINE
  8
0
  6
DASHED
 62
6
 10
-1.58921838E+02
 20
-2.13877697E+02
 11
-1.59112623E+02
 21
-2.14068482E+02
  0
LINE
  8
0
 62
4
 10
-1.59921839E+02
 20
-2.34877694E+02
 11
-1.64421839E+02
 21
-2.34877694E+02
  0
LINE
  8
0
  6
DASHED
 62
6
 10
-1.59842087E+02
 20
-2.34957447E+02
 11
-1.58921836E+02
 21
-2.35877698E+02
  0
LINE
  8
0
 62
4
 10
-1.59921840E+02
 20
-2.34877694E+02
 11
-1.59842087E+02
 21
-2.34957447E+02
  0
LINE
  8
0
 62
4
 10
-1.89421839E+02
 20
-2.27877694E+02
 11
-1.64421839E+02
 21
-2.27877694E+02
  0
LINE
  8
0
 62
4
 10
-1.89421839E+02
 20
-2.21877694E+02
 11
-1.64421839E+02
 21
-2.21877694E+02
  0
LINE
  8
0
 62
4
 10
-1.89421839E+02
 20
-2.21877694E+02
 11
-1.89421839E+02
 21
-2.27877694E+02
  0
LINE
  8
0
 62
4
 10
-1.64421839E+02
 20
-2.34877694E+02
 11
-1.64421839E+02
 21
-2.14877694E+02
  0
ARC
  8
0
 62
4
 10
-2.85439547E+02
 20
-2.24877694E+02
 40
2.10175190E+01
 50
3.42412053E+02
 51
1.75879507E+01
  0
LINE
  8
0
 62
4
 10
-4.94421931E+02
 20
-3.09877694E+02
 11
-4.94421931E+02
 21
-2.09842797E+02
  0
LINE
  8
0
 62
4
 10
-1.18421931E+02
 20
-3.09877694E+02
 11
-1.18421931E+02
 21
-2.09842797E+02
  0
LINE
  8
0
  6
CENTER
 62
6
 10
1.15780693E+01
 20
-2.05410333E+02
 11
1.15780693E+01
 21
-3.12593820E+02
  0
LINE
  8
0
 62
4
 10
-2.29219307E+01
 20
-2.18377694E+02
 11
-2.29219307E+01
 21
-2.25776333E+02
  0
LINE
  8
0
 62
4
 10
-2.29219070E+01
 20
-2.18377677E+02
 11
-2.34219075E+01
 21
-2.17877676E+02
  0
LINE
  8
0
 62
4
 10
4.60780530E+01
 20
-2.18377693E+02
 11
4.65780535E+01
 21
-2.17877693E+02
  0
LINE
  8
0
 62
4
 10
4.60780693E+01
 20
-2.18377694E+02
 11
4.60780693E+01
 21
-2.25776333E+02
  0
LINE
  8
0
 62
4
 10
-2.34219307E+01
 20
-2.06877694E+02
 11
-3.42193075E+00
 21
-2.06877694E+02
  0
LINE
  8
0
 62
4
 10
4.65780693E+01
 20
-2.06877694E+02
 11
4.65780693E+01
 21
-2.17877694E+02
  0
LINE
  8
0
 62
4
 10
-2.34219307E+01
 20
-2.06877694E+02
 11
-2.34219307E+01
 21
-2.17877694E+02
  0
LINE
  8
0
 62
4
 10
-2.92193075E+00
 20
-2.07377694E+02
 11
2.60780616E+01
 21
-2.07377694E+02
  0
LINE
  8
0
 62
4
 10
2.60780641E+01
 20
-2.07377692E+02
 11
2.65780646E+01
 21
-2.06877692E+02
  0
LINE
  8
0
 62
4
 10
-2.92193433E+00
 20
-2.07377703E+02
 11
-3.42193486E+00
 21
-2.06877702E+02
  0
LINE
  8
0
 62
4
 10
2.65780616E+01
 20
-2.06877694E+02
 11
4.65780693E+01
 21
-2.06877694E+02
  0
LINE
  8
0
 62
4
 10
-4.08060555E+01
 20
-2.70877694E+02
 11
-5.44219307E+01
 21
-2.70877694E+02
  0
LINE
  8
0
 62
4
 10
6.72746667E+01
 20
-2.79773018E+02
 11
6.83222895E+01
 21
-3.09773012E+02
  0
LINE
  8
0
 62
4
 10
7.85780693E+01
 20
-3.09877694E+02
 11
6.53241020E+01
 21
-3.09877694E+02
  0
LINE
  8
0
 62
4
 10
-4.21679711E+01
 20
-3.09877694E+02
 11
-5.54219307E+01
 21
-3.09877694E+02
  0
LINE
  8
0
 62
4
 10
-2.14219307E+01
 20
-2.40877694E+02
 11
4.45780693E+01
 21
-2.40877694E+02
  0
LINE
  8
0
 62
4
 10
-4.41185191E+01
 20
-2.79772987E+02
 11
-4.51661420E+01
 21
-3.09772981E+02
  0
LINE
  8
0
 62
7
 10
6.42764793E+01
 20
-2.76877694E+02
 11
6.41717277E+01
 21
-2.76877694E+02
  0
LINE
  8
0
 62
4
 10
7.85780693E+01
 20
-2.59877694E+02
 11
7.85780693E+01
 21
-3.09877694E+02
  0
LINE
  8
0
 62
4
 10
-5.54219307E+01
 20
-2.59877694E+02
 11
-5.54219307E+01
 21
-3.09877694E+02
  0
LINE
  8
0
  6
CENTER
 62
6
 10
2.95780693E+01
 20
-2.24877694E+02
 11
-6.42193075E+00
 21
-2.24877694E+02
  0
LINE
  8
0
  6
CENTER
 62
6
 10
-4.74219307E+01
 20
-2.64115212E+02
 11
-4.74219307E+01
 21
-3.14501748E+02
  0
LINE
  8
0
  6
DASHED
 62
6
 10
7.50780910E+01
 20
-2.83877678E+02
 11
7.55319228E+01
 21
-3.09877685E+02
  0
LINE
  8
0
  6
CENTER
 62
6
 10
7.05780693E+01
 20
-2.64115212E+02
 11
7.05780693E+01
 21
-3.14501748E+02
  0
LINE
  8
0
  6
DASHED
 62
6
 10
6.60780934E+01
 20
-2.83877675E+02
 11
6.57639021E+01
 21
-2.65877671E+02
  0
LINE
  8
0
 62
4
 10
7.75780693E+01
 20
-2.70877694E+02
 11
6.39621940E+01
 21
-2.70877694E+02
  0
LINE
  8
0
 62
4
 10
6.35780782E+01
 20
-2.59877700E+02
 11
6.53241170E+01
 21
-3.09877710E+02
  0
LINE
  8
0
 62
4
 10
-4.04219317E+01
 20
-2.59877699E+02
 11
-4.21679694E+01
 21
-3.09877679E+02
  0
LINE
  8
0
 62
7
 10
-4.11203408E+01
 20
-2.76877694E+02
 11
-4.10155892E+01
 21
-2.76877694E+02
  0
LINE
  8
0
  6
DASHED
 62
6
 10
7.50780855E+01
 20
-2.83877705E+02
 11
7.53922762E+01
 21
-2.65877731E+02
  0
LINE
  8
0
  6
DASHED
 62
6
 10
6.60780693E+01
 20
-2.83877694E+02
 11
7.50780693E+01
 21
-2.83877694E+02
  0
LINE
  8
0
  6
DASHED
 62
6
 10
-4.29219270E+01
 20
-2.83877675E+02
 11
-4.24680952E+01
 21
-3.09877682E+02
  0
LINE
  8
0
  6
DASHED
 62
6
 10
-5.19219307E+01
 20
-2.83877694E+02
 11
-4.29219307E+01
 21
-2.83877694E+02
  0
LINE
  8
0
  6
DASHED
 62
6
 10
6.60780726E+01
 20
-2.83877707E+02
 11
6.56242408E+01
 21
-3.09877714E+02
  0
LINE
  8
0
  6
DASHED
 62
6
 10
7.85780693E+01
 20
-2.65877694E+02
 11
6.38225151E+01
 21
-2.65877694E+02
  0
LINE
  8
0
  6
DASHED
 62
6
 10
-5.54219307E+01
 20
-2.65877694E+02
 11
-4.04219307E+01
 21
-2.65877694E+02
  0
LINE
  8
0
  6
DASHED
 62
6
 10
-5.19219247E+01
 20
-2.83877672E+02
 11
-5.22361159E+01
 21
-2.65877667E+02
  0
LINE
  8
0
  6
DASHED
 62
6
 10
-4.29219211E+01
 20
-2.83877708E+02
 11
-4.26077299E+01
 21
-2.65877703E+02
  0
LINE
  8
0
  6
DASHED
 62
6
 10
-5.19219302E+01
 20
-2.83877711E+02
 11
-5.23757620E+01
 21
-3.09877718E+02
  0
LINE
  8
0
 62
4
 10
2.50780693E+01
 20
-2.17083474E+02
 11
2.50780693E+01
 21
-2.32671914E+02
  0
LINE
  8
0
 62
4
 10
-1.92193075E+00
 20
-2.17083474E+02
 11
-1.92193075E+00
 21
-2.32671914E+02
  0
LINE
  8
0
 62
4
 10
1.15780738E+01
 20
-2.09289246E+02
 11
2.50780717E+01
 21
-2.17083474E+02
  0
LINE
  8
0
 62
4
 10
-1.92192623E+00
 20
-2.32671932E+02
 11
1.15780717E+01
 21
-2.40466159E+02
  0
LINE
  8
0
 62
4
 10
-1.92193571E+00
 20
-2.17083454E+02
 11
1.15780618E+01
 21
-2.09289227E+02
  0
LINE
  8
0
 62
4
 10
1.15780643E+01
 20
-2.40466139E+02
 11
2.50780618E+01
 21
-2.32671912E+02
  0
LINE
  8
0
  6
CENTER
 62
2
 10
-2.19219307E+01
 20
-2.62877694E+02
 11
-3.79219307E+01
 21
-2.62877694E+02
  0
LINE
  8
0
  6
CENTER
 62
2
 10
5.30780693E+01
 20
-2.54877694E+02
 11
5.30780693E+01
 21
-2.70877694E+02
  0
LINE
  8
0
 62
7
 10
1.00780693E+01
 20
-3.08877694E+02
 11
1.00780693E+01
 21
-3.09877694E+02
  0
LINE
  8
0
 62
7
 10
1.30780693E+01
 20
-3.08877694E+02
 11
1.30780693E+01
 21
-3.09877694E+02
  0
LINE
  8
0
 62
7
 10
-2.14219307E+01
 20
-2.41877694E+02
 11
8.07806925E+00
 21
-2.41877694E+02
  0
LINE
  8
0
  6
CENTER
 62
2
 10
-2.99219307E+01
 20
-2.54877694E+02
 11
-2.99219307E+01
 21
-2.70877694E+02
  0
LINE
  8
0
 62
7
 10
1.50780693E+01
 20
-2.52877694E+02
 11
2.10780693E+01
 21
-2.52877694E+02
  0
LINE
  8
0
 62
7
 10
8.07806925E+00
 20
-2.52877694E+02
 11
8.07806925E+00
 21
-2.41877694E+02
  0
LINE
  8
0
 62
7
 10
1.50780693E+01
 20
-2.52877694E+02
 11
1.50780693E+01
 21
-2.41877694E+02
  0
LINE
  8
0
 62
7
 10
2.07806925E+00
 20
-2.52877694E+02
 11
2.07806925E+00
 21
-2.72877694E+02
  0
LINE
  8
0
 62
7
 10
-3.94219307E+01
 20
-2.59877694E+02
 11
-3.94219307E+01
 21
-3.09877694E+02
  0
LINE
  8
0
 62
7
 10
6.25780693E+01
 20
-2.88877694E+02
 11
6.25780693E+01
 21
-3.09877694E+02
  0
LINE
  8
0
 62
7
 10
5.93780570E+01
 20
-2.88877694E+02
 11
6.25780693E+01
 21
-2.88877694E+02
  0
LINE
  8
0
 62
7
 10
-3.94219307E+01
 20
-3.09877694E+02
 11
1.00780693E+01
 21
-3.09877694E+02
  0
LINE
  8
0
 62
7
 10
5.73780570E+01
 20
-2.80077706E+02
 11
5.73780570E+01
 21
-2.86877694E+02
  0
LINE
  8
0
  6
CENTER
 62
2
 10
6.05780693E+01
 20
-3.01877694E+02
 11
4.45780693E+01
 21
-3.01877694E+02
  0
LINE
  8
0
  6
CENTER
 62
2
 10
5.25780693E+01
 20
-2.93877694E+02
 11
5.25780693E+01
 21
-3.09877694E+02
  0
LINE
  8
0
 62
7
 10
1.30780693E+01
 20
-3.09877694E+02
 11
6.25780693E+01
 21
-3.09877694E+02
  0
LINE
  8
0
 62
7
 10
1.30780693E+01
 20
-3.08877694E+02
 11
1.00780693E+01
 21
-3.08877694E+02
  0
LINE
  8
0
 62
7
 10
6.25780693E+01
 20
-2.59877694E+02
 11
6.25780693E+01
 21
-2.78077706E+02
  0
LINE
  8
0
 62
7
 10
2.07806925E+00
 20
-2.72877694E+02
 11
2.10780693E+01
 21
-2.72877694E+02
  0
LINE
  8
0
 62
7
 10
5.93780570E+01
 20
-2.78077706E+02
 11
6.25780693E+01
 21
-2.78077706E+02
  0
LINE
  8
0
 62
7
 10
2.07806925E+00
 20
-2.52877694E+02
 11
8.07806925E+00
 21
-2.52877694E+02
  0
LINE
  8
0
 62
7
 10
2.10780693E+01
 20
-2.52877694E+02
 11
2.10780693E+01
 21
-2.72877694E+02
  0
LINE
  8
0
  6
CENTER
 62
2
 10
4.50780693E+01
 20
-2.62877694E+02
 11
6.10780693E+01
 21
-2.62877694E+02
  0
LINE
  8
0
 62
7
 10
1.50780693E+01
 20
-2.41877694E+02
 11
4.45780693E+01
 21
-2.41877694E+02
  0
LINE
  8
0
 62
7
 10
8.07806925E+00
 20
-2.42077691E+02
 11
1.50780693E+01
 21
-2.42077691E+02
  0
LINE
  8
0
 62
7
 10
-3.16539803E+01
 20
-2.65877685E+02
 11
-3.33860207E+01
 21
-2.62877704E+02
  0
LINE
  8
0
 62
7
 10
5.65421659E+01
 20
-2.62877688E+02
 11
5.48101255E+01
 21
-2.59877706E+02
  0
LINE
  8
0
 62
7
 10
5.48101249E+01
 20
-2.59877694E+02
 11
5.13460136E+01
 21
-2.59877694E+02
  0
LINE
  8
0
 62
7
 10
5.48101249E+01
 20
-2.65877694E+02
 11
5.13460136E+01
 21
-2.65877694E+02
  0
LINE
  8
0
 62
7
 10
5.13460128E+01
 20
-2.65877688E+02
 11
4.96139724E+01
 21
-2.62877706E+02
  0
LINE
  8
0
 62
7
 10
5.48101157E+01
 20
-2.65877687E+02
 11
5.65421637E+01
 21
-2.62877692E+02
  0
LINE
  8
0
 62
7
 10
4.96139633E+01
 20
-2.62877687E+02
 11
5.13460114E+01
 21
-2.59877692E+02
  0
LINE
  8
0
 62
7
 10
-2.64578213E+01
 20
-2.62877682E+02
 11
-2.81898617E+01
 21
-2.59877700E+02
  0
LINE
  8
0
 62
7
 10
-2.81898827E+01
 20
-2.65877694E+02
 11
-3.16539788E+01
 21
-2.65877694E+02
  0
LINE
  8
0
 62
7
 10
-2.81898728E+01
 20
-2.65877693E+02
 11
-2.64578247E+01
 21
-2.62877698E+02
  0
LINE
  8
0
 62
7
 10
-3.33860251E+01
 20
-2.62877693E+02
 11
-3.16539771E+01
 21
-2.59877698E+02
  0
LINE
  8
0
 62
7
 10
5.08460139E+01
 20
-3.04877691E+02
 11
4.91139583E+01
 21
-3.01877682E+02
  0
LINE
  8
0
 62
7
 10
5.60421663E+01
 20
-3.01877691E+02
 11
5.43101106E+01
 21
-2.98877682E+02
  0
LINE
  8
0
 62
7
 10
5.43101249E+01
 20
-3.04877694E+02
 11
5.08460136E+01
 21
-3.04877694E+02
  0
LINE
  8
0
 62
7
 10
5.43101127E+01
 20
-3.04877689E+02
 11
5.60421608E+01
 21
-3.01877694E+02
  0
LINE
  8
0
 62
7
 10
4.91139604E+01
 20
-3.01877689E+02
 11
5.08460084E+01
 21
-2.98877694E+02
  0
LINE
  8
0
 62
7
 10
5.43101249E+01
 20
-2.98877694E+02
 11
5.08460136E+01
 21
-2.98877694E+02
  0
LINE
  8
0
 62
7
 10
-2.81898827E+01
 20
-2.59877694E+02
 11
-3.16539788E+01
 21
-2.59877694E+02
  0
LINE
  8
0
 62
7
 10
4.65780693E+01
 20
-2.40983254E+02
 11
4.65780693E+01
 21
-2.41989144E+02
  0
LINE
  8
0
 62
7
 10
-2.34219307E+01
 20
-2.40983254E+02
 11
-2.34219307E+01
 21
-2.41989144E+02
  0
ARC
  8
0
 62
4
 10
1.15780693E+01
 20
-2.46877694E+02
 40
3.80000000E+01
 50
3.99737597E+01
 51
1.40026237E+02
  0
ARC
  8
0
 62
4
 10
4.45780693E+01
 20
-2.59877694E+02
 40
1.90000000E+01
 50
9.33466730E-06
 51
9.00000002E+01
  0
ARC
  8
0
 62
4
 10
-2.14219307E+01
 20
-2.59877694E+02
 40
1.90000000E+01
 50
9.00000002E+01
 51
1.80000001E+02
  0
ARC
  8
0
 62
4
 10
4.45780693E+01
 20
-2.59877694E+02
 40
3.40000000E+01
 50
9.33466736E-06
 51
8.50661357E+01
  0
ARC
  8
0
 62
4
 10
-2.14219307E+01
 20
-2.59877694E+02
 40
3.40000000E+01
 50
9.49338641E+01
 51
1.79999998E+02
  0
ARC
  8
0
 62
4
 10
4.83623252E+01
 20
-2.16040719E+02
 40
1.00000000E+01
 50
2.19973762E+02
 51
2.65066131E+02
  0
ARC
  8
0
 62
4
 10
-2.52061867E+01
 20
-2.16040719E+02
 40
1.00000000E+01
 50
2.74933869E+02
 51
3.20026238E+02
  0
ARC
  8
0
 62
4
 10
-5.44219307E+01
 20
-2.69877694E+02
 40
1.00000000E+00
 50
1.79999998E+02
 51
2.70000000E+02
  0
ARC
  8
0
 62
4
 10
7.75780693E+01
 20
-2.69877694E+02
 40
1.00000000E+00
 50
2.70000000E+02
 51
2.50447847E-06
  0
ARC
  8
0
 62
4
 10
-4.11203408E+01
 20
-2.79877694E+02
 40
3.00000000E+00
 50
9.00000002E+01
 51
1.78000012E+02
  0
ARC
  8
0
 62
4
 10
6.42764793E+01
 20
-2.79877694E+02
 40
3.00000000E+00
 50
1.99999800E+00
 51
9.00000002E+01
  0
CIRCLE
  8
0
 62
4
 10
1.15780693E+01
 20
-2.24877694E+02
 40
1.02500000E+01
  0
CIRCLE
  8
0
 62
6
 10
1.15780693E+01
 20
-2.24877694E+02
 40
1.10000000E+01
  0
CIRCLE
  8
0
 62
7
 10
-2.99219307E+01
 20
-2.62877694E+02
 40
3.46410155E+00
  0
CIRCLE
  8
0
 62
7
 10
-2.99219307E+01
 20
-2.62877694E+02
 40
6.50000000E+00
  0
CIRCLE
  8
0
 62
7
 10
-2.99219307E+01
 20
-2.62877694E+02
 40
7.00000000E+00
  0
ARC
  8
0
 62
7
 10
-2.14219307E+01
 20
-2.59877694E+02
 40
1.80000000E+01
 50
9.00000002E+01
 51
1.80000001E+02
  0
ARC
  8
0
 62
7
 10
4.45780693E+01
 20
-2.59877694E+02
 40
1.80000000E+01
 50
9.33466730E-06
 51
9.00000002E+01
  0
ARC
  8
0
 62
7
 10
5.93780570E+01
 20
-2.86877694E+02
 40
2.00000000E+00
 50
1.79999991E+02
 51
2.70000000E+02
  0
CIRCLE
  8
0
 62
7
 10
5.25780693E+01
 20
-3.01877694E+02
 40
7.00000000E+00
  0
CIRCLE
  8
0
 62
7
 10
5.30780693E+01
 20
-2.62877694E+02
 40
7.00000000E+00
  0
ARC
  8
0
 62
7
 10
5.93780570E+01
 20
-2.80077706E+02
 40
2.00000000E+00
 50
9.00000002E+01
 51
1.80000001E+02
  0
CIRCLE
  8
0
 62
7
 10
5.30780693E+01
 20
-2.62877694E+02
 40
3.46410155E+00
  0
CIRCLE
  8
0
 62
7
 10
5.30780693E+01
 20
-2.62877694E+02
 40
6.50000000E+00
  0
CIRCLE
  8
0
 62
7
 10
5.25780693E+01
 20
-3.01877694E+02
 40
3.46410155E+00
  0
CIRCLE
  8
0
 62
7
 10
5.25780693E+01
 20
-3.01877694E+02
 40
6.50000000E+00
  0
LINE
  8
0
  6
PHANTOM
 10
-2.36921931E+02
 20
-1.85084926E+01
 11
-2.36921931E+02
 21
-1.85632470E+02
  0
LINE
  8
0
  6
CENTER
 62
2
 10
-3.56421931E+02
 20
-3.38776941E+01
 11
-3.56421931E+02
 21
-1.65877694E+02
  0
LINE
  8
0
 62
4
 10
-5.48421931E+02
 20
-8.98776941E+01
 11
-5.48421931E+02
 21
-9.92277002E+01
  0
LINE
  8
0
 62
4
 10
-5.46421931E+02
 20
-8.98776941E+01
 11
-5.46421931E+02
 21
-1.09877694E+02
  0
LINE
  8
0
 62
6
 10
-5.45421931E+02
 20
-8.88776941E+01
 11
-5.45421931E+02
 21
-1.10877694E+02
  0
LINE
  8
0
 62
4
 10
-5.48421931E+02
 20
-1.00527688E+02
 11
-5.48421931E+02
 21
-1.09877694E+02
  0
LINE
  8
0
 62
4
 10
-5.46921931E+02
 20
-9.92277002E+01
 11
-5.46921931E+02
 21
-1.00527688E+02
  0
LINE
  8
0
 62
4
 10
-5.46421931E+02
 20
-8.98776941E+01
 11
-5.48421931E+02
 21
-8.98776941E+01
  0
LINE
  8
0
 62
4
 10
-5.46421931E+02
 20
-1.09877694E+02
 11
-5.48421931E+02
 21
-1.09877694E+02
  0
LINE
  8
0
 62
4
 10
-5.46421943E+02
 20
-1.09877685E+02
 11
-5.45421942E+02
 21
-1.10877686E+02
  0
LINE
  8
0
 62
4
 10
-5.45421945E+02
 20
-8.88776856E+01
 11
-5.46421944E+02
 21
-8.98776840E+01
  0
LINE
  8
0
 62
4
 10
-5.46921931E+02
 20
-1.00527688E+02
 11
-5.48421931E+02
 21
-1.00527688E+02
  0
LINE
  8
0
 62
4
 10
-5.46921931E+02
 20
-9.92277002E+01
 11
-5.48421931E+02
 21
-9.92277002E+01
  0
LINE
  8
0
 62
4
 10
-4.94421931E+02
 20
-3.28776941E+01
 11
-4.94421931E+02
 21
-1.66877694E+02
  0
LINE
  8
0
  6
CENTER
 62
6
 10
-4.15421931E+02
 20
-1.68877694E+02
 11
-4.15421931E+02
 21
-1.48877694E+02
  0
LINE
  8
0
 62
4
 10
-4.57685229E+02
 20
-1.31564675E+02
 11
-4.87765528E+02
 21
-1.31564675E+02
  0
LINE
  8
0
  6
DASHED
 62
6
 10
-4.51921931E+02
 20
-8.88776941E+01
 11
-4.94421931E+02
 21
-8.88776941E+01
  0
LINE
  8
0
  6
DASHED
 62
6
 10
-4.51921931E+02
 20
-1.10877694E+02
 11
-4.94421931E+02
 21
-1.10877694E+02
  0
LINE
  8
0
 62
4
 10
-4.57685229E+02
 20
-6.81907129E+01
 11
-4.87765528E+02
 21
-6.81907129E+01
  0
LINE
  8
0
 62
4
 10
-4.04421931E+02
 20
-1.66877694E+02
 11
-4.94421931E+02
 21
-1.66877694E+02
  0
LINE
  8
0
 62
4
 10
-4.04421931E+02
 20
-3.28776941E+01
 11
-4.94421931E+02
 21
-3.28776941E+01
  0
LINE
  8
0
 62
4
 10
-4.04421931E+02
 20
-4.78776941E+01
 11
-4.51921931E+02
 21
-4.78776941E+01
  0
LINE
  8
0
 62
4
 10
-4.04421931E+02
 20
-1.51877694E+02
 11
-4.51921931E+02
 21
-1.51877694E+02
  0
LINE
  8
0
 62
4
 10
-4.51921931E+02
 20
-3.28776941E+01
 11
-4.51921931E+02
 21
-1.66877694E+02
  0
LINE
  8
0
 62
4
 10
-4.04421931E+02
 20
-1.51877694E+02
 11
-4.04421931E+02
 21
-1.66877694E+02
  0
LINE
  8
0
 62
4
 10
-4.04421931E+02
 20
-3.28776941E+01
 11
-4.04421931E+02
 21
-4.78776941E+01
  0
LINE
  8
0
  6
CENTER
 62
6
 10
-4.32421931E+02
 20
-3.08776941E+01
 11
-4.32421931E+02
 21
-5.08776941E+01
  0
LINE
  8
0
  6
CENTER
 62
6
 10
-4.15421931E+02
 20
-3.08776941E+01
 11
-4.15421931E+02
 21
-5.08776941E+01
  0
LINE
  8
0
  6
CENTER
 62
6
 10
-4.05421931E+02
 20
-4.08776941E+01
 11
-4.42421931E+02
 21
-4.08776941E+01
  0
LINE
  8
0
  6
CENTER
 62
6
 10
-4.32421931E+02
 20
-1.68877694E+02
 11
-4.32421931E+02
 21
-1.48877694E+02
  0
LINE
  8
0
  6
CENTER
 62
6
 10
-4.05421931E+02
 20
-1.58877694E+02
 11
-4.42421931E+02
 21
-1.58877694E+02
  0
LINE
  8
0
  6
DASHED
 62
6
 10
-4.51921931E+02
 20
-8.96276941E+01
 11
-4.94421931E+02
 21
-8.96276941E+01
  0
LINE
  8
0
  6
DASHED
 62
6
 10
-4.51921931E+02
 20
-1.10127694E+02
 11
-4.94421931E+02
 21
-1.10127694E+02
  0
LINE
  8
0
 62
4
 10
-4.39921931E+02
 20
-1.34877694E+02
 11
-2.72921931E+02
 21
-1.34877694E+02
  0
LINE
  8
0
  6
CENTER
 62
6
 10
-4.16421931E+02
 20
-1.33877694E+02
 11
-4.16421931E+02
 21
-1.13877694E+02
  0
LINE
  8
0
 62
4
 10
-2.99886031E+02
 20
-1.23877689E+02
 11
-2.98153979E+02
 21
-1.26877691E+02
  0
LINE
  8
0
 62
4
 10
-2.72921931E+02
 20
-1.15377694E+02
 11
-4.39921931E+02
 21
-1.15377694E+02
  0
LINE
  8
0
 62
4
 10
-2.72921931E+02
 20
-8.43776941E+01
 11
-4.39921931E+02
 21
-8.43776941E+01
  0
LINE
  8
0
 62
4
 10
-2.72921931E+02
 20
-1.14877694E+02
 11
-4.39921931E+02
 21
-1.14877694E+02
  0
LINE
  8
0
 62
4
 10
-2.72921931E+02
 20
-8.48776941E+01
 11
-4.39921931E+02
 21
-8.48776941E+01
  0
LINE
  8
0
 62
4
 10
-4.48421931E+02
 20
-8.88776941E+01
 11
-4.48421931E+02
 21
-1.10877694E+02
  0
LINE
  8
0
 62
4
 10
-4.39921931E+02
 20
-9.98776941E+01
 11
-4.47421931E+02
 21
-9.98776941E+01
  0
LINE
  8
0
 62
4
 10
-4.18153986E+02
 20
-7.88776941E+01
 11
-4.14689883E+02
 21
-7.88776941E+01
  0
LINE
  8
0
 62
4
 10
-4.19886036E+02
 20
-7.58776913E+01
 11
-4.18153988E+02
 21
-7.88776864E+01
  0
LINE
  8
0
 62
4
 10
-4.39921931E+02
 20
-6.48776941E+01
 11
-2.72921931E+02
 21
-6.48776941E+01
  0
LINE
  8
0
 62
4
 10
-4.14689881E+02
 20
-1.26877691E+02
 11
-4.12957829E+02
 21
-1.23877690E+02
  0
LINE
  8
0
  6
CENTER
 62
6
 10
-4.26421931E+02
 20
-1.23877694E+02
 11
-3.93421931E+02
 21
-1.23877694E+02
  0
LINE
  8
0
 62
4
 10
-2.94689884E+02
 20
-1.26877692E+02
 11
-2.92957828E+02
 21
-1.23877683E+02
  0
LINE
  8
0
 62
4
 10
-4.12957835E+02
 20
-7.58776864E+01
 11
-4.14689883E+02
 21
-7.28776913E+01
  0
LINE
  8
0
 62
4
 10
-4.18153986E+02
 20
-7.28776941E+01
 11
-4.14689883E+02
 21
-7.28776941E+01
  0
LINE
  8
0
 62
4
 10
-4.14689879E+02
 20
-7.88776902E+01
 11
-4.12957831E+02
 21
-7.58776951E+01
  0
LINE
  8
0
  6
CENTER
 62
6
 10
-4.00421931E+02
 20
-1.16877694E+02
 11
-4.00421931E+02
 21
-1.30877694E+02
  0
LINE
  8
0
  6
CENTER
 62
6
 10
-2.96421931E+02
 20
-1.33877694E+02
 11
-2.96421931E+02
 21
-1.13877694E+02
  0
LINE
  8
0
  6
CENTER
 62
6
 10
-2.86421931E+02
 20
-1.23877694E+02
 11
-3.19421931E+02
 21
-1.23877694E+02
  0
LINE
  8
0
 62
4
 10
-4.19886035E+02
 20
-1.23877693E+02
 11
-4.18153983E+02
 21
-1.26877694E+02
  0
LINE
  8
0
 62
4
 10
-4.18153986E+02
 20
-1.26877694E+02
 11
-4.14689883E+02
 21
-1.26877694E+02
  0
LINE
  8
0
 62
4
 10
-4.18153986E+02
 20
-1.20877694E+02
 11
-4.14689883E+02
 21
-1.20877694E+02
  0
LINE
  8
0
  6
CENTER
 62
6
 10
-3.12421931E+02
 20
-1.16877694E+02
 11
-3.12421931E+02
 21
-1.30877694E+02
  0
LINE
  8
0
  6
CENTER
 62
6
 10
-4.16421931E+02
 20
-6.58776941E+01
 11
-4.16421931E+02
 21
-8.58776941E+01
  0
LINE
  8
0
  6
CENTER
 62
6
 10
-4.26421931E+02
 20
-7.58776941E+01
 11
-3.93421931E+02
 21
-7.58776941E+01
  0
LINE
  8
0
  6
CENTER
 62
6
 10
-2.96421931E+02
 20
-6.58776941E+01
 11
-2.96421931E+02
 21
-8.58776941E+01
  0
LINE
  8
0
 62
4
 10
-2.92957829E+02
 20
-7.58776895E+01
 11
-2.94689880E+02
 21
-7.28776877E+01
  0
LINE
  8
0
 62
4
 10
-2.98153986E+02
 20
-7.28776941E+01
 11
-2.94689883E+02
 21
-7.28776941E+01
  0
LINE
  8
0
 62
4
 10
-2.94689876E+02
 20
-7.88776853E+01
 11
-2.92957828E+02
 21
-7.58776902E+01
  0
LINE
  8
0
 62
4
 10
-2.99886036E+02
 20
-1.23877692E+02
 11
-2.98153980E+02
 21
-1.20877683E+02
  0
LINE
  8
0
 62
4
 10
-2.99886033E+02
 20
-7.58776877E+01
 11
-2.98153981E+02
 21
-7.88776895E+01
  0
LINE
  8
0
  6
CENTER
 62
6
 10
-2.86421931E+02
 20
-7.58776941E+01
 11
-3.19421931E+02
 21
-7.58776941E+01
  0
LINE
  8
0
  6
CENTER
 62
6
 10
-4.00421931E+02
 20
-8.28776941E+01
 11
-4.00421931E+02
 21
-6.88776941E+01
  0
LINE
  8
0
 62
4
 10
-2.99886028E+02
 20
-7.58776853E+01
 11
-2.98153980E+02
 21
-7.28776902E+01
  0
LINE
  8
0
 62
4
 10
-2.92957827E+02
 20
-1.23877691E+02
 11
-2.94689879E+02
 21
-1.20877689E+02
  0
LINE
  8
0
 62
4
 10
-2.98153986E+02
 20
-7.88776941E+01
 11
-2.94689883E+02
 21
-7.88776941E+01
  0
LINE
  8
0
  6
CENTER
 62
6
 10
-3.12421931E+02
 20
-8.28776941E+01
 11
-3.12421931E+02
 21
-6.88776941E+01
  0
LINE
  8
0
 62
4
 10
-4.39921931E+02
 20
-6.48776941E+01
 11
-4.39921931E+02
 21
-1.34877694E+02
  0
LINE
  8
0
 62
4
 10
-2.72921931E+02
 20
-6.48776941E+01
 11
-2.72921931E+02
 21
-1.34877694E+02
  0
LINE
  8
0
 62
4
 10
-2.98153986E+02
 20
-1.20877694E+02
 11
-2.94689883E+02
 21
-1.20877694E+02
  0
LINE
  8
0
 62
4
 10
-2.98153986E+02
 20
-1.26877694E+02
 11
-2.94689883E+02
 21
-1.26877694E+02
  0
LINE
  8
0
 62
4
 10
-4.19886038E+02
 20
-7.58776864E+01
 11
-4.18153990E+02
 21
-7.28776913E+01
  0
LINE
  8
0
 62
4
 10
-4.12957830E+02
 20
-1.23877694E+02
 11
-4.14689882E+02
 21
-1.20877692E+02
  0
LINE
  8
0
 62
4
 10
-4.19886033E+02
 20
-1.23877691E+02
 11
-4.18153981E+02
 21
-1.20877690E+02
  0
LINE
  8
0
 62
4
 10
-2.64421931E+02
 20
-1.10877694E+02
 11
-2.64421931E+02
 21
-8.88776941E+01
  0
LINE
  8
0
 62
4
 10
-2.72921931E+02
 20
-9.98776941E+01
 11
-2.65421931E+02
 21
-9.98776941E+01
  0
LINE
  8
0
 62
4
 10
-4.39921931E+02
 20
-1.10877694E+02
 11
-4.48421931E+02
 21
-1.10877694E+02
  0
LINE
  8
0
 62
4
 10
-2.72921931E+02
 20
-8.88776941E+01
 11
-2.64421931E+02
 21
-8.88776941E+01
  0
LINE
  8
0
 62
4
 10
-4.39921931E+02
 20
-8.88776941E+01
 11
-4.48421931E+02
 21
-8.88776941E+01
  0
LINE
  8
0
 62
4
 10
-2.72921931E+02
 20
-1.10877694E+02
 11
-2.64421931E+02
 21
-1.10877694E+02
  0
LINE
  8
0
  6
DASHED
 62
6
 10
-4.53921931E+02
 20
-8.88776941E+01
 11
-4.53921931E+02
 21
-1.10877694E+02
  0
LINE
  8
0
  6
PHANTOM
 62
6
 10
-4.23421931E+02
 20
-9.68776941E+01
 11
-4.23421931E+02
 21
-1.02877694E+02
  0
LINE
  8
0
  6
DASHED
 62
6
 10
-4.52921931E+02
 20
-8.98776941E+01
 11
-4.51921931E+02
 21
-8.98776941E+01
  0
LINE
  8
0
  6
DASHED
 62
6
 10
-4.52921931E+02
 20
-1.09877694E+02
 11
-4.51921931E+02
 21
-1.09877694E+02
  0
LINE
  8
0
  6
PHANTOM
 62
6
 10
-4.23421931E+02
 20
-1.02877694E+02
 11
-4.48421931E+02
 21
-1.02877694E+02
  0
LINE
  8
0
  6
DASHED
 62
6
 10
-4.52921939E+02
 20
-1.09877685E+02
 11
-4.53921941E+02
 21
-1.10877686E+02
  0
LINE
  8
0
  6
DASHED
 62
6
 10
-4.53921940E+02
 20
-8.88776834E+01
 11
-4.52921939E+02
 21
-8.98776845E+01
  0
LINE
  8
0
  6
PHANTOM
 62
6
 10
-4.23421931E+02
 20
-9.68776941E+01
 11
-4.48421931E+02
 21
-9.68776941E+01
  0
LINE
  8
0
  6
DASHED
 62
6
 10
-4.52921931E+02
 20
-8.98776941E+01
 11
-4.52921931E+02
 21
-1.09877694E+02
  0
LINE
  8
0
 62
4
 10
-5.03421931E+02
 20
-8.63776941E+01
 11
-5.03421931E+02
 21
-1.13377694E+02
  0
LINE
  8
0
 62
4
 10
-4.51921931E+02
 20
-1.09877694E+02
 11
-4.48421931E+02
 21
-1.09877694E+02
  0
LINE
  8
0
 62
4
 10
-4.51921931E+02
 20
-8.98776941E+01
 11
-4.48421931E+02
 21
-8.98776941E+01
  0
LINE
  8
0
 62
7
 10
-2.65421931E+02
 20
-1.17877694E+02
 11
-2.65421931E+02
 21
-1.22877694E+02
  0
LINE
  8
0
 62
7
 10
-2.65421931E+02
 20
-1.17877694E+02
 11
-2.64421931E+02
 21
-1.17877694E+02
  0
LINE
  8
0
 62
7
 10
-4.47421931E+02
 20
-8.18776941E+01
 11
-4.48421931E+02
 21
-8.18776941E+01
  0
LINE
  8
0
 62
7
 10
-4.47421931E+02
 20
-8.18776941E+01
 11
-4.47421931E+02
 21
-7.68776941E+01
  0
LINE
  8
0
 62
7
 10
-2.64421931E+02
 20
-1.17877694E+02
 11
-2.64421931E+02
 21
-1.10877694E+02
  0
LINE
  8
0
 62
7
 10
-4.47421931E+02
 20
-1.17877694E+02
 11
-4.48421931E+02
 21
-1.17877694E+02
  0
LINE
  8
0
 62
7
 10
-4.48421931E+02
 20
-1.17877694E+02
 11
-4.48421931E+02
 21
-1.10877694E+02
  0
LINE
  8
0
 62
7
 10
-4.47421931E+02
 20
-1.17877694E+02
 11
-4.47421931E+02
 21
-1.22877694E+02
  0
LINE
  8
0
 62
7
 10
-2.65421931E+02
 20
-8.18776941E+01
 11
-2.64421931E+02
 21
-8.18776941E+01
  0
LINE
  8
0
 62
7
 10
-2.65421931E+02
 20
-8.18776941E+01
 11
-2.65421931E+02
 21
-7.68776941E+01
  0
LINE
  8
0
 62
7
 10
-2.64421931E+02
 20
-8.88776941E+01
 11
-2.64421931E+02
 21
-8.18776941E+01
  0
LINE
  8
0
 62
7
 10
-4.48421931E+02
 20
-8.88776941E+01
 11
-4.48421931E+02
 21
-8.18776941E+01
  0
LINE
  8
0
 62
7
 10
-1.60921931E+02
 20
-4.88776941E+01
 11
-4.51921931E+02
 21
-4.88776941E+01
  0
LINE
  8
0
 62
7
 10
-1.60921931E+02
 20
-5.28776941E+01
 11
-4.51921931E+02
 21
-5.28776941E+01
  0
LINE
  8
0
 62
7
 10
-1.60921931E+02
 20
-5.58776941E+01
 11
-4.51921931E+02
 21
-5.58776941E+01
  0
LINE
  8
0
 62
7
 10
-1.60921931E+02
 20
-1.43877694E+02
 11
-4.51921931E+02
 21
-1.43877694E+02
  0
LINE
  8
0
 62
7
 10
-1.60921931E+02
 20
-1.46877694E+02
 11
-4.51921931E+02
 21
-1.46877694E+02
  0
LINE
  8
0
 62
7
 10
-1.60921931E+02
 20
-1.50877694E+02
 11
-4.51921931E+02
 21
-1.50877694E+02
  0
LINE
  8
0
 62
7
 10
-1.64421931E+02
 20
-9.13776941E+01
 11
-2.64421931E+02
 21
-9.13776941E+01
  0
LINE
  8
0
 62
7
 10
-4.50421922E+02
 20
-1.12627707E+02
 11
-4.51921930E+02
 21
-1.12363215E+02
  0
LINE
  8
0
 62
7
 10
-2.64421931E+02
 20
-1.08377694E+02
 11
-1.64421931E+02
 21
-1.08377694E+02
  0
LINE
  8
0
 62
7
 10
-4.50421933E+02
 20
-1.15127699E+02
 11
-4.51921933E+02
 21
-1.15392189E+02
  0
LINE
  8
0
 62
7
 10
-4.50421931E+02
 20
-1.16877694E+02
 11
-4.50421931E+02
 21
-1.19877694E+02
  0
LINE
  8
0
 62
7
 10
-4.50421924E+02
 20
-8.71276917E+01
 11
-4.51921924E+02
 21
-8.73921822E+01
  0
LINE
  8
0
 62
7
 10
-4.50421927E+02
 20
-8.46277164E+01
 11
-4.51921927E+02
 21
-8.43632259E+01
  0
LINE
  8
0
 62
7
 10
-4.50421931E+02
 20
-1.12627694E+02
 11
-4.50421931E+02
 21
-1.15127694E+02
  0
LINE
  8
0
 62
7
 10
-4.51921931E+02
 20
-1.19877694E+02
 11
-4.50421931E+02
 21
-1.19877694E+02
  0
LINE
  8
0
 62
7
 10
-4.51921931E+02
 20
-7.98776941E+01
 11
-4.50421931E+02
 21
-7.98776941E+01
  0
LINE
  8
0
 62
7
 10
-4.50421919E+02
 20
-1.16877699E+02
 11
-4.51921926E+02
 21
-1.16613208E+02
  0
LINE
  8
0
 62
7
 10
-4.50421931E+02
 20
-8.28776941E+01
 11
-4.50421931E+02
 21
-7.98776941E+01
  0
LINE
  8
0
 62
7
 10
-4.50421931E+02
 20
-8.71276941E+01
 11
-4.50421931E+02
 21
-8.46276941E+01
  0
LINE
  8
0
 62
7
 10
-4.50421939E+02
 20
-8.28777029E+01
 11
-4.51921920E+02
 21
-8.31421900E+01
  0
LINE
  8
0
 62
4
 10
-5.03421931E+02
 20
-1.13377694E+02
 11
-4.94421931E+02
 21
-1.13377694E+02
  0
LINE
  8
0
 62
4
 10
-5.03421931E+02
 20
-8.63776941E+01
 11
-4.94421931E+02
 21
-8.63776941E+01
  0
LINE
  8
0
 62
4
 10
-4.95921931E+02
 20
-9.98776941E+01
 11
-5.03421931E+02
 21
-9.98776941E+01
  0
CIRCLE
  8
0
 62
4
 10
-4.32421931E+02
 20
-4.08776941E+01
 40
4.50000000E+00
  0
CIRCLE
  8
0
 62
4
 10
-4.15421931E+02
 20
-4.08776941E+01
 40
4.50000000E+00
  0
CIRCLE
  8
0
 62
4
 10
-4.32421931E+02
 20
-1.58877694E+02
 40
4.50000000E+00
  0
CIRCLE
  8
0
 62
4
 10
-4.15421931E+02
 20
-1.58877694E+02
 40
4.50000000E+00
  0
ARC
  8
0
 62
4
 10
-4.32796931E+02
 20
-1.05377694E+02
 40
1.56250000E+01
 50
1.59390307E+02
 51
2.00609693E+02
  0
CIRCLE
  8
0
 62
4
 10
-4.16421931E+02
 20
-1.23877694E+02
 40
6.50000000E+00
  0
CIRCLE
  8
0
 62
4
 10
-2.96421931E+02
 20
-7.58776941E+01
 40
6.50000000E+00
  0
CIRCLE
  8
0
 62
4
 10
-4.16421931E+02
 20
-7.58776941E+01
 40
6.50000000E+00
  0
CIRCLE
  8
0
 62
4
 10
-4.16421931E+02
 20
-1.23877694E+02
 40
7.00000000E+00
  0
CIRCLE
  8
0
 62
6
 10
-4.00421931E+02
 20
-1.23877694E+02
 40
4.00000000E+00
  0
CIRCLE
  8
0
 62
4
 10
-4.00421931E+02
 20
-1.23877694E+02
 40
3.40000010E+00
  0
CIRCLE
  8
0
 62
4
 10
-2.96421931E+02
 20
-1.23877694E+02
 40
7.00000000E+00
  0
CIRCLE
  8
0
 62
4
 10
-2.96421931E+02
 20
-1.23877694E+02
 40
6.50000000E+00
  0
CIRCLE
  8
0
 62
6
 10
-3.12421931E+02
 20
-1.23877694E+02
 40
4.00000000E+00
  0
CIRCLE
  8
0
 62
4
 10
-3.12421931E+02
 20
-1.23877694E+02
 40
3.40000010E+00
  0
CIRCLE
  8
0
 62
4
 10
-4.16421931E+02
 20
-7.58776941E+01
 40
7.00000000E+00
  0
CIRCLE
  8
0
 62
6
 10
-4.00421931E+02
 20
-7.58776941E+01
 40
4.00000000E+00
  0
CIRCLE
  8
0
 62
4
 10
-2.96421931E+02
 20
-7.58776941E+01
 40
7.00000000E+00
  0
CIRCLE
  8
0
 62
4
 10
-4.00421931E+02
 20
-7.58776941E+01
 40
3.40000010E+00
  0
CIRCLE
  8
0
 62
6
 10
-3.12421931E+02
 20
-7.58776941E+01
 40
4.00000000E+00
  0
CIRCLE
  8
0
 62
4
 10
-3.12421931E+02
 20
-7.58776941E+01
 40
3.40000010E+00
  0
ARC
  8
0
 62
4
 10
-2.80046931E+02
 20
-1.05377694E+02
 40
1.56250000E+01
 50
3.39390309E+02
 51
2.06096930E+01
  0
ARC
  8
0
 62
4
 10
-4.32796931E+02
 20
-9.43776941E+01
 40
1.56250000E+01
 50
1.59390307E+02
 51
2.00609693E+02
  0
ARC
  8
0
 62
4
 10
-2.80046931E+02
 20
-9.43776941E+01
 40
1.56250000E+01
 50
3.39390307E+02
 51
2.06096947E+01
  0
ARC
  8
0
 62
7
 10
-2.77421931E+02
 20
-1.22877694E+02
 40
1.20000000E+01
 50
2.92024299E+02
 51
8.65142201E-06
  0
ARC
  8
0
 62
7
 10
-2.77421931E+02
 20
-7.68776941E+01
 40
1.20000000E+01
 50
3.59999995E+02
 51
6.79756905E+01
  0
ARC
  8
0
 62
7
 10
-4.35421931E+02
 20
-7.68776941E+01
 40
1.20000000E+01
 50
1.12024311E+02
 51
1.80000000E+02
  0
ARC
  8
0
 62
7
 10
-4.35421931E+02
 20
-1.22877694E+02
 40
1.20000000E+01
 50
1.80000000E+02
 51
2.47975689E+02
  0
ARC
  8
0
 62
4
 10
-5.10359431E+02
 20
-9.31276941E+01
 40
1.59375000E+01
 50
3.34942380E+02
 51
2.50576095E+01
  0
ARC
  8
0
 62
4
 10
-5.10359431E+02
 20
-1.06627694E+02
 40
1.59375000E+01
 50
3.34942380E+02
 51
2.50576095E+01
  0
LINE
  8
0
 62
4
 10
-5.03421931E+02
 20
-8.88776941E+01
 11
-5.45421931E+02
 21
-8.88776941E+01
  0
LINE
  8
0
 62
6
 10
-5.03421931E+02
 20
-8.96276941E+01
 11
-5.46171931E+02
 21
-8.96276941E+01
  0
LINE
  8
0
 62
6
 10
-5.03421931E+02
 20
-1.10127694E+02
 11
-5.46171931E+02
 21
-1.10127694E+02
  0
LINE
  8
0
 62
4
 10
-5.03421931E+02
 20
-1.10877694E+02
 11
-5.45421931E+02
 21
-1.10877694E+02
  0
LINE
  8
0
 62
4
 10
-1.18421931E+02
 20
-3.28776941E+01
 11
-1.18421931E+02
 21
-1.66877694E+02
  0
LINE
  8
0
 62
4
 10
-1.60921931E+02
 20
-3.28776941E+01
 11
-1.60921931E+02
 21
-1.66877694E+02
  0
LINE
  8
0
 62
4
 10
-2.08421931E+02
 20
-3.28776941E+01
 11
-2.08421931E+02
 21
-4.78776941E+01
  0
LINE
  8
0
  6
CENTER
 62
6
 10
-1.80421931E+02
 20
-3.08776941E+01
 11
-1.80421931E+02
 21
-5.08776941E+01
  0
LINE
  8
0
  6
CENTER
 62
6
 10
-1.97421931E+02
 20
-3.08776941E+01
 11
-1.97421931E+02
 21
-5.08776941E+01
  0
CIRCLE
  8
0
 62
4
 10
-1.80421931E+02
 20
-4.08776941E+01
 40
4.50000000E+00
  0
CIRCLE
  8
0
 62
4
 10
-1.97421931E+02
 20
-4.08776941E+01
 40
4.50000000E+00
  0
LINE
  8
0
  6
CENTER
 62
6
 10
-2.07421931E+02
 20
-4.08776941E+01
 11
-1.70421931E+02
 21
-4.08776941E+01
  0
LINE
  8
0
 62
4
 10
-2.08421931E+02
 20
-3.28776941E+01
 11
-1.18421931E+02
 21
-3.28776941E+01
  0
LINE
  8
0
 62
4
 10
-1.55158633E+02
 20
-1.31564675E+02
 11
-1.25078333E+02
 21
-1.31564675E+02
  0
LINE
  8
0
  6
DASHED
 62
6
 10
-1.60921931E+02
 20
-8.88776941E+01
 11
-1.18421931E+02
 21
-8.88776941E+01
  0
LINE
  8
0
  6
DASHED
 62
6
 10
-1.60921931E+02
 20
-1.10877694E+02
 11
-1.18421931E+02
 21
-1.10877694E+02
  0
LINE
  8
0
 62
4
 10
-1.55158633E+02
 20
-6.81907129E+01
 11
-1.25078333E+02
 21
-6.81907129E+01
  0
LINE
  8
0
 62
4
 10
-2.08421931E+02
 20
-1.66877694E+02
 11
-1.18421931E+02
 21
-1.66877694E+02
  0
LINE
  8
0
  6
DASHED
 62
6
 10
-1.60921931E+02
 20
-8.96276941E+01
 11
-1.18421931E+02
 21
-8.96276941E+01
  0
LINE
  8
0
  6
DASHED
 62
6
 10
-1.60921931E+02
 20
-1.10127694E+02
 11
-1.18421931E+02
 21
-1.10127694E+02
  0
LINE
  8
0
 62
4
 10
-1.09421931E+02
 20
-1.10877694E+02
 11
-6.74219307E+01
 21
-1.10877694E+02
  0
LINE
  8
0
 62
6
 10
-1.09421931E+02
 20
-1.10127694E+02
 11
-6.66719307E+01
 21
-1.10127694E+02
  0
LINE
  8
0
 62
6
 10
-1.09421931E+02
 20
-8.96276941E+01
 11
-6.66719307E+01
 21
-8.96276941E+01
  0
LINE
  8
0
 62
4
 10
-1.09421931E+02
 20
-8.88776941E+01
 11
-6.74219307E+01
 21
-8.88776941E+01
  0
ARC
  8
0
 62
4
 10
-1.02484431E+02
 20
-1.06627694E+02
 40
1.59375000E+01
 50
1.54942391E+02
 51
2.05057620E+02
  0
ARC
  8
0
 62
4
 10
-1.02484431E+02
 20
-9.31276941E+01
 40
1.59375000E+01
 50
1.54942391E+02
 51
2.05057620E+02
  0
LINE
  8
0
 62
4
 10
-1.16921931E+02
 20
-9.98776941E+01
 11
-1.09421931E+02
 21
-9.98776941E+01
  0
LINE
  8
0
 62
4
 10
-1.09421931E+02
 20
-8.63776941E+01
 11
-1.18421931E+02
 21
-8.63776941E+01
  0
LINE
  8
0
 62
4
 10
-1.09421931E+02
 20
-1.13377694E+02
 11
-1.18421931E+02
 21
-1.13377694E+02
  0
LINE
  8
0
 62
4
 10
-1.09421931E+02
 20
-8.63776941E+01
 11
-1.09421931E+02
 21
-1.13377694E+02
  0
LINE
  8
0
 62
4
 10
-6.59219307E+01
 20
-9.92277002E+01
 11
-6.44219307E+01
 21
-9.92277002E+01
  0
LINE
  8
0
 62
4
 10
-6.59219307E+01
 20
-1.00527688E+02
 11
-6.44219307E+01
 21
-1.00527688E+02
  0
LINE
  8
0
 62
4
 10
-6.74219163E+01
 20
-8.88776856E+01
 11
-6.64219179E+01
 21
-8.98776840E+01
  0
LINE
  8
0
 62
4
 10
-6.64219188E+01
 20
-1.09877685E+02
 11
-6.74219199E+01
 21
-1.10877686E+02
  0
LINE
  8
0
 62
4
 10
-6.64219307E+01
 20
-1.09877694E+02
 11
-6.44219307E+01
 21
-1.09877694E+02
  0
LINE
  8
0
 62
4
 10
-6.64219307E+01
 20
-8.98776941E+01
 11
-6.44219307E+01
 21
-8.98776941E+01
  0
LINE
  8
0
 62
4
 10
-6.59219307E+01
 20
-9.92277002E+01
 11
-6.59219307E+01
 21
-1.00527688E+02
  0
LINE
  8
0
 62
4
 10
-6.44219307E+01
 20
-1.00527688E+02
 11
-6.44219307E+01
 21
-1.09877694E+02
  0
LINE
  8
0
 62
6
 10
-6.74219307E+01
 20
-8.88776941E+01
 11
-6.74219307E+01
 21
-1.10877694E+02
  0
LINE
  8
0
 62
4
 10
-6.64219307E+01
 20
-8.98776941E+01
 11
-6.64219307E+01
 21
-1.09877694E+02
  0
LINE
  8
0
 62
4
 10
-6.44219307E+01
 20
-8.98776941E+01
 11
-6.44219307E+01
 21
-9.92277002E+01
  0
LINE
  8
0
  6
CENTER
 62
6
 10
-1.97421931E+02
 20
-1.68877694E+02
 11
-1.97421931E+02
 21
-1.48877694E+02
  0
LINE
  8
0
 62
4
 10
-2.08421931E+02
 20
-1.51877694E+02
 11
-2.08421931E+02
 21
-1.66877694E+02
  0
LINE
  8
0
  6
CENTER
 62
6
 10
-1.80421931E+02
 20
-1.68877694E+02
 11
-1.80421931E+02
 21
-1.48877694E+02
  0
CIRCLE
  8
0
 62
4
 10
-1.97421931E+02
 20
-1.58877694E+02
 40
4.50000000E+00
  0
CIRCLE
  8
0
 62
4
 10
-1.80421931E+02
 20
-1.58877694E+02
 40
4.50000000E+00
  0
LINE
  8
0
  6
CENTER
 62
6
 10
-2.07421931E+02
 20
-1.58877694E+02
 11
-1.70421931E+02
 21
-1.58877694E+02
  0
LINE
  8
0
 62
4
 10
-2.08421931E+02
 20
-4.78776941E+01
 11
-1.60921931E+02
 21
-4.78776941E+01
  0
LINE
  8
0
 62
4
 10
-1.60921931E+02
 20
-8.98776941E+01
 11
-1.64421931E+02
 21
-8.98776941E+01
  0
LINE
  8
0
 62
4
 10
-1.60921931E+02
 20
-1.09877694E+02
 11
-1.64421931E+02
 21
-1.09877694E+02
  0
LINE
  8
0
 62
4
 10
-1.64421931E+02
 20
-8.98776941E+01
 11
-1.64421931E+02
 21
-1.09877694E+02
  0
LINE
  8
0
 62
4
 10
-1.89421931E+02
 20
-1.02877694E+02
 11
-1.64421931E+02
 21
-1.02877694E+02
  0
LINE
  8
0
 62
4
 10
-1.89421931E+02
 20
-9.68776941E+01
 11
-1.64421931E+02
 21
-9.68776941E+01
  0
LINE
  8
0
 62
4
 10
-1.89421931E+02
 20
-9.68776941E+01
 11
-1.89421931E+02
 21
-1.02877694E+02
  0
LINE
  8
0
 62
4
 10
-2.08421931E+02
 20
-1.51877694E+02
 11
-1.60921931E+02
 21
-1.51877694E+02
  0
LINE
  8
0
 62
7
 10
-1.62421943E+02
 20
-1.16877699E+02
 11
-1.60921935E+02
 21
-1.16613208E+02
  0
LINE
  8
0
 62
7
 10
-1.60921931E+02
 20
-1.19877694E+02
 11
-1.62421931E+02
 21
-1.19877694E+02
  0
LINE
  8
0
 62
7
 10
-1.62421931E+02
 20
-1.12627694E+02
 11
-1.62421931E+02
 21
-1.15127694E+02
  0
LINE
  8
0
 62
7
 10
-1.62421931E+02
 20
-1.16877694E+02
 11
-1.62421931E+02
 21
-1.19877694E+02
  0
LINE
  8
0
 62
7
 10
-1.62421928E+02
 20
-1.15127699E+02
 11
-1.60921928E+02
 21
-1.15392189E+02
  0
LINE
  8
0
 62
7
 10
-1.62421939E+02
 20
-1.12627707E+02
 11
-1.60921932E+02
 21
-1.12363215E+02
  0
LINE
  8
0
 62
7
 10
-1.62421922E+02
 20
-8.28777029E+01
 11
-1.60921941E+02
 21
-8.31421900E+01
  0
LINE
  8
0
 62
7
 10
-1.62421931E+02
 20
-8.71276941E+01
 11
-1.62421931E+02
 21
-8.46276941E+01
  0
LINE
  8
0
 62
7
 10
-1.62421931E+02
 20
-8.28776941E+01
 11
-1.62421931E+02
 21
-7.98776941E+01
  0
LINE
  8
0
 62
7
 10
-1.60921931E+02
 20
-7.98776941E+01
 11
-1.62421931E+02
 21
-7.98776941E+01
  0
LINE
  8
0
 62
7
 10
-1.62421935E+02
 20
-8.46277164E+01
 11
-1.60921935E+02
 21
-8.43632259E+01
  0
LINE
  8
0
 62
7
 10
-1.62421938E+02
 20
-8.71276917E+01
 11
-1.60921938E+02
 21
-8.73921822E+01
  0
LINE
  8
0
  6
DASHED
 62
6
 10
-1.59921931E+02
 20
-8.98776941E+01
 11
-1.59921931E+02
 21
-1.09877694E+02
  0
LINE
  8
0
  6
DASHED
 62
6
 10
-1.58921922E+02
 20
-8.88776834E+01
 11
-1.59921923E+02
 21
-8.98776845E+01
  0
LINE
  8
0
  6
DASHED
 62
6
 10
-1.59921922E+02
 20
-1.09877685E+02
 11
-1.58921921E+02
 21
-1.10877686E+02
  0
LINE
  8
0
  6
DASHED
 62
6
 10
-1.59921931E+02
 20
-1.09877694E+02
 11
-1.60921931E+02
 21
-1.09877694E+02
  0
LINE
  8
0
  6
DASHED
 62
6
 10
-1.59921931E+02
 20
-8.98776941E+01
 11
-1.60921931E+02
 21
-8.98776941E+01
  0
LINE
  8
0
  6
DASHED
 62
6
 10
-1.58921931E+02
 20
-8.88776941E+01
 11
-1.58921931E+02
 21
-1.10877694E+02
  0
LINE
  8
0
  6
CENTER
 62
6
 10
-5.52367320E+02
 20
-9.98776941E+01
 11
-6.04765420E+01
 21
-9.98776941E+01
  0
LINE
  8
0
  6
PHANTOM
 10
4.14023380E+02
 20
1.22585574E+02
 11
3.94922081E+02
 21
2.30914426E+02
  0
LINE
  8
0
  6
CENTER
 62
2
 10
1.30836214E+02
 20
1.76750000E+02
 11
4.20268087E+02
 21
1.76750000E+02
  0
LINE
  8
0
 62
4
 10
3.80208746E+02
 20
1.29750000E+02
 11
1.85208746E+02
 21
1.29750000E+02
  0
LINE
  8
0
 62
7
 10
1.91708746E+02
 20
1.58750000E+02
 11
1.91708746E+02
 21
1.53750000E+02
  0
LINE
  8
0
  6
CENTER
 62
2
 10
3.42708746E+02
 20
2.05750000E+02
 11
3.42708746E+02
 21
1.95750000E+02
  0
LINE
  8
0
  6
CENTER
 62
2
 10
3.47708746E+02
 20
2.00750000E+02
 11
3.37708746E+02
 21
2.00750000E+02
  0
LINE
  8
0
  6
CENTER
 62
2
 10
2.22708746E+02
 20
1.47750000E+02
 11
2.22708746E+02
 21
1.57750000E+02
  0
LINE
  8
0
 62
7
 10
3.64708746E+02
 20
1.67550003E+02
 11
3.64708746E+02
 21
1.85949997E+02
  0
LINE
  8
0
  6
CENTER
 62
2
 10
2.17708746E+02
 20
2.00750000E+02
 11
2.27708746E+02
 21
2.00750000E+02
  0
LINE
  8
0
 62
7
 10
2.01708746E+02
 20
1.86949997E+02
 11
3.63708746E+02
 21
1.86949997E+02
  0
LINE
  8
0
 62
7
 10
3.61708746E+02
 20
2.11750000E+02
 11
2.03708746E+02
 21
2.11750000E+02
  0
LINE
  8
0
 62
7
 10
2.01708746E+02
 20
1.66550003E+02
 11
3.63708746E+02
 21
1.66550003E+02
  0
LINE
  8
0
 62
7
 10
1.91708746E+02
 20
1.58750000E+02
 11
1.90808752E+02
 21
1.58750000E+02
  0
LINE
  8
0
 62
7
 10
2.00708746E+02
 20
1.67550003E+02
 11
2.00708746E+02
 21
1.85949997E+02
  0
LINE
  8
0
 62
7
 10
3.73708746E+02
 20
1.94750000E+02
 11
3.74608747E+02
 21
1.94750000E+02
  0
LINE
  8
0
  6
CENTER
 62
2
 10
2.17708746E+02
 20
1.52750000E+02
 11
2.27708746E+02
 21
1.52750000E+02
  0
LINE
  8
0
 62
7
 10
3.73708746E+02
 20
1.94750000E+02
 11
3.73708746E+02
 21
1.99750000E+02
  0
LINE
  8
0
 62
7
 10
3.73708746E+02
 20
1.58750000E+02
 11
3.74608747E+02
 21
1.58750000E+02
  0
LINE
  8
0
  6
CENTER
 62
2
 10
2.22708746E+02
 20
2.05750000E+02
 11
2.22708746E+02
 21
1.95750000E+02
  0
LINE
  8
0
 62
7
 10
3.61708746E+02
 20
1.41750000E+02
 11
2.03708746E+02
 21
1.41750000E+02
  0
LINE
  8
0
  6
CENTER
 62
2
 10
3.42708746E+02
 20
1.47750000E+02
 11
3.42708746E+02
 21
1.57750000E+02
  0
LINE
  8
0
 62
7
 10
3.73708746E+02
 20
1.58750000E+02
 11
3.73708746E+02
 21
1.53750000E+02
  0
LINE
  8
0
 62
7
 10
1.91708746E+02
 20
1.94750000E+02
 11
1.90808752E+02
 21
1.94750000E+02
  0
LINE
  8
0
  6
CENTER
 62
2
 10
3.47708746E+02
 20
1.52750000E+02
 11
3.37708746E+02
 21
1.52750000E+02
  0
LINE
  8
0
 62
7
 10
1.91708746E+02
 20
1.94750000E+02
 11
1.91708746E+02
 21
1.99750000E+02
  0
LINE
  8
0
 62
4
 10
3.85208746E+02
 20
1.34750000E+02
 11
3.85208746E+02
 21
2.18750000E+02
  0
LINE
  8
0
 62
4
 10
1.80208746E+02
 20
1.34750000E+02
 11
1.80208746E+02
 21
2.18750000E+02
  0
LINE
  8
0
 62
4
 10
1.89908758E+02
 20
1.52250000E+02
 11
1.89908758E+02
 21
1.57750000E+02
  0
LINE
  8
0
 62
4
 10
3.62608747E+02
 20
2.13250000E+02
 11
2.01908758E+02
 21
2.13250000E+02
  0
LINE
  8
0
 62
4
 10
3.62608747E+02
 20
1.40250000E+02
 11
2.01908758E+02
 21
1.40250000E+02
  0
LINE
  8
0
 62
4
 10
3.80208746E+02
 20
2.23750000E+02
 11
1.85208746E+02
 21
2.23750000E+02
  0
LINE
  8
0
 62
4
 10
1.89908758E+02
 20
1.95750000E+02
 11
1.89908758E+02
 21
2.01250000E+02
  0
LINE
  8
0
 62
4
 10
1.90808752E+02
 20
1.57750000E+02
 11
1.90808752E+02
 21
1.95750000E+02
  0
LINE
  8
0
 62
6
 10
1.83708746E+02
 20
1.37750000E+02
 11
1.93708746E+02
 21
1.37750000E+02
  0
LINE
  8
0
  6
CENTER
 62
6
 10
1.88708746E+02
 20
1.32750000E+02
 11
1.88708746E+02
 21
1.42750000E+02
  0
LINE
  8
0
  6
CENTER
 62
6
 10
1.88708746E+02
 20
2.21101532E+02
 11
1.88708746E+02
 21
2.10013641E+02
  0
LINE
  8
0
  6
CENTER
 62
6
 10
1.83708746E+02
 20
2.15750000E+02
 11
1.93708746E+02
 21
2.15750000E+02
  0
LINE
  8
0
  6
CENTER
 62
6
 10
3.81708746E+02
 20
1.37750000E+02
 11
3.71708746E+02
 21
1.37750000E+02
  0
LINE
  8
0
  6
CENTER
 62
6
 10
3.76708746E+02
 20
1.32750000E+02
 11
3.76708746E+02
 21
1.42750000E+02
  0
LINE
  8
0
  6
CENTER
 62
6
 10
3.76708746E+02
 20
2.20750000E+02
 11
3.76708746E+02
 21
2.10750000E+02
  0
LINE
  8
0
  6
CENTER
 62
6
 10
3.81708746E+02
 20
2.15750000E+02
 11
3.71708746E+02
 21
2.15750000E+02
  0
LINE
  8
0
 62
4
 10
1.90808752E+02
 20
1.95750000E+02
 11
1.89908758E+02
 21
1.95750000E+02
  0
LINE
  8
0
 62
4
 10
1.90808752E+02
 20
1.57750000E+02
 11
1.89908758E+02
 21
1.57750000E+02
  0
LINE
  8
0
 62
4
 10
3.74608747E+02
 20
1.52250000E+02
 11
3.74608747E+02
 21
2.01250000E+02
  0
LINE
  8
0
 62
7
 10
1.75708746E+02
 20
2.27750000E+02
 11
3.95480055E+02
 21
2.27750000E+02
  0
LINE
  8
0
 62
7
 10
1.75708746E+02
 20
2.23750000E+02
 11
1.85208746E+02
 21
2.23750000E+02
  0
LINE
  8
0
 62
7
 10
1.75708746E+02
 20
2.20750000E+02
 11
1.80626165E+02
 21
2.20750000E+02
  0
LINE
  8
0
 62
7
 10
1.75708746E+02
 20
1.32750000E+02
 11
1.80626165E+02
 21
1.32750000E+02
  0
LINE
  8
0
 62
7
 10
1.75708746E+02
 20
1.29750000E+02
 11
1.85208746E+02
 21
1.29750000E+02
  0
LINE
  8
0
 62
7
 10
1.75708746E+02
 20
1.25750000E+02
 11
4.13465407E+02
 21
1.25750000E+02
  0
LINE
  8
0
 62
7
 10
1.75708746E+02
 20
1.25750000E+02
 11
1.46708746E+02
 21
1.25750000E+02
  0
LINE
  8
0
 62
7
 10
1.44708746E+02
 20
2.25750000E+02
 11
1.44708746E+02
 21
1.27750000E+02
  0
LINE
  8
0
  6
CENTER
 62
2
 10
1.75708746E+02
 20
1.54750000E+02
 11
1.57708746E+02
 21
1.54750000E+02
  0
LINE
  8
0
  6
CENTER
 62
2
 10
1.66708746E+02
 20
1.45750000E+02
 11
1.66708746E+02
 21
1.63750000E+02
  0
LINE
  8
0
 62
7
 10
1.75708746E+02
 20
2.27750000E+02
 11
1.46708746E+02
 21
2.27750000E+02
  0
LINE
  8
0
 62
7
 10
1.44708746E+02
 20
1.80250000E+02
 11
1.75708746E+02
 21
1.80250000E+02
  0
LINE
  8
0
 62
7
 10
1.44708746E+02
 20
1.73250000E+02
 11
1.75708746E+02
 21
1.73250000E+02
  0
LINE
  8
0
  6
CENTER
 62
2
 10
1.75708746E+02
 20
1.98750000E+02
 11
1.57708746E+02
 21
1.98750000E+02
  0
LINE
  8
0
  6
CENTER
 62
2
 10
1.66708746E+02
 20
1.89750000E+02
 11
1.66708746E+02
 21
2.07750000E+02
  0
LINE
  8
0
 62
7
 10
1.75708746E+02
 20
1.85250000E+02
 11
1.80208746E+02
 21
1.85250000E+02
  0
LINE
  8
0
 62
7
 10
1.75708746E+02
 20
1.68250000E+02
 11
1.80208746E+02
 21
1.68250000E+02
  0
LINE
  8
0
 62
7
 10
1.75708746E+02
 20
2.27750000E+02
 11
1.75708746E+02
 21
1.25750000E+02
  0
LINE
  8
0
 62
7
 10
3.85208746E+02
 20
1.32750000E+02
 11
4.12231118E+02
 21
1.32750000E+02
  0
LINE
  8
0
 62
7
 10
3.84791319E+02
 20
2.20750000E+02
 11
3.96714343E+02
 21
2.20750000E+02
  0
LINE
  8
0
 62
7
 10
3.80208746E+02
 20
2.23750000E+02
 11
3.96185362E+02
 21
2.23750000E+02
  0
LINE
  8
0
 62
7
 10
3.85208746E+02
 20
1.85250000E+02
 11
4.02973951E+02
 21
1.85250000E+02
  0
LINE
  8
0
 62
7
 10
3.85208746E+02
 20
1.68250000E+02
 11
4.05971510E+02
 21
1.68250000E+02
  0
CIRCLE
  8
0
 62
2
 10
3.42708746E+02
 20
2.00750000E+02
 40
4.00000000E+00
  0
CIRCLE
  8
0
 62
2
 10
2.22708746E+02
 20
1.52750000E+02
 40
4.00000000E+00
  0
CIRCLE
  8
0
 62
7
 10
3.42708746E+02
 20
2.00750000E+02
 40
3.40000010E+00
  0
ARC
  8
0
 62
7
 10
3.63708746E+02
 20
1.67550003E+02
 40
1.00000000E+00
 50
2.70000000E+02
 51
0.00000000E+00
  0
ARC
  8
0
 62
7
 10
2.01708746E+02
 20
1.85949997E+02
 40
1.00000000E+00
 50
9.00000002E+01
 51
1.80000005E+02
  0
ARC
  8
0
 62
7
 10
2.01708746E+02
 20
1.67550003E+02
 40
1.00000000E+00
 50
1.79999991E+02
 51
2.70000000E+02
  0
ARC
  8
0
 62
7
 10
3.63708746E+02
 20
1.85949997E+02
 40
1.00000000E+00
 50
0.00000000E+00
 51
9.00000002E+01
  0
CIRCLE
  8
0
 62
7
 10
2.22708746E+02
 20
2.00750000E+02
 40
3.40000010E+00
  0
CIRCLE
  8
0
 62
7
 10
2.22708746E+02
 20
1.52750000E+02
 40
3.40000010E+00
  0
ARC
  8
0
 62
7
 10
2.03708746E+02
 20
1.53750000E+02
 40
1.20000000E+01
 50
1.79999991E+02
 51
2.70000000E+02
  0
ARC
  8
0
 62
7
 10
2.03708746E+02
 20
1.99750000E+02
 40
1.20000000E+01
 50
9.00000002E+01
 51
1.80000005E+02
  0
CIRCLE
  8
0
 62
7
 10
3.42708746E+02
 20
1.52750000E+02
 40
3.40000010E+00
  0
ARC
  8
0
 62
7
 10
3.61708746E+02
 20
1.99750000E+02
 40
1.20000000E+01
 50
0.00000000E+00
 51
9.00000002E+01
  0
CIRCLE
  8
0
 62
2
 10
3.42708746E+02
 20
1.52750000E+02
 40
4.00000000E+00
  0
ARC
  8
0
 62
7
 10
3.61708746E+02
 20
1.53750000E+02
 40
1.20000000E+01
 50
2.70000000E+02
 51
0.00000000E+00
  0
CIRCLE
  8
0
 62
2
 10
2.22708746E+02
 20
2.00750000E+02
 40
4.00000000E+00
  0
ARC
  8
0
 62
4
 10
2.01908758E+02
 20
1.52250000E+02
 40
1.20000000E+01
 50
1.79999991E+02
 51
2.70000000E+02
  0
ARC
  8
0
 62
4
 10
2.01908758E+02
 20
2.01250000E+02
 40
1.20000000E+01
 50
9.00000002E+01
 51
1.80000005E+02
  0
ARC
  8
0
 62
4
 10
3.62608747E+02
 20
2.01250000E+02
 40
1.20000000E+01
 50
0.00000000E+00
 51
9.00000002E+01
  0
ARC
  8
0
 62
4
 10
3.80208746E+02
 20
1.34750000E+02
 40
5.00000000E+00
 50
2.70000000E+02
 51
0.00000000E+00
  0
ARC
  8
0
 62
4
 10
1.85208746E+02
 20
2.18750000E+02
 40
5.00000000E+00
 50
9.00000002E+01
 51
1.80000005E+02
  0
ARC
  8
0
 62
4
 10
1.85208746E+02
 20
1.34750000E+02
 40
5.00000000E+00
 50
1.79999991E+02
 51
2.70000000E+02
  0
ARC
  8
0
 62
4
 10
3.80208746E+02
 20
2.18750000E+02
 40
5.00000000E+00
 50
0.00000000E+00
 51
9.00000002E+01
  0
CIRCLE
  8
0
 62
4
 10
1.88708746E+02
 20
1.37750000E+02
 40
3.40000010E+00
  0
CIRCLE
  8
0
 62
6
 10
1.88708746E+02
 20
1.37750000E+02
 40
4.00000000E+00
  0
CIRCLE
  8
0
 62
4
 10
1.88708746E+02
 20
2.15750000E+02
 40
3.40000010E+00
  0
CIRCLE
  8
0
 62
6
 10
1.88708746E+02
 20
2.15750000E+02
 40
4.00000000E+00
  0
CIRCLE
  8
0
 62
4
 10
3.76708746E+02
 20
1.37750000E+02
 40
3.40000010E+00
  0
CIRCLE
  8
0
 62
6
 10
3.76708746E+02
 20
1.37750000E+02
 40
4.00000000E+00
  0
CIRCLE
  8
0
 62
4
 10
3.76708746E+02
 20
2.15750000E+02
 40
3.40000010E+00
  0
CIRCLE
  8
0
 62
6
 10
3.76708746E+02
 20
2.15750000E+02
 40
4.00000000E+00
  0
ARC
  8
0
 62
4
 10
3.62608747E+02
 20
1.52250000E+02
 40
1.20000000E+01
 50
2.70000000E+02
 51
0.00000000E+00
  0
CIRCLE
  8
0
 62
7
 10
1.66708746E+02
 20
1.54750000E+02
 40
4.50000000E+00
  0
ARC
  8
0
 62
7
 10
1.46708746E+02
 20
2.25750000E+02
 40
2.00000000E+00
 50
9.00000002E+01
 51
1.80000005E+02
  0
CIRCLE
  8
0
 62
7
 10
1.66708746E+02
 20
1.54750000E+02
 40
7.00000000E+00
  0
CIRCLE
  8
0
 62
7
 10
1.66708746E+02
 20
1.98750000E+02
 40
4.50000000E+00
  0
CIRCLE
  8
0
 62
7
 10
1.66708746E+02
 20
1.98750000E+02
 40
7.00000000E+00
  0
ARC
  8
0
 62
7
 10
1.46708746E+02
 20
1.27750000E+02
 40
2.00000000E+00
 50
1.79999991E+02
 51
2.70000000E+02
  0
LINE
  8
0
 62
7
 10
3.80208746E+02
 20
1.29750000E+02
 11
4.12760099E+02
 21
1.29750000E+02
  0
LINE
  8
0
  6
CENTER
 62
2
 10
4.34142067E+02
 20
1.76750000E+02
 11
5.27051535E+02
 21
1.76750000E+02
  0
CIRCLE
  8
0
 62
7
 10
5.07706045E+02
 20
2.17750000E+02
 40
6.50000000E+00
  0
CIRCLE
  8
0
 62
7
 10
5.07706045E+02
 20
2.17750000E+02
 40
3.46410155E+00
  0
CIRCLE
  8
0
 62
7
 10
4.68706045E+02
 20
1.35250000E+02
 40
6.50000000E+00
  0
CIRCLE
  8
0
 62
7
 10
4.68706045E+02
 20
1.35250000E+02
 40
3.46410155E+00
  0
CIRCLE
  8
0
 62
7
 10
4.68706045E+02
 20
2.18250000E+02
 40
3.46410155E+00
  0
CIRCLE
  8
0
 62
7
 10
4.68706045E+02
 20
2.18250000E+02
 40
6.50000000E+00
  0
CIRCLE
  8
0
 62
7
 10
4.68706045E+02
 20
1.35250000E+02
 40
7.00000000E+00
  0
ARC
  8
0
 62
7
 10
4.65706045E+02
 20
1.43750000E+02
 40
1.80000000E+01
 50
1.79999989E+02
 51
2.70000000E+02
  0
ARC
  8
0
 62
7
 10
4.65706045E+02
 20
2.09750000E+02
 40
1.80000000E+01
 50
9.00000002E+01
 51
1.80000003E+02
  0
ARC
  8
0
 62
7
 10
4.85906042E+02
 20
2.24549988E+02
 40
2.00000000E+00
 50
1.79999989E+02
 51
2.70000000E+02
  0
ARC
  8
0
 62
7
 10
4.92706045E+02
 20
2.24549988E+02
 40
2.00000000E+00
 50
2.70000000E+02
 51
6.83245433E-07
  0
CIRCLE
  8
0
 62
7
 10
5.07706045E+02
 20
2.17750000E+02
 40
7.00000000E+00
  0
CIRCLE
  8
0
 62
7
 10
4.68706045E+02
 20
2.18250000E+02
 40
7.00000000E+00
  0
LINE
  8
0
 62
7
 10
5.04706045E+02
 20
2.19482056E+02
 11
5.04706045E+02
 21
2.16017944E+02
  0
LINE
  8
0
 62
7
 10
5.07706052E+02
 20
2.14285898E+02
 11
5.04706043E+02
 21
2.16017953E+02
  0
LINE
  8
0
 62
7
 10
5.10706052E+02
 20
2.19482050E+02
 11
5.07706043E+02
 21
2.21214106E+02
  0
LINE
  8
0
 62
7
 10
5.10706045E+02
 20
2.19482056E+02
 11
5.10706045E+02
 21
2.16017944E+02
  0
LINE
  8
0
 62
7
 10
5.07706041E+02
 20
2.21214103E+02
 11
5.04706046E+02
 21
2.19482055E+02
  0
LINE
  8
0
 62
7
 10
5.10706041E+02
 20
2.16017950E+02
 11
5.07706046E+02
 21
2.14285902E+02
  0
LINE
  8
0
 62
7
 10
4.68706048E+02
 20
1.31785899E+02
 11
4.65706053E+02
 21
1.33517947E+02
  0
LINE
  8
0
 62
7
 10
4.71706048E+02
 20
1.36982051E+02
 11
4.68706053E+02
 21
1.38714099E+02
  0
LINE
  8
0
 62
7
 10
4.71706041E+02
 20
1.33517948E+02
 11
4.68706045E+02
 21
1.31785900E+02
  0
LINE
  8
0
 62
7
 10
4.71706045E+02
 20
1.36982056E+02
 11
4.71706045E+02
 21
1.33517944E+02
  0
LINE
  8
0
 62
7
 10
4.65706045E+02
 20
1.36982056E+02
 11
4.65706045E+02
 21
1.33517944E+02
  0
LINE
  8
0
 62
7
 10
4.68706041E+02
 20
1.38714100E+02
 11
4.65706045E+02
 21
1.36982052E+02
  0
LINE
  8
0
 62
7
 10
4.65706045E+02
 20
2.19982056E+02
 11
4.65706045E+02
 21
2.16517944E+02
  0
LINE
  8
0
 62
7
 10
4.71706045E+02
 20
2.19982056E+02
 11
4.71706045E+02
 21
2.16517944E+02
  0
LINE
  8
0
 62
7
 10
4.71706052E+02
 20
2.16517957E+02
 11
4.68706043E+02
 21
2.14785902E+02
  0
LINE
  8
0
 62
7
 10
4.68706052E+02
 20
2.21714110E+02
 11
4.65706043E+02
 21
2.19982054E+02
  0
LINE
  8
0
 62
7
 10
4.71706050E+02
 20
2.19982053E+02
 11
4.68706055E+02
 21
2.21714101E+02
  0
LINE
  8
0
 62
7
 10
4.68706050E+02
 20
2.14785901E+02
 11
4.65706055E+02
 21
2.16517949E+02
  0
LINE
  8
0
 62
7
 10
4.47906046E+02
 20
1.73250000E+02
 11
4.47906046E+02
 21
1.80250000E+02
  0
LINE
  8
0
 62
7
 10
4.47706045E+02
 20
1.80250000E+02
 11
4.47706045E+02
 21
2.09750000E+02
  0
LINE
  8
0
  6
CENTER
 62
2
 10
4.68706045E+02
 20
2.10250000E+02
 11
4.68706045E+02
 21
2.26250000E+02
  0
LINE
  8
0
 62
7
 10
4.78706045E+02
 20
1.67250000E+02
 11
4.78706045E+02
 21
1.86250000E+02
  0
LINE
  8
0
 62
7
 10
4.58706045E+02
 20
1.86250000E+02
 11
4.78706045E+02
 21
1.86250000E+02
  0
LINE
  8
0
 62
7
 10
4.58706045E+02
 20
1.67250000E+02
 11
4.58706045E+02
 21
1.73250000E+02
  0
LINE
  8
0
 62
7
 10
4.83906042E+02
 20
2.24549988E+02
 11
4.83906042E+02
 21
2.27750000E+02
  0
LINE
  8
0
 62
7
 10
4.65706045E+02
 20
2.27750000E+02
 11
4.83906042E+02
 21
2.27750000E+02
  0
LINE
  8
0
 62
7
 10
5.15706045E+02
 20
1.25750000E+02
 11
5.15706045E+02
 21
1.75250000E+02
  0
LINE
  8
0
 62
7
 10
5.14706045E+02
 20
1.78250000E+02
 11
5.14706045E+02
 21
1.75250000E+02
  0
LINE
  8
0
 62
7
 10
5.15706045E+02
 20
1.78250000E+02
 11
5.15706045E+02
 21
2.27750000E+02
  0
LINE
  8
0
  6
CENTER
 62
2
 10
4.99706045E+02
 20
2.17750000E+02
 11
5.15706045E+02
 21
2.17750000E+02
  0
LINE
  8
0
  6
CENTER
 62
2
 10
5.07706045E+02
 20
2.25750000E+02
 11
5.07706045E+02
 21
2.09750000E+02
  0
LINE
  8
0
 62
7
 10
4.85906042E+02
 20
2.22549988E+02
 11
4.92706045E+02
 21
2.22549988E+02
  0
LINE
  8
0
 62
7
 10
4.94706045E+02
 20
2.24549988E+02
 11
4.94706045E+02
 21
2.27750000E+02
  0
LINE
  8
0
 62
7
 10
4.94706045E+02
 20
2.27750000E+02
 11
5.15706045E+02
 21
2.27750000E+02
  0
LINE
  8
0
 62
7
 10
4.65706045E+02
 20
1.25750000E+02
 11
5.15706045E+02
 21
1.25750000E+02
  0
LINE
  8
0
 62
7
 10
4.58706045E+02
 20
1.67250000E+02
 11
4.78706045E+02
 21
1.67250000E+02
  0
LINE
  8
0
 62
7
 10
4.58706045E+02
 20
1.80250000E+02
 11
4.47706045E+02
 21
1.80250000E+02
  0
LINE
  8
0
 62
7
 10
4.58706045E+02
 20
1.73250000E+02
 11
4.47706045E+02
 21
1.73250000E+02
  0
LINE
  8
0
 62
7
 10
4.58706045E+02
 20
1.80250000E+02
 11
4.58706045E+02
 21
1.86250000E+02
  0
LINE
  8
0
  6
CENTER
 62
2
 10
4.60706045E+02
 20
1.35250000E+02
 11
4.76706045E+02
 21
1.35250000E+02
  0
LINE
  8
0
 62
7
 10
5.14706045E+02
 20
1.75250000E+02
 11
5.15706045E+02
 21
1.75250000E+02
  0
LINE
  8
0
 62
7
 10
4.47706045E+02
 20
1.43750000E+02
 11
4.47706045E+02
 21
1.73250000E+02
  0
LINE
  8
0
 62
7
 10
5.14706045E+02
 20
1.78250000E+02
 11
5.15706045E+02
 21
1.78250000E+02
  0
LINE
  8
0
  6
CENTER
 62
2
 10
4.68706045E+02
 20
1.43250000E+02
 11
4.68706045E+02
 21
1.27250000E+02
  0
LINE
  8
0
  6
CENTER
 62
2
 10
4.60706045E+02
 20
2.18250000E+02
 11
4.76706045E+02
 21
2.18250000E+02
  0
LINE
  8
0
 62
4
 10
4.42706045E+02
 20
2.23750000E+02
 11
4.42706045E+02
 21
1.29750000E+02
  0
LINE
  8
0
 62
4
 10
4.42706045E+02
 20
2.23750000E+02
 11
4.54392337E+02
 21
2.23750000E+02
  0
LINE
  8
0
 62
4
 10
4.42706045E+02
 20
1.29750000E+02
 11
4.54392337E+02
 21
1.29750000E+02
  0
LINE
  8
0
 62
4
 10
1.86208966E+02
 20
-2.01542855E+02
 11
2.61208966E+02
 21
-2.01542855E+02
  0
LINE
  8
0
 62
4
 10
1.86208966E+02
 20
-1.91542855E+02
 11
2.61208966E+02
 21
-1.91542855E+02
  0
LINE
  8
0
 62
4
 10
1.86208966E+02
 20
-2.01542855E+02
 11
1.86208966E+02
 21
-1.91542855E+02
  0
LINE
  8
0
 62
4
 10
2.61208966E+02
 20
-2.01542855E+02
 11
2.61208966E+02
 21
-1.91542855E+02
  0
LINE
  8
0
  6
CENTER
 62
6
 10
1.96208966E+02
 20
-2.04271416E+02
 11
1.96208966E+02
 21
-1.88357186E+02
  0
LINE
  8
0
  6
CENTER
 62
6
 10
2.51208966E+02
 20
-2.04449242E+02
 11
2.51208966E+02
 21
-1.88623894E+02
  0
LINE
  8
0
  6
CENTER
 62
6
 10
2.23708966E+02
 20
-2.05160485E+02
 11
2.23708966E+02
 21
-1.86934685E+02
  0
LINE
  8
0
  6
DASHED
 62
6
 10
1.91688977E+02
 20
-2.01542855E+02
 11
1.91688977E+02
 21
-1.91542855E+02
  0
LINE
  8
0
  6
DASHED
 62
6
 10
2.00728955E+02
 20
-2.01542855E+02
 11
2.00728955E+02
 21
-1.91542855E+02
  0
LINE
  8
0
  6
DASHED
 62
6
 10
2.46688977E+02
 20
-2.01542855E+02
 11
2.46688977E+02
 21
-1.91542855E+02
  0
LINE
  8
0
  6
DASHED
 62
6
 10
2.55728970E+02
 20
-2.01542855E+02
 11
2.55728970E+02
 21
-1.91542855E+02
  0
LINE
  8
0
  6
CENTER
 62
6
 10
4.74208966E+02
 20
-1.88907128E+02
 11
4.74208966E+02
 21
-2.05434823E+02
  0
LINE
  8
0
 62
4
 10
4.82208966E+02
 20
-1.93042855E+02
 11
4.82208966E+02
 21
-2.01542855E+02
  0
LINE
  8
0
 62
4
 10
4.66208966E+02
 20
-1.91542855E+02
 11
4.80708966E+02
 21
-1.91542855E+02
  0
LINE
  8
0
  6
DASHED
 62
6
 10
4.69708966E+02
 20
-1.91542855E+02
 11
4.69708966E+02
 21
-2.01542855E+02
  0
LINE
  8
0
 62
4
 10
3.64208966E+02
 20
-1.91542855E+02
 11
3.49708966E+02
 21
-1.91542855E+02
  0
LINE
  8
0
  6
DASHED
 62
6
 10
3.60708966E+02
 20
-1.91542855E+02
 11
3.60708966E+02
 21
-2.01542855E+02
  0
LINE
  8
0
 62
4
 10
4.66208966E+02
 20
-2.01542855E+02
 11
4.82208966E+02
 21
-2.01542855E+02
  0
LINE
  8
0
 62
4
 10
3.64208966E+02
 20
-2.01542855E+02
 11
3.48208966E+02
 21
-2.01542855E+02
  0
LINE
  8
0
 62
4
 10
3.48208966E+02
 20
-1.93042855E+02
 11
3.48208966E+02
 21
-2.01542855E+02
  0
LINE
  8
0
  6
DASHED
 62
6
 10
4.78708966E+02
 20
-1.91542855E+02
 11
4.78708966E+02
 21
-2.01542855E+02
  0
LINE
  8
0
  6
CENTER
 62
6
 10
3.56208966E+02
 20
-1.88907128E+02
 11
3.56208966E+02
 21
-2.05434823E+02
  0
LINE
  8
0
  6
DASHED
 62
6
 10
3.51708966E+02
 20
-1.91542855E+02
 11
3.51708966E+02
 21
-2.01542855E+02
  0
ARC
  8
0
 62
4
 10
4.80708966E+02
 20
-1.93042855E+02
 40
1.50000000E+00
 50
0.00000000E+00
 51
9.00000002E+01
  0
ARC
  8
0
 62
4
 10
3.49708966E+02
 20
-1.93042855E+02
 40
1.50000000E+00
 50
9.00000002E+01
 51
1.80000005E+02
  0
TEXT
  8
0
 62
7
 10
2.72114663E+02
 20
3.55750000E+02
 40
1.25000000E+01
  1
M-MOUNT(-M)
 41
1.00000000E+00
  7
MONOTXT
  0
TEXT
  8
0
 62
7
 10
2.59614663E+02
 20
-1.47500000E+01
 40
1.25000000E+01
  1
F-SUPPORT(-F)
 41
1.00000000E+00
  7
MONOTXT
  0
LINE
  8
0
 62
7
 10
1.04494949E+02
 20
0.00000000E+00
 11
5.74500000E+02
 21
0.00000000E+00
  0
LINE
  8
0
 62
7
 10
1.04494949E+02
 20
-1.70000000E+01
 11
5.74500000E+02
 21
-1.70000000E+01
  0
LINE
  8
0
 62
7
 10
1.04494949E+02
 20
3.70500000E+02
 11
5.74500000E+02
 21
3.70500000E+02
  0
LINE
  8
0
 62
7
 10
1.04494949E+02
 20
3.53500000E+02
 11
5.74500000E+02
 21
3.53500000E+02
  0
LINE
  8
0
 62
7
 10
1.04494949E+02
 20
-4.00500000E+02
 11
1.04494949E+02
 21
3.70500000E+02
  0
TEXT
  8
0
 10
-2.89937556E+02
 20
3.06870599E+02
 40
9.00000000E+00
  1
STRETCH LINE
 41
1.05263158E+00
  7
MONOTXT
  0
TEXT
  8
0
 10
-2.89937556E+02
 20
-1.30084926E+01
 40
9.00000000E+00
  1
STRETCH LINE
 41
1.05263158E+00
  7
MONOTXT
  0
TEXT
  8
0
 62
7
 10
-5.43483017E+02
 20
1.03829486E+01
 40
1.25000000E+01
  1
MODEL:ORV50*ST(100)-K2
 41
1.00000015E+00
  7
MONOTXT
  0
TEXT
  8
0
 62
7
 10
-5.37179687E+02
 20
3.34250000E+02
 40
1.25000000E+01
  1
MODEL:ORV50*ST(100)
 41
1.00000015E+00
  7
MONOTXT
  0
TEXT
  8
0
 62
7
 10
-5.37959051E+02
 20
3.19558061E+02
 40
1.25000000E+01
  1
(WITH SENSOR SWITCH)
 41
9.28740238E-01
  7
MONOTXT
  0
LINE
  8
0
 62
7
 10
-5.54500000E+02
 20
-3.60500000E+02
 11
5.75000000E+01
 21
-3.60500000E+02
  0
LINE
  8
0
 62
7
 10
-5.54500000E+02
 20
-3.75500000E+02
 11
5.75000000E+01
 21
-3.75500000E+02
  0
TEXT
  8
0
 62
7
 10
-7.17146873E+01
 20
-3.72500000E+02
 40
9.00000000E+00
  1
1000
 41
1.00000000E+00
  7
MONOTXT
  0
LINE
  8
0
 62
7
 10
-5.54500000E+02
 20
-3.90500000E+02
 11
5.75000000E+01
 21
-3.90500000E+02
  0
LINE
  8
0
 62
7
 10
-7.75000000E+01
 20
-3.60500000E+02
 11
-7.75000000E+01
 21
-3.90500000E+02
  0
TEXT
  8
0
 62
7
 10
-6.72146873E+01
 20
-3.87500000E+02
 40
9.00000000E+00
  1
900
 41
1.00000000E+00
  7
MONOTXT
  0
LINE
  8
0
 62
7
 10
-1.22500000E+02
 20
-3.60500000E+02
 11
-1.22500000E+02
 21
-3.90500000E+02
  0
TEXT
  8
0
 62
7
 10
-1.12214687E+02
 20
-3.87500000E+02
 40
9.00000000E+00
  1
800
 41
1.00000000E+00
  7
MONOTXT
  0
LINE
  8
0
 62
7
 10
-1.67500000E+02
 20
-3.60500000E+02
 11
-1.67500000E+02
 21
-3.90500000E+02
  0
TEXT
  8
0
 62
7
 10
-1.57214687E+02
 20
-3.87500000E+02
 40
9.00000000E+00
  1
700
 41
1.00000000E+00
  7
MONOTXT
  0
LINE
  8
0
 62
7
 10
-2.12500000E+02
 20
-3.60500000E+02
 11
-2.12500000E+02
 21
-3.90500000E+02
  0
TEXT
  8
0
 62
7
 10
-2.02214687E+02
 20
-3.87500000E+02
 40
9.00000000E+00
  1
600
 41
1.00000000E+00
  7
MONOTXT
  0
LINE
  8
0
 62
7
 10
-2.57500000E+02
 20
-3.60500000E+02
 11
-2.57500000E+02
 21
-3.90500000E+02
  0
TEXT
  8
0
 62
7
 10
-2.47214687E+02
 20
-3.87500000E+02
 40
9.00000000E+00
  1
500
 41
1.00000000E+00
  7
MONOTXT
  0
LINE
  8
0
 62
7
 10
-3.02500000E+02
 20
-3.60500000E+02
 11
-3.02500000E+02
 21
-3.90500000E+02
  0
TEXT
  8
0
 62
7
 10
-2.92214687E+02
 20
-3.87500000E+02
 40
9.00000000E+00
  1
400
 41
1.00000000E+00
  7
MONOTXT
  0
LINE
  8
0
 62
7
 10
-3.47500000E+02
 20
-3.60500000E+02
 11
-3.47500000E+02
 21
-3.90500000E+02
  0
TEXT
  8
0
 62
7
 10
-3.37214687E+02
 20
-3.87500000E+02
 40
9.00000000E+00
  1
300
 41
1.00000000E+00
  7
MONOTXT
  0
LINE
  8
0
 62
7
 10
-3.92500000E+02
 20
-3.60500000E+02
 11
-3.92500000E+02
 21
-3.90500000E+02
  0
TEXT
  8
0
 62
7
 10
-3.82214687E+02
 20
-3.87500000E+02
 40
9.00000000E+00
  1
200
 41
1.00000000E+00
  7
MONOTXT
  0
LINE
  8
0
 62
7
 10
-4.37500000E+02
 20
-3.60500000E+02
 11
-4.37500000E+02
 21
-3.90500000E+02
  0
TEXT
  8
0
 62
7
 10
-4.27214687E+02
 20
-3.87500000E+02
 40
9.00000000E+00
  1
100
 41
1.00000000E+00
  7
MONOTXT
  0
TEXT
  8
0
 62
7
 10
-1.12214687E+02
 20
-3.72500000E+02
 40
9.00000000E+00
  1
900
 41
1.00000000E+00
  7
MONOTXT
  0
TEXT
  8
0
 62
7
 10
-1.57214687E+02
 20
-3.72500000E+02
 40
9.00000000E+00
  1
800
 41
1.00000000E+00
  7
MONOTXT
  0
TEXT
  8
0
 62
7
 10
-2.02214687E+02
 20
-3.72500000E+02
 40
9.00000000E+00
  1
700
 41
1.00000000E+00
  7
MONOTXT
  0
TEXT
  8
0
 62
7
 10
-2.47214687E+02
 20
-3.72500000E+02
 40
9.00000000E+00
  1
600
 41
1.00000000E+00
  7
MONOTXT
  0
TEXT
  8
0
 62
7
 10
-2.92214687E+02
 20
-3.72500000E+02
 40
9.00000000E+00
  1
500
 41
1.00000000E+00
  7
MONOTXT
  0
TEXT
  8
0
 62
7
 10
-3.37214687E+02
 20
-3.72500000E+02
 40
9.00000000E+00
  1
400
 41
1.00000000E+00
  7
MONOTXT
  0
TEXT
  8
0
 62
7
 10
-3.82214687E+02
 20
-3.72500000E+02
 40
9.00000000E+00
  1
300
 41
1.00000000E+00
  7
MONOTXT
  0
TEXT
  8
0
 62
7
 10
-4.27214687E+02
 20
-3.72500000E+02
 40
9.00000000E+00
  1
200
 41
1.00000000E+00
  7
MONOTXT
  0
LINE
  8
0
 62
7
 10
-5.54500000E+02
 20
-3.60500000E+02
 11
-5.54500000E+02
 21
-3.90500000E+02
  0
LINE
  8
0
 62
7
 10
-4.82500000E+02
 20
-3.60500000E+02
 11
-4.82500000E+02
 21
-3.90500000E+02
  0
TEXT
  8
0
 62
7
 10
-5.44214687E+02
 20
-3.72500000E+02
 40
9.00000000E+00
  1
STROKE
 41
1.00000000E+00
  7
MONOTXT
  0
TEXT
  8
0
 62
7
 10
-4.72214687E+02
 20
-3.72500000E+02
 40
9.00000000E+00
  1
100
 41
1.00000000E+00
  7
MONOTXT
  0
TEXT
  8
0
 62
7
 10
-5.48714687E+02
 20
-3.87500000E+02
 40
9.00000000E+00
  1
STRETCH
 41
1.00000000E+00
  7
MONOTXT
  0
TEXT
  8
0
 62
7
 10
-4.63214687E+02
 20
-3.87500000E+02
 40
9.00000000E+00
  1
0
 41
1.00000000E+00
  7
MONOTXT
  0
LINE
  8
0
 62
7
 10
5.75000000E+01
 20
-3.60500000E+02
 11
5.75000000E+01
 21
-3.90500000E+02
  0
LINE
  8
0
 62
7
 10
1.25000000E+01
 20
-3.60500000E+02
 11
1.25000000E+01
 21
-3.90500000E+02
  0
TEXT
  8
0
 62
7
 10
1.82853127E+01
 20
-3.87500000E+02
 40
9.00000000E+00
  1
1100
 41
1.00000000E+00
  7
MONOTXT
  0
TEXT
  8
0
 62
7
 10
1.82853127E+01
 20
-3.72500000E+02
 40
9.00000000E+00
  1
1200
 41
1.00000000E+00
  7
MONOTXT
  0
LINE
  8
0
 62
7
 10
-3.25000000E+01
 20
-3.60500000E+02
 11
-3.25000000E+01
 21
-3.90500000E+02
  0
TEXT
  8
0
 62
7
 10
-2.67146873E+01
 20
-3.87500000E+02
 40
9.00000000E+00
  1
1000
 41
1.00000000E+00
  7
MONOTXT
  0
TEXT
  8
0
 62
7
 10
-2.67146873E+01
 20
-3.72500000E+02
 40
9.00000000E+00
  1
1100
 41
1.00000000E+00
  7
MONOTXT
  0
TEXT
  8
0
 62
7
 10
2.94851416E+01
 20
-3.56255112E+02
 40
9.00000000E+00
  1
(mm)
 41
1.00000000E+00
  7
MONOTXT
  0
TEXT
  8
0
 62
7
 10
-3.01214687E+02
 20
-3.55000000E+02
 40
9.00000000E+00
  1
STRETCH LIST
 41
1.05263158E+00
  7
MONOTXT
  0
LINE
  8
0
  6
PHANTOM
 62
2
 10
1.62921595E+02
 20
-1.90542840E+02
 11
2.80617138E+02
 21
-1.90542840E+02
  0
LINE
  8
0
  6
PHANTOM
 62
2
 10
2.61208966E+02
 20
-1.95342858E+02
 11
2.81463511E+02
 21
-1.95342858E+02
  0
LINE
  8
0
  6
PHANTOM
 62
2
 10
2.61208966E+02
 20
-2.01542855E+02
 11
2.82556737E+02
 21
-2.01542855E+02
  0
LINE
  8
0
  6
PHANTOM
 62
2
 10
1.86208966E+02
 20
-1.95342858E+02
 11
1.63767968E+02
 21
-1.95342858E+02
  0
LINE
  8
0
  6
PHANTOM
 62
2
 10
1.86208966E+02
 20
-2.01542855E+02
 11
1.64861195E+02
 21
-2.01542855E+02
  0
LINE
  8
0
  6
CENTER
 62
2
 10
4.15208966E+02
 20
-1.24542855E+02
 11
4.15208966E+02
 21
-2.06542855E+02
  0
LINE
  8
0
  6
PHANTOM
 62
2
 10
3.80208966E+02
 20
-1.29542855E+02
 11
4.50208966E+02
 21
-1.29542855E+02
  0
LINE
  8
0
  6
PHANTOM
 62
2
 10
4.50208966E+02
 20
-1.29542855E+02
 11
4.50208966E+02
 21
-1.33654313E+02
  0
LINE
  8
0
  6
PHANTOM
 62
2
 10
3.80208966E+02
 20
-1.29542855E+02
 11
3.80208966E+02
 21
-1.33654313E+02
  0
LINE
  8
0
  6
PHANTOM
 62
2
 10
4.16708966E+02
 20
-2.00542855E+02
 11
4.16708966E+02
 21
-2.01542855E+02
  0
LINE
  8
0
  6
PHANTOM
 62
2
 10
3.82208966E+02
 20
-1.33542855E+02
 11
4.11708966E+02
 21
-1.33542855E+02
  0
LINE
  8
0
  6
PHANTOM
 62
2
 10
4.13708966E+02
 20
-2.00542855E+02
 11
4.13708966E+02
 21
-2.01542855E+02
  0
LINE
  8
0
  6
PHANTOM
 62
2
 10
3.64208966E+02
 20
-1.51542855E+02
 11
3.64208966E+02
 21
-2.01542855E+02
  0
LINE
  8
0
  6
PHANTOM
 62
2
 10
4.66208966E+02
 20
-1.80542855E+02
 11
4.66208966E+02
 21
-2.01542855E+02
  0
LINE
  8
0
  6
PHANTOM
 62
2
 10
4.63008954E+02
 20
-1.80542855E+02
 11
4.66208966E+02
 21
-1.80542855E+02
  0
LINE
  8
0
  6
PHANTOM
 62
2
 10
4.61008954E+02
 20
-1.71742852E+02
 11
4.61008954E+02
 21
-1.78542855E+02
  0
LINE
  8
0
  6
PHANTOM
 62
2
 10
4.16708966E+02
 20
-2.01542855E+02
 11
4.66208966E+02
 21
-2.01542855E+02
  0
LINE
  8
0
  6
PHANTOM
 62
2
 10
4.16708966E+02
 20
-2.00542855E+02
 11
4.13708966E+02
 21
-2.00542855E+02
  0
LINE
  8
0
  6
PHANTOM
 62
2
 10
3.64208966E+02
 20
-2.01542855E+02
 11
4.13708966E+02
 21
-2.01542855E+02
  0
LINE
  8
0
  6
PHANTOM
 62
2
 10
4.66208966E+02
 20
-1.51542855E+02
 11
4.66208966E+02
 21
-1.69742852E+02
  0
LINE
  8
0
  6
PHANTOM
 62
2
 10
4.63008954E+02
 20
-1.69742852E+02
 11
4.66208966E+02
 21
-1.69742852E+02
  0
LINE
  8
0
  6
PHANTOM
 62
2
 10
4.18708966E+02
 20
-1.33542855E+02
 11
4.48208966E+02
 21
-1.33542855E+02
  0
LINE
  8
0
  6
PHANTOM
 62
2
 10
4.11708966E+02
 20
-1.33742856E+02
 11
4.18708966E+02
 21
-1.33742856E+02
  0
ARC
  8
0
  6
PHANTOM
 62
2
 10
4.63008954E+02
 20
-1.78542855E+02
 40
2.00000000E+00
 50
1.79999991E+02
 51
2.70000000E+02
  0
ARC
  8
0
  6
PHANTOM
 62
2
 10
4.63008954E+02
 20
-1.71742852E+02
 40
2.00000000E+00
 50
9.00000002E+01
 51
1.80000005E+02
  0
ARC
  8
0
  6
PHANTOM
 62
2
 10
4.48208966E+02
 20
-1.51542855E+02
 40
1.80000000E+01
 50
9.33466765E-06
 51
9.00000002E+01
  0
ARC
  8
0
  6
PHANTOM
 62
2
 10
3.82208966E+02
 20
-1.51542855E+02
 40
1.80000000E+01
 50
9.00000002E+01
 51
1.80000005E+02
  0
LINE
  8
0
  6
PHANTOM
 62
2
 10
1.52165652E+02
 20
-1.29542855E+02
 11
2.69861195E+02
 21
-1.29542855E+02
  0
LINE
  8
0
  6
PHANTOM
 62
2
 10
1.52870960E+02
 20
-1.33542855E+02
 11
2.70566503E+02
 21
-1.33542855E+02
  0
LINE
  8
0
  6
PHANTOM
 10
2.84891375E+02
 20
-2.14783243E+02
 11
2.67526557E+02
 21
-1.16302467E+02
  0
LINE
  8
0
  6
PHANTOM
 10
1.67195832E+02
 20
-2.14783243E+02
 11
1.49831014E+02
 21
-1.16302467E+02
  0
LINE
  8
0
 62
7
 10
5.74500000E+02
 20
4.00500000E+02
 11
5.74500000E+02
 21
-4.00500000E+02
  0
LINE
  8
0
 62
7
 10
-5.64500000E+02
 20
4.00500000E+02
 11
5.74500000E+02
 21
4.00500000E+02
  0
LINE
  8
0
 62
7
 10
-5.64500000E+02
 20
-4.00500000E+02
 11
5.74500000E+02
 21
-4.00500000E+02
  0
LINE
  8
0
 62
7
 10
-5.64500000E+02
 20
4.00500000E+02
 11
-5.64500000E+02
 21
-4.00500000E+02
  0
LINE
  8
0
 62
7
 10
-5.64500000E+02
 20
3.70500000E+02
 11
-3.34500000E+02
 21
3.70500000E+02
  0
LINE
  8
0
 62
7
 10
3.44500000E+02
 20
-3.70500000E+02
 11
5.74500000E+02
 21
-3.70500000E+02
  0
LINE
  8
0
 62
7
 10
3.44500000E+02
 20
-3.70500000E+02
 11
3.44500000E+02
 21
-4.00500000E+02
  0
LINE
  8
0
 62
7
 10
3.44500000E+02
 20
4.00500000E+02
 11
3.44500000E+02
 21
3.70500000E+02
  0
LINE
  8
0
 62
7
 10
-3.34500000E+02
 20
4.00500000E+02
 11
-3.34500000E+02
 21
3.70500000E+02
  0
TEXT
  8
0
 62
7
 10
4.11285149E+02
 20
3.79250000E+02
 40
1.25000000E+01
  1
Ver. 1.0
 41
1.08108125E+00
  7
MONOTXT
  0
TEXT
  8
0
 62
7
 10
3.50070624E+02
 20
-3.94500000E+02
 40
1.80000000E+01
  1
KOGANEI CORP.
 41
1.04838710E+00
  7
MONOTXT
  0
TEXT
  8
0
 62
7
 10
-5.47714858E+02
 20
3.79250000E+02
 40
1.25000000E+01
  1
RODLESS CYLINDER
 41
1.03896120E+00
  7
MONOTXT
  0
ENDSEC
  0
EOF
