  0
SECTION
  2
HEADER
  0
ENDSEC
  0
SECTION
  2
TABLES
  0
TABLE
  2
LTYPE
 70
     4
  0
LTYPE
  2
CONTINUOUS
 70
    64
  3
Solid line
 72
    65
 73
     0
 40
0.000000
  0
LTYPE
  2
DASHED
 70
    64
  3
__ __ __ __ __ __ __ __ __ __ __ __ __ __ __
 72
    65
 73
     2
 40
3.500000
 49
2.000000
 49
-1.500000
  0
LTYPE
  2
CENTER
 70
    64
  3
____ _ ____ _ ____ _ ____ _ ____ _ ____ _ ____
 72
    65
 73
     4
 40
17.500000
 49
13.000000
 49
-1.500000
 49
1.500000
 49
-1.500000
  0
LTYPE
  2
PHANTOM
 70
    64
  3
_____ _ _ _____ _ _ _____ _ _ _____ _ _ ____  
 72
    65
 73
     6
 40
15.500000
 49
8.000000
 49
-1.500000
 49
1.500000
 49
-1.500000
 49
1.500000
 49
-1.500000
  0
ENDTAB
  0
TABLE
  2
LAYER
 70
     1
  0
LAYER
  2
0
 70
     0
 62
     7
  6
CONTINUOUS
  0
ENDTAB
  0
TABLE
  2
STYLE
 70
     1
  0
STYLE
  2
STANDARD
 70
     0
 40
0.000000
 41
1.000000
 50
0.000000
 71
     0
 42
0.200000
  3
txt
  4
BIGFONT
  0
ENDTAB
  0
TABLE
  2
VIEW
 70
     0
  0
ENDTAB
  0
ENDSEC
  0
SECTION
  2
BLOCKS
  0
ENDSEC
  0
SECTION
  2
ENTITIES
  0
LINE
  8
0
  6
PHANTOM
 62
3
 10
292.635986
 20
-234.983994
 11
281.527008
 21
-171.983994
  0
LINE
  8
0
  6
PHANTOM
 62
3
 10
192.636002
 20
-234.983994
 11
181.526993
 21
-171.983994
  0
LINE
  8
0
  6
CONTINUOUS
 62
7
 10
-32.500000
 20
-360.500000
 11
-32.500000
 21
-390.500000
  0
LINE
  8
0
  6
CONTINUOUS
 62
7
 10
-482.500000
 20
-360.500000
 11
-482.500000
 21
-390.500000
  0
LINE
  8
0
  6
CONTINUOUS
 62
7
 10
-554.500000
 20
-360.500000
 11
-554.500000
 21
-390.500000
  0
LINE
  8
0
  6
CONTINUOUS
 62
7
 10
-437.500000
 20
-360.500000
 11
-437.500000
 21
-390.500000
  0
LINE
  8
0
  6
CONTINUOUS
 62
7
 10
-392.500000
 20
-360.500000
 11
-392.500000
 21
-390.500000
  0
LINE
  8
0
  6
CONTINUOUS
 62
7
 10
-347.500000
 20
-360.500000
 11
-347.500000
 21
-390.500000
  0
LINE
  8
0
  6
CONTINUOUS
 62
7
 10
-302.500000
 20
-360.500000
 11
-302.500000
 21
-390.500000
  0
LINE
  8
0
  6
CONTINUOUS
 62
7
 10
-257.500000
 20
-360.500000
 11
-257.500000
 21
-390.500000
  0
LINE
  8
0
  6
CONTINUOUS
 62
7
 10
-212.500000
 20
-360.500000
 11
-212.500000
 21
-390.500000
  0
LINE
  8
0
  6
CONTINUOUS
 62
7
 10
-167.500000
 20
-360.500000
 11
-167.500000
 21
-390.500000
  0
LINE
  8
0
  6
CONTINUOUS
 62
7
 10
-122.500000
 20
-360.500000
 11
-122.500000
 21
-390.500000
  0
LINE
  8
0
  6
CONTINUOUS
 62
7
 10
-77.500000
 20
-360.500000
 11
-77.500000
 21
-390.500000
  0
LINE
  8
0
  6
CONTINUOUS
 62
7
 10
-554.500000
 20
-390.500000
 11
-32.500000
 21
-390.500000
  0
LINE
  8
0
  6
CONTINUOUS
 62
7
 10
-554.500000
 20
-375.500000
 11
-32.500000
 21
-375.500000
  0
LINE
  8
0
  6
CONTINUOUS
 62
7
 10
-554.500000
 20
-360.500000
 11
-32.500000
 21
-360.500000
  0
LINE
  8
0
  6
CONTINUOUS
 62
7
 10
144.494995
 20
-400.500000
 11
144.494995
 21
370.500000
  0
LINE
  8
0
  6
CONTINUOUS
 62
7
 10
144.494995
 20
353.500000
 11
574.500000
 21
353.500000
  0
LINE
  8
0
  6
CONTINUOUS
 62
7
 10
144.494995
 20
-17.000000
 11
574.500000
 21
-17.000000
  0
LINE
  8
0
  6
CONTINUOUS
 62
3
 10
460.750000
 20
-170.983994
 11
406.750000
 21
-170.983994
  0
LINE
  8
0
  6
CONTINUOUS
 62
3
 10
475.750000
 20
-224.983994
 11
391.750000
 21
-224.983994
  0
LINE
  8
0
  6
CONTINUOUS
 62
3
 10
475.750000
 20
-185.983994
 11
475.750000
 21
-198.483994
  0
LINE
  8
0
  6
CONTINUOUS
 62
3
 10
475.750000
 20
-208.983994
 11
475.750000
 21
-224.983994
  0
LINE
  8
0
  6
CONTINUOUS
 62
3
 10
475.750000
 20
-198.483994
 11
472.750000
 21
-198.483994
  0
LINE
  8
0
  6
CONTINUOUS
 62
3
 10
470.750000
 20
-200.483994
 11
470.750000
 21
-206.983994
  0
LINE
  8
0
  6
CONTINUOUS
 62
3
 10
475.750000
 20
-208.983994
 11
472.750000
 21
-208.983994
  0
LINE
  8
0
  6
CONTINUOUS
 62
3
 10
391.750000
 20
-185.983994
 11
391.750000
 21
-224.983994
  0
LINE
  8
0
  6
CONTINUOUS
 62
3
 10
403.750000
 20
-166.983994
 11
403.750000
 21
-171.304001
  0
LINE
  8
0
  6
CONTINUOUS
 62
3
 10
463.750000
 20
-166.983994
 11
463.750000
 21
-171.304001
  0
LINE
  8
0
  6
CONTINUOUS
 62
3
 10
272.250000
 20
-218.783997
 11
289.778992
 21
-218.783997
  0
LINE
  8
0
  6
CENTER
 62
1
 10
234.750000
 20
-211.003998
 11
234.750000
 21
-228.063995
  0
LINE
  8
0
  6
CONTINUOUS
 62
3
 10
283.290985
 20
-181.983994
 11
183.291000
 21
-181.983994
  0
LINE
  8
0
  6
CONTINUOUS
 62
3
 10
188.932999
 20
-213.983994
 11
288.933014
 21
-213.983994
  0
LINE
  8
0
  6
CONTINUOUS
 62
3
 10
189.779007
 20
-218.783997
 11
197.250000
 21
-218.783997
  0
LINE
  8
0
  6
CONTINUOUS
 62
3
 10
190.873001
 20
-224.983994
 11
290.872986
 21
-224.983994
  0
LINE
  8
0
  6
CONTINUOUS
 62
3
 10
403.750000
 20
-166.983994
 11
463.750000
 21
-166.983994
  0
LINE
  8
0
  6
CENTER
 62
3
 10
433.750000
 20
-161.203995
 11
433.750000
 21
-228.623993
  0
LINE
  8
0
  6
CONTINUOUS
 62
7
 10
144.494995
 20
0.000000
 11
574.500000
 21
0.000000
  0
LINE
  8
0
  6
CONTINUOUS
 62
7
 10
574.500000
 20
400.500000
 11
574.500000
 21
-400.500000
  0
LINE
  8
0
  6
CONTINUOUS
 62
7
 10
-564.500000
 20
400.500000
 11
574.500000
 21
400.500000
  0
LINE
  8
0
  6
CONTINUOUS
 62
7
 10
-564.500000
 20
-400.500000
 11
574.500000
 21
-400.500000
  0
LINE
  8
0
  6
CONTINUOUS
 62
7
 10
-564.500000
 20
400.500000
 11
-564.500000
 21
-400.500000
  0
LINE
  8
0
  6
CONTINUOUS
 62
7
 10
-564.500000
 20
370.500000
 11
-334.500000
 21
370.500000
  0
LINE
  8
0
  6
CONTINUOUS
 62
7
 10
144.494995
 20
370.500000
 11
574.500000
 21
370.500000
  0
LINE
  8
0
  6
CONTINUOUS
 62
7
 10
344.500000
 20
-370.500000
 11
574.500000
 21
-370.500000
  0
LINE
  8
0
  6
CONTINUOUS
 62
7
 10
344.500000
 20
-370.500000
 11
344.500000
 21
-400.500000
  0
LINE
  8
0
  6
CONTINUOUS
 62
7
 10
344.500000
 20
400.500000
 11
344.500000
 21
370.500000
  0
LINE
  8
0
  6
CONTINUOUS
 62
7
 10
-334.500000
 20
400.500000
 11
-334.500000
 21
370.500000
  0
LINE
  8
0
  6
CONTINUOUS
 62
7
 10
71.549400
 20
-385.644989
 11
82.747902
 21
-385.644989
  0
LINE
  8
0
  6
CONTINUOUS
 62
7
 10
77.747902
 20
-386.984009
 11
82.747902
 21
-385.644989
  0
LINE
  8
0
  6
CONTINUOUS
 62
7
 10
77.747902
 20
-384.304993
 11
82.747902
 21
-385.644989
  0
LINE
  8
0
  6
CENTER
 62
2
 10
-457.871002
 20
222.229004
 11
-442.871002
 21
222.229004
  0
LINE
  8
0
  6
CENTER
 62
2
 10
-450.371002
 20
214.729004
 11
-450.371002
 21
229.729004
  0
LINE
  8
0
  6
CONTINUOUS
 62
7
 10
-443.371002
 20
282.229004
 11
-443.371002
 21
262.088989
  0
LINE
  8
0
  6
CONTINUOUS
 62
7
 10
-443.371002
 20
254.348999
 11
-443.371002
 21
226.089005
  0
LINE
  8
0
  6
CONTINUOUS
 62
7
 10
-443.371002
 20
218.348999
 11
-443.371002
 21
198.229004
  0
LINE
  8
0
  6
CONTINUOUS
 62
7
 10
-429.871002
 20
260.229004
 11
-429.871002
 21
255.229004
  0
LINE
  8
0
  6
CONTINUOUS
 62
7
 10
-430.871002
 20
255.229004
 11
-429.871002
 21
255.229004
  0
LINE
  8
0
  6
CONTINUOUS
 62
7
 10
-430.871002
 20
225.229004
 11
-429.871002
 21
225.229004
  0
LINE
  8
0
  6
CONTINUOUS
 62
7
 10
-429.871002
 20
225.229004
 11
-429.871002
 21
220.229004
  0
LINE
  8
0
  6
CONTINUOUS
 62
7
 10
-266.871002
 20
260.229004
 11
-266.871002
 21
255.229004
  0
LINE
  8
0
  6
CONTINUOUS
 62
7
 10
-265.871002
 20
255.229004
 11
-266.871002
 21
255.229004
  0
LINE
  8
0
  6
CONTINUOUS
 62
7
 10
-265.871002
 20
255.229004
 11
-265.871002
 21
225.229004
  0
LINE
  8
0
  6
CONTINUOUS
 62
7
 10
-265.871002
 20
225.229004
 11
-266.871002
 21
225.229004
  0
LINE
  8
0
  6
CONTINUOUS
 62
7
 10
-266.871002
 20
225.229004
 11
-266.871002
 21
220.229004
  0
LINE
  8
0
  6
CONTINUOUS
 62
7
 10
-469.371002
 20
243.229004
 11
-443.371002
 21
243.229004
  0
LINE
  8
0
  6
CONTINUOUS
 62
7
 10
-469.371002
 20
237.229004
 11
-443.371002
 21
237.229004
  0
LINE
  8
0
  6
CONTINUOUS
 62
7
 10
-469.371002
 20
280.229004
 11
-469.371002
 21
200.229004
  0
LINE
  8
0
  6
CONTINUOUS
 62
7
 10
-430.871002
 20
255.229004
 11
-430.871002
 21
225.229004
  0
LINE
  8
0
  6
CONTINUOUS
 62
7
 10
-419.871002
 20
198.229004
 11
-419.871002
 21
202.229004
  0
LINE
  8
0
  6
CONTINUOUS
 62
7
 10
-419.871002
 20
282.229004
 11
-419.871002
 21
278.229004
  0
LINE
  8
0
  6
CONTINUOUS
 62
7
 10
-432.691010
 20
248.729004
 11
-430.871002
 21
248.729004
  0
LINE
  8
0
  6
CONTINUOUS
 62
7
 10
-432.691010
 20
231.729004
 11
-430.871002
 21
231.729004
  0
LINE
  8
0
  6
CONTINUOUS
 62
7
 10
-435.371002
 20
257.729004
 11
-432.871002
 21
257.729004
  0
LINE
  8
0
  6
CONTINUOUS
 62
7
 10
-435.371002
 20
222.729004
 11
-435.371002
 21
200.229004
  0
LINE
  8
0
  6
CONTINUOUS
 62
7
 10
-435.371002
 20
280.229004
 11
-435.371002
 21
257.729004
  0
LINE
  8
0
  6
CONTINUOUS
 62
7
 10
-435.371002
 20
222.729004
 11
-432.871002
 21
222.729004
  0
LINE
  8
0
  6
CONTINUOUS
 62
7
 10
-432.871002
 20
254.729004
 11
-432.871002
 21
257.729004
  0
LINE
  8
0
  6
CONTINUOUS
 62
7
 10
-432.871002
 20
227.468994
 11
-434.691010
 21
227.149002
  0
LINE
  8
0
  6
CONTINUOUS
 62
7
 10
-432.871002
 20
251.468994
 11
-434.751007
 21
251.128998
  0
LINE
  8
0
  6
CONTINUOUS
 62
7
 10
-432.871002
 20
240.968994
 11
-434.751007
 21
241.309006
  0
LINE
  8
0
  6
CONTINUOUS
 62
7
 10
-432.871002
 20
254.729004
 11
-434.691010
 21
254.389008
  0
LINE
  8
0
  6
CONTINUOUS
 62
7
 10
-432.691010
 20
248.608994
 11
-434.751007
 21
248.988998
  0
LINE
  8
0
  6
CONTINUOUS
 62
7
 10
-432.871002
 20
239.468994
 11
-434.751007
 21
239.128998
  0
LINE
  8
0
  6
CONTINUOUS
 62
7
 10
-432.691010
 20
231.828995
 11
-434.751007
 21
231.468994
  0
LINE
  8
0
  6
CONTINUOUS
 62
7
 10
-432.691010
 20
236.608994
 11
-434.751007
 21
236.988998
  0
LINE
  8
0
  6
CONTINUOUS
 62
7
 10
-432.871002
 20
252.968994
 11
-434.691010
 21
253.289001
  0
LINE
  8
0
  6
CONTINUOUS
 62
7
 10
-432.871002
 20
225.729004
 11
-432.871002
 21
222.729004
  0
LINE
  8
0
  6
CONTINUOUS
 62
7
 10
-432.871002
 20
240.968994
 11
-432.871002
 21
239.468994
  0
LINE
  8
0
  6
CONTINUOUS
 62
7
 10
-435.170990
 20
250.649002
 11
-435.170990
 21
249.468994
  0
LINE
  8
0
  6
CONTINUOUS
 62
7
 10
-435.170990
 20
229.789001
 11
-435.170990
 21
230.968994
  0
LINE
  8
0
  6
CONTINUOUS
 62
7
 10
-432.871002
 20
252.968994
 11
-432.871002
 21
251.468994
  0
LINE
  8
0
  6
CONTINUOUS
 62
7
 10
-432.691010
 20
243.828995
 11
-434.751007
 21
243.468994
  0
LINE
  8
0
  6
CONTINUOUS
 62
7
 10
-432.871002
 20
227.468994
 11
-432.871002
 21
228.968994
  0
LINE
  8
0
  6
CONTINUOUS
 62
7
 10
-435.170990
 20
238.649002
 11
-435.170990
 21
237.468994
  0
LINE
  8
0
  6
CONTINUOUS
 62
7
 10
-435.170990
 20
241.789001
 11
-435.170990
 21
242.968994
  0
LINE
  8
0
  6
CONTINUOUS
 62
7
 10
-432.871002
 20
228.968994
 11
-434.751007
 21
229.309006
  0
LINE
  8
0
  6
CONTINUOUS
 62
7
 10
-432.871002
 20
225.729004
 11
-434.691010
 21
226.048996
  0
LINE
  8
0
  6
CONTINUOUS
 62
7
 10
-153.371002
 20
282.229004
 11
-153.371002
 21
262.088989
  0
LINE
  8
0
  6
CONTINUOUS
 62
7
 10
-153.371002
 20
254.348999
 11
-153.371002
 21
226.089005
  0
LINE
  8
0
  6
CONTINUOUS
 62
7
 10
-153.371002
 20
218.348999
 11
-153.371002
 21
198.229004
  0
LINE
  8
0
  6
CONTINUOUS
 62
7
 10
-127.371002
 20
243.229004
 11
-153.371002
 21
243.229004
  0
LINE
  8
0
  6
CONTINUOUS
 62
7
 10
-127.371002
 20
237.229004
 11
-153.371002
 21
237.229004
  0
LINE
  8
0
  6
CONTINUOUS
 62
7
 10
-127.371002
 20
280.229004
 11
-127.371002
 21
200.229004
  0
LINE
  8
0
  6
CONTINUOUS
 62
7
 10
-176.871002
 20
198.229004
 11
-176.871002
 21
202.229004
  0
LINE
  8
0
  6
CONTINUOUS
 62
7
 10
-176.871002
 20
282.229004
 11
-176.871002
 21
278.229004
  0
LINE
  8
0
  6
CONTINUOUS
 62
7
 10
-161.371002
 20
257.729004
 11
-163.871002
 21
257.729004
  0
LINE
  8
0
  6
CONTINUOUS
 62
7
 10
-161.371002
 20
222.729004
 11
-161.371002
 21
200.229004
  0
LINE
  8
0
  6
CONTINUOUS
 62
7
 10
-161.371002
 20
280.229004
 11
-161.371002
 21
257.729004
  0
LINE
  8
0
  6
CONTINUOUS
 62
7
 10
-161.371002
 20
222.729004
 11
-163.871002
 21
222.729004
  0
LINE
  8
0
  6
CONTINUOUS
 62
7
 10
-163.871002
 20
254.729004
 11
-163.871002
 21
257.729004
  0
LINE
  8
0
  6
CONTINUOUS
 62
7
 10
-163.871002
 20
227.468994
 11
-162.050995
 21
227.149002
  0
LINE
  8
0
  6
CONTINUOUS
 62
7
 10
-163.871002
 20
251.468994
 11
-161.990997
 21
251.128998
  0
LINE
  8
0
  6
CONTINUOUS
 62
7
 10
-164.871002
 20
244.809006
 11
-164.871002
 21
247.628998
  0
LINE
  8
0
  6
CONTINUOUS
 62
7
 10
-163.871002
 20
240.968994
 11
-161.990997
 21
241.309006
  0
LINE
  8
0
  6
CONTINUOUS
 62
7
 10
-163.871002
 20
254.729004
 11
-162.050995
 21
254.389008
  0
LINE
  8
0
  6
CONTINUOUS
 62
7
 10
-164.050995
 20
248.608994
 11
-161.990997
 21
248.968994
  0
LINE
  8
0
  6
CONTINUOUS
 62
7
 10
-163.871002
 20
239.468994
 11
-161.990997
 21
239.128998
  0
LINE
  8
0
  6
CONTINUOUS
 62
7
 10
-164.050995
 20
231.828995
 11
-161.990997
 21
231.468994
  0
LINE
  8
0
  6
CONTINUOUS
 62
7
 10
-164.050995
 20
236.608994
 11
-161.990997
 21
236.988998
  0
LINE
  8
0
  6
CONTINUOUS
 62
7
 10
-163.871002
 20
252.968994
 11
-162.050995
 21
253.289001
  0
LINE
  8
0
  6
CONTINUOUS
 62
7
 10
-163.871002
 20
225.729004
 11
-163.871002
 21
222.729004
  0
LINE
  8
0
  6
CONTINUOUS
 62
7
 10
-163.871002
 20
240.968994
 11
-163.871002
 21
239.468994
  0
LINE
  8
0
  6
CONTINUOUS
 62
7
 10
-161.570999
 20
250.649002
 11
-161.570999
 21
249.468994
  0
LINE
  8
0
  6
CONTINUOUS
 62
7
 10
-161.570999
 20
229.789001
 11
-161.570999
 21
230.968994
  0
LINE
  8
0
  6
CONTINUOUS
 62
7
 10
-163.871002
 20
252.968994
 11
-163.871002
 21
251.468994
  0
LINE
  8
0
  6
CONTINUOUS
 62
7
 10
-164.050995
 20
243.828995
 11
-161.990997
 21
243.468994
  0
LINE
  8
0
  6
CONTINUOUS
 62
7
 10
-163.871002
 20
227.468994
 11
-163.871002
 21
228.968994
  0
LINE
  8
0
  6
CONTINUOUS
 62
7
 10
-164.871002
 20
235.628998
 11
-164.871002
 21
232.809006
  0
LINE
  8
0
  6
CONTINUOUS
 62
7
 10
-161.570999
 20
238.649002
 11
-161.570999
 21
237.468994
  0
LINE
  8
0
  6
CONTINUOUS
 62
7
 10
-161.570999
 20
241.789001
 11
-161.570999
 21
242.968994
  0
LINE
  8
0
  6
CONTINUOUS
 62
7
 10
-163.871002
 20
228.968994
 11
-161.990997
 21
229.309006
  0
LINE
  8
0
  6
CONTINUOUS
 62
7
 10
-163.871002
 20
225.729004
 11
-162.050995
 21
226.048996
  0
LINE
  8
0
  6
CONTINUOUS
 62
7
 10
-435.371002
 20
278.229004
 11
-161.371002
 21
278.229004
  0
LINE
  8
0
  6
CONTINUOUS
 62
7
 10
-435.371002
 20
202.229004
 11
-161.371002
 21
202.229004
  0
LINE
  8
0
  6
CONTINUOUS
 62
7
 10
-419.871002
 20
210.229004
 11
-276.871002
 21
210.229004
  0
LINE
  8
0
  6
CONTINUOUS
 62
7
 10
-419.871002
 20
270.229004
 11
-276.871002
 21
270.229004
  0
LINE
  8
0
  6
CONTINUOUS
 62
7
 10
-422.871002
 20
249.429001
 11
-422.871002
 21
231.029007
  0
LINE
  8
0
  6
CONTINUOUS
 62
7
 10
-273.871002
 20
249.429001
 11
-273.871002
 21
231.029007
  0
LINE
  8
0
  6
CONTINUOUS
 62
7
 10
-421.871002
 20
230.029007
 11
-274.871002
 21
230.029007
  0
LINE
  8
0
  6
CONTINUOUS
 62
7
 10
-421.871002
 20
250.429001
 11
-274.871002
 21
250.429001
  0
LINE
  8
0
  6
CENTER
 62
2
 10
-457.871002
 20
258.229004
 11
-442.871002
 21
258.229004
  0
LINE
  8
0
  6
CENTER
 62
2
 10
-450.371002
 20
250.729004
 11
-450.371002
 21
265.729004
  0
LINE
  8
0
  6
CENTER
 62
2
 10
-153.871002
 20
258.229004
 11
-138.871002
 21
258.229004
  0
LINE
  8
0
  6
CENTER
 62
2
 10
-146.371002
 20
250.729004
 11
-146.371002
 21
265.729004
  0
LINE
  8
0
  6
CENTER
 62
2
 10
-153.871002
 20
222.229004
 11
-138.871002
 21
222.229004
  0
LINE
  8
0
  6
CENTER
 62
2
 10
-146.371002
 20
214.729004
 11
-146.371002
 21
229.729004
  0
LINE
  8
0
  6
CENTER
 62
2
 10
-298.371002
 20
266.229004
 11
-298.371002
 21
254.229004
  0
LINE
  8
0
  6
CENTER
 62
2
 10
-304.371002
 20
260.229004
 11
-292.371002
 21
260.229004
  0
LINE
  8
0
  6
CENTER
 62
2
 10
-392.371002
 20
260.229004
 11
-404.371002
 21
260.229004
  0
LINE
  8
0
  6
CENTER
 62
2
 10
-398.371002
 20
266.229004
 11
-398.371002
 21
254.229004
  0
LINE
  8
0
  6
CENTER
 62
2
 10
-304.371002
 20
220.229004
 11
-292.371002
 21
220.229004
  0
LINE
  8
0
  6
CENTER
 62
2
 10
-298.371002
 20
214.229004
 11
-298.371002
 21
226.229004
  0
LINE
  8
0
  6
CENTER
 62
2
 10
-398.371002
 20
214.229004
 11
-398.371002
 21
226.229004
  0
LINE
  8
0
  6
CENTER
 62
2
 10
-392.371002
 20
220.229004
 11
-404.371002
 21
220.229004
  0
LINE
  8
0
  6
CENTER
 62
2
 10
-348.371002
 20
294.190002
 11
-348.371002
 21
186.378998
  0
LINE
  8
0
  6
CENTER
 62
2
 10
-477.138000
 20
240.229004
 11
-118.462997
 21
240.229004
  0
LINE
  8
0
  6
CONTINUOUS
 62
7
 10
-467.371002
 20
282.229004
 11
-129.371002
 21
282.229004
  0
LINE
  8
0
  6
CONTINUOUS
 62
7
 10
-467.371002
 20
198.229004
 11
-129.371002
 21
198.229004
  0
LINE
  8
0
  6
CONTINUOUS
 62
7
 10
-431.871002
 20
235.628998
 11
-431.871002
 21
232.809006
  0
LINE
  8
0
  6
CONTINUOUS
 62
7
 10
-431.871002
 20
247.628998
 11
-431.871002
 21
244.809006
  0
LINE
  8
0
  6
CONTINUOUS
 62
7
 10
-265.871002
 20
248.729004
 11
-163.363998
 21
248.729004
  0
LINE
  8
0
  6
CONTINUOUS
 62
7
 10
-265.871002
 20
231.729004
 11
-164.050995
 21
231.729004
  0
LINE
  8
0
  6
PHANTOM
 62
3
 10
-259.660004
 20
164.985992
 11
-259.660004
 21
307.127991
  0
LINE
  8
0
  6
CONTINUOUS
 62
4
 10
-338.371002
 20
107.829002
 11
-338.371002
 21
104.628998
  0
LINE
  8
0
  6
CONTINUOUS
 62
4
 10
-344.371002
 20
107.829002
 11
-344.371002
 21
104.628998
  0
LINE
  8
0
  6
CONTINUOUS
 62
4
 10
-359.371002
 20
107.829002
 11
-359.371002
 21
104.628998
  0
LINE
  8
0
  6
CONTINUOUS
 62
4
 10
-360.871002
 20
107.418999
 11
-360.871002
 21
105.039001
  0
LINE
  8
0
  6
CONTINUOUS
 62
4
 10
-359.371002
 20
107.829002
 11
-360.871002
 21
107.418999
  0
LINE
  8
0
  6
CONTINUOUS
 62
4
 10
-359.371002
 20
104.628998
 11
-360.871002
 21
105.039001
  0
LINE
  8
0
  6
CONTINUOUS
 62
4
 10
-360.871002
 20
107.418999
 11
-365.515015
 21
107.418999
  0
LINE
  8
0
  6
CONTINUOUS
 62
4
 10
-360.871002
 20
105.039001
 11
-366.871002
 21
105.039001
  0
LINE
  8
0
  6
CONTINUOUS
 62
4
 10
-340.591003
 20
106.999001
 11
-342.140991
 21
105.459000
  0
LINE
  8
0
  6
CONTINUOUS
 62
4
 10
-340.591003
 20
105.459000
 11
-342.140991
 21
106.999001
  0
LINE
  8
0
  6
CONTINUOUS
 62
4
 10
-238.371002
 20
107.829002
 11
-238.371002
 21
104.628998
  0
LINE
  8
0
  6
CONTINUOUS
 62
4
 10
-244.371002
 20
107.829002
 11
-244.371002
 21
104.628998
  0
LINE
  8
0
  6
CONTINUOUS
 62
4
 10
-259.371002
 20
107.829002
 11
-259.371002
 21
104.628998
  0
LINE
  8
0
  6
CONTINUOUS
 62
4
 10
-260.871002
 20
107.418999
 11
-260.871002
 21
105.039001
  0
LINE
  8
0
  6
CONTINUOUS
 62
4
 10
-259.371002
 20
107.829002
 11
-260.871002
 21
107.418999
  0
LINE
  8
0
  6
CONTINUOUS
 62
4
 10
-259.371002
 20
104.628998
 11
-260.871002
 21
105.039001
  0
LINE
  8
0
  6
CONTINUOUS
 62
4
 10
-260.871002
 20
107.418999
 11
-265.376007
 21
107.418999
  0
LINE
  8
0
  6
CONTINUOUS
 62
4
 10
-260.871002
 20
105.039001
 11
-266.622986
 21
105.039001
  0
LINE
  8
0
  6
CONTINUOUS
 62
4
 10
-240.591003
 20
106.999001
 11
-242.141006
 21
105.459000
  0
LINE
  8
0
  6
CONTINUOUS
 62
4
 10
-240.591003
 20
105.459000
 11
-242.141006
 21
106.999001
  0
LINE
  8
0
  6
CONTINUOUS
 62
7
 10
-430.871002
 20
140.229004
 11
-265.871002
 21
140.229004
  0
LINE
  8
0
  6
CONTINUOUS
 62
7
 10
-443.371002
 20
136.229004
 11
-443.371002
 21
82.228996
  0
LINE
  8
0
  6
CONTINUOUS
 62
7
 10
-431.871002
 20
136.229004
 11
-467.371002
 21
136.229004
  0
LINE
  8
0
  6
CONTINUOUS
 62
7
 10
-469.371002
 20
134.229004
 11
-469.371002
 21
82.228996
  0
LINE
  8
0
  6
CONTINUOUS
 62
7
 10
-430.871002
 20
140.229004
 11
-430.871002
 21
129.729004
  0
LINE
  8
0
  6
CONTINUOUS
 62
7
 10
-265.871002
 20
140.229004
 11
-265.871002
 21
129.729004
  0
LINE
  8
0
  6
CONTINUOUS
 62
7
 10
-429.371002
 20
129.369003
 11
-429.371002
 21
127.009003
  0
LINE
  8
0
  6
CONTINUOUS
 62
7
 10
-430.571014
 20
126.049004
 11
-429.610992
 21
126.569000
  0
LINE
  8
0
  6
CONTINUOUS
 62
7
 10
-430.571014
 20
125.228996
 11
-430.571014
 21
126.049004
  0
LINE
  8
0
  6
CONTINUOUS
 62
7
 10
-265.871002
 20
129.729004
 11
-430.871002
 21
129.729004
  0
LINE
  8
0
  6
CONTINUOUS
 62
7
 10
-267.371002
 20
129.369003
 11
-267.371002
 21
127.009003
  0
LINE
  8
0
  6
CONTINUOUS
 62
7
 10
-266.170990
 20
126.049004
 11
-267.110992
 21
126.569000
  0
LINE
  8
0
  6
CONTINUOUS
 62
7
 10
-266.170990
 20
125.228996
 11
-266.170990
 21
126.049004
  0
LINE
  8
0
  6
CONTINUOUS
 62
7
 10
-469.371002
 20
82.228996
 11
-127.371002
 21
82.228996
  0
LINE
  8
0
  6
CONTINUOUS
 62
7
 10
-267.371002
 20
126.728996
 11
-429.371002
 21
126.728996
  0
LINE
  8
0
  6
CONTINUOUS
 62
7
 10
-430.571014
 20
126.049004
 11
-266.170990
 21
126.049004
  0
LINE
  8
0
  6
CONTINUOUS
 62
7
 10
-443.371002
 20
88.429001
 11
-153.371002
 21
88.429001
  0
LINE
  8
0
  6
CONTINUOUS
 62
7
 10
-443.371002
 20
93.228996
 11
-153.371002
 21
93.228996
  0
LINE
  8
0
  6
CONTINUOUS
 62
7
 10
-443.371002
 20
113.228996
 11
-153.371002
 21
113.228996
  0
LINE
  8
0
  6
CONTINUOUS
 62
7
 10
-419.871002
 20
121.189003
 11
-176.871002
 21
121.189003
  0
LINE
  8
0
  6
CONTINUOUS
 62
7
 10
-419.871002
 20
119.289001
 11
-176.871002
 21
119.289001
  0
LINE
  8
0
  6
CENTER
 62
2
 10
-457.871002
 20
108.728996
 11
-457.871002
 21
91.728996
  0
LINE
  8
0
  6
CENTER
 62
2
 10
-449.371002
 20
100.228996
 11
-466.371002
 21
100.228996
  0
LINE
  8
0
  6
CONTINUOUS
 62
7
 10
-432.871002
 20
136.229004
 11
-432.871002
 21
129.729004
  0
LINE
  8
0
  6
CONTINUOUS
 62
7
 10
-431.871002
 20
129.729004
 11
-435.371002
 21
129.729004
  0
LINE
  8
0
  6
CONTINUOUS
 62
7
 10
-435.371002
 20
134.229004
 11
-435.371002
 21
125.228996
  0
LINE
  8
0
  6
CONTINUOUS
 62
7
 10
-431.871002
 20
136.229004
 11
-431.871002
 21
129.729004
  0
LINE
  8
0
  6
CONTINUOUS
 62
7
 10
-435.371002
 20
125.228996
 11
-161.371002
 21
125.228996
  0
LINE
  8
0
  6
CONTINUOUS
 62
7
 10
-153.371002
 20
136.229004
 11
-153.371002
 21
82.228996
  0
LINE
  8
0
  6
CONTINUOUS
 62
7
 10
-164.871002
 20
136.229004
 11
-129.371002
 21
136.229004
  0
LINE
  8
0
  6
CONTINUOUS
 62
7
 10
-127.371002
 20
134.229004
 11
-127.371002
 21
82.228996
  0
LINE
  8
0
  6
CENTER
 62
2
 10
-138.871002
 20
108.728996
 11
-138.871002
 21
91.728996
  0
LINE
  8
0
  6
CENTER
 62
2
 10
-147.371002
 20
100.228996
 11
-130.371002
 21
100.228996
  0
LINE
  8
0
  6
CONTINUOUS
 62
7
 10
-163.871002
 20
136.229004
 11
-163.871002
 21
129.729004
  0
LINE
  8
0
  6
CONTINUOUS
 62
7
 10
-164.871002
 20
129.729004
 11
-161.371002
 21
129.729004
  0
LINE
  8
0
  6
CONTINUOUS
 62
7
 10
-161.371002
 20
134.229004
 11
-161.371002
 21
125.228996
  0
LINE
  8
0
  6
CONTINUOUS
 62
7
 10
-164.871002
 20
136.229004
 11
-164.871002
 21
129.729004
  0
LINE
  8
0
  6
CONTINUOUS
 62
7
 10
-445.371002
 20
98.228996
 11
-443.371002
 21
98.228996
  0
LINE
  8
0
  6
CONTINUOUS
 62
7
 10
-447.371002
 20
109.028999
 11
-443.371002
 21
109.028999
  0
LINE
  8
0
  6
CONTINUOUS
 62
7
 10
-151.371002
 20
98.228996
 11
-153.371002
 21
98.228996
  0
LINE
  8
0
  6
CONTINUOUS
 62
7
 10
-149.371002
 20
109.028999
 11
-153.371002
 21
109.028999
  0
LINE
  8
0
  6
CONTINUOUS
 62
7
 10
-176.871002
 20
113.728996
 11
-153.371002
 21
113.728996
  0
LINE
  8
0
  6
CONTINUOUS
 62
7
 10
-176.871002
 20
123.228996
 11
-176.871002
 21
113.728996
  0
LINE
  8
0
  6
CONTINUOUS
 62
7
 10
-176.871002
 20
123.228996
 11
-163.371002
 21
123.228996
  0
LINE
  8
0
  6
CONTINUOUS
 62
7
 10
-419.871002
 20
123.228996
 11
-433.371002
 21
123.228996
  0
LINE
  8
0
  6
CONTINUOUS
 62
7
 10
-419.871002
 20
123.228996
 11
-419.871002
 21
113.728996
  0
LINE
  8
0
  6
CONTINUOUS
 62
7
 10
-419.871002
 20
113.728996
 11
-443.371002
 21
113.728996
  0
LINE
  8
0
  6
CONTINUOUS
 62
7
 10
-443.371002
 20
101.668999
 11
-418.371002
 21
101.668999
  0
LINE
  8
0
  6
CONTINUOUS
 62
7
 10
-178.371002
 20
101.228996
 11
-153.371002
 21
101.228996
  0
LINE
  8
0
  6
CONTINUOUS
 62
7
 10
-178.371002
 20
101.668999
 11
-153.371002
 21
101.668999
  0
LINE
  8
0
  6
CONTINUOUS
 62
7
 10
-178.371002
 20
104.628998
 11
-178.371002
 21
101.228996
  0
LINE
  8
0
  6
CONTINUOUS
 62
7
 10
-443.371002
 20
101.228996
 11
-418.371002
 21
101.228996
  0
LINE
  8
0
  6
CONTINUOUS
 62
7
 10
-418.371002
 20
104.628998
 11
-418.371002
 21
101.228996
  0
LINE
  8
0
  6
CONTINUOUS
 62
7
 10
-338.371002
 20
107.829002
 11
-259.371002
 21
107.829002
  0
LINE
  8
0
  6
CONTINUOUS
 62
7
 10
-338.371002
 20
104.628998
 11
-259.371002
 21
104.628998
  0
LINE
  8
0
  6
CONTINUOUS
 62
4
 10
-259.371002
 20
107.829002
 11
-238.371002
 21
107.829002
  0
LINE
  8
0
  6
CONTINUOUS
 62
7
 10
-238.371002
 20
107.829002
 11
-153.371002
 21
107.829002
  0
LINE
  8
0
  6
CONTINUOUS
 62
7
 10
-238.371002
 20
104.628998
 11
-178.371002
 21
104.628998
  0
LINE
  8
0
  6
CONTINUOUS
 62
4
 10
-259.371002
 20
104.628998
 11
-238.371002
 21
104.628998
  0
LINE
  8
0
  6
CONTINUOUS
 62
2
 10
-265.376007
 20
107.418999
 11
-266.622986
 21
105.039001
  0
LINE
  8
0
  6
CONTINUOUS
 62
7
 10
-359.371002
 20
107.829002
 11
-443.371002
 21
107.829002
  0
LINE
  8
0
  6
CONTINUOUS
 62
7
 10
-359.371002
 20
104.628998
 11
-417.371002
 21
104.628998
  0
LINE
  8
0
  6
CONTINUOUS
 62
4
 10
-338.371002
 20
107.829002
 11
-359.371002
 21
107.829002
  0
LINE
  8
0
  6
CONTINUOUS
 62
4
 10
-338.371002
 20
104.628998
 11
-359.371002
 21
104.628998
  0
LINE
  8
0
  6
CONTINUOUS
 62
2
 10
-365.515015
 20
107.418999
 11
-366.873993
 21
105.022003
  0
LINE
  8
0
  6
PHANTOM
 62
3
 10
-303.263000
 20
116.420998
 11
-259.660004
 21
116.420998
  0
LINE
  8
0
  6
PHANTOM
 62
3
 10
-303.263000
 20
63.234200
 11
-303.263000
 21
116.420998
  0
LINE
  8
0
  6
PHANTOM
 62
3
 10
-259.660004
 20
116.420998
 11
-259.660004
 21
164.985992
  0
LINE
  8
0
  6
CONTINUOUS
 62
7
 10
-19.370800
 20
140.229004
 11
40.629200
 21
140.229004
  0
LINE
  8
0
  6
CONTINUOUS
 62
7
 10
37.629200
 20
136.229004
 11
-16.370800
 21
136.229004
  0
LINE
  8
0
  6
CONTINUOUS
 62
7
 10
52.629200
 20
82.228996
 11
-31.370800
 21
82.228996
  0
LINE
  8
0
  6
CONTINUOUS
 62
7
 10
52.629200
 20
121.228996
 11
52.629200
 21
107.829002
  0
LINE
  8
0
  6
CENTER
 62
2
 10
44.629200
 20
127.728996
 11
44.629200
 21
112.728996
  0
LINE
  8
0
  6
CENTER
 62
2
 10
52.129200
 20
120.228996
 11
37.129200
 21
120.228996
  0
LINE
  8
0
  6
CONTINUOUS
 62
7
 10
52.629200
 20
107.829002
 11
52.129200
 21
107.829002
  0
LINE
  8
0
  6
CONTINUOUS
 62
7
 10
51.629200
 20
108.329002
 11
52.129200
 21
107.829002
  0
LINE
  8
0
  6
CONTINUOUS
 62
7
 10
50.029202
 20
108.329002
 11
51.629200
 21
108.329002
  0
LINE
  8
0
  6
CONTINUOUS
 62
7
 10
48.829201
 20
104.509003
 11
48.829201
 21
103.389000
  0
LINE
  8
0
  6
CONTINUOUS
 62
7
 10
48.029202
 20
102.009003
 11
48.829201
 21
103.389000
  0
LINE
  8
0
  6
CONTINUOUS
 62
7
 10
48.029202
 20
100.128998
 11
48.029202
 21
102.009003
  0
LINE
  8
0
  6
CONTINUOUS
 62
7
 10
50.829201
 20
101.249001
 11
51.629200
 21
102.628998
  0
LINE
  8
0
  6
CONTINUOUS
 62
7
 10
50.829201
 20
100.128998
 11
50.829201
 21
101.249001
  0
LINE
  8
0
  6
CONTINUOUS
 62
7
 10
51.629200
 20
104.128998
 11
51.629200
 21
102.628998
  0
LINE
  8
0
  6
CONTINUOUS
 62
7
 10
51.629200
 20
104.128998
 11
52.129200
 21
104.628998
  0
LINE
  8
0
  6
CONTINUOUS
 62
7
 10
52.629200
 20
104.628998
 11
52.129200
 21
104.628998
  0
LINE
  8
0
  6
CONTINUOUS
 62
7
 10
52.629200
 20
104.628998
 11
52.629200
 21
82.228996
  0
LINE
  8
0
  6
CONTINUOUS
 62
7
 10
52.629200
 20
108.728996
 11
49.629200
 21
108.728996
  0
LINE
  8
0
  6
CONTINUOUS
 62
7
 10
47.629200
 20
106.728996
 11
47.629200
 21
100.228996
  0
LINE
  8
0
  6
CONTINUOUS
 62
7
 10
52.629200
 20
98.228996
 11
49.629200
 21
98.228996
  0
LINE
  8
0
  6
CONTINUOUS
 62
7
 10
-31.370800
 20
121.228996
 11
-31.370800
 21
82.228996
  0
LINE
  8
0
  6
CONTINUOUS
 62
7
 10
17.629200
 20
128.229004
 11
13.629200
 21
128.229004
  0
LINE
  8
0
  6
CONTINUOUS
 62
7
 10
17.629200
 20
112.228996
 11
3.629200
 21
112.228996
  0
LINE
  8
0
  6
CONTINUOUS
 62
7
 10
18.629200
 20
127.228996
 11
18.629200
 21
113.228996
  0
LINE
  8
0
  6
CONTINUOUS
 62
7
 10
2.629200
 20
127.228996
 11
2.629200
 21
113.228996
  0
LINE
  8
0
  6
CENTER
 62
2
 10
10.629200
 20
147.048996
 11
10.629200
 21
77.109001
  0
LINE
  8
0
  6
CONTINUOUS
 62
7
 10
13.629200
 20
136.229004
 11
13.629200
 21
128.229004
  0
LINE
  8
0
  6
CONTINUOUS
 62
7
 10
7.629200
 20
136.229004
 11
7.629200
 21
128.229004
  0
LINE
  8
0
  6
CONTINUOUS
 62
7
 10
7.629200
 20
128.229004
 11
3.629200
 21
128.229004
  0
LINE
  8
0
  6
CONTINUOUS
 62
7
 10
-19.370800
 20
140.229004
 11
-19.370800
 21
135.908997
  0
LINE
  8
0
  6
CONTINUOUS
 62
7
 10
40.629200
 20
140.229004
 11
40.629200
 21
135.908997
  0
LINE
  8
0
  6
CENTER
 62
2
 10
43.629200
 20
96.728996
 11
43.629200
 21
81.728996
  0
LINE
  8
0
  6
CENTER
 62
2
 10
51.129200
 20
89.228996
 11
36.129200
 21
89.228996
  0
LINE
  8
0
  6
CENTER
 62
2
 10
-15.870800
 20
120.228996
 11
-30.870800
 21
120.228996
  0
LINE
  8
0
  6
CENTER
 62
2
 10
-23.370800
 20
127.728996
 11
-23.370800
 21
112.728996
  0
LINE
  8
0
  6
CONTINUOUS
 62
7
 10
41.629200
 20
90.389000
 11
41.629200
 21
88.088997
  0
LINE
  8
0
  6
CONTINUOUS
 62
7
 10
45.629200
 20
90.389000
 11
45.629200
 21
88.088997
  0
LINE
  8
0
  6
CONTINUOUS
 62
7
 10
41.629200
 20
88.088997
 11
43.629200
 21
86.929001
  0
LINE
  8
0
  6
CONTINUOUS
 62
7
 10
43.629200
 20
91.549004
 11
45.629200
 21
90.389000
  0
LINE
  8
0
  6
CONTINUOUS
 62
7
 10
43.629200
 20
86.929001
 11
45.629200
 21
88.088997
  0
LINE
  8
0
  6
CONTINUOUS
 62
7
 10
41.629200
 20
90.389000
 11
43.629200
 21
91.549004
  0
LINE
  8
0
  6
CONTINUOUS
 62
7
 10
42.629200
 20
121.389000
 11
42.629200
 21
119.088997
  0
LINE
  8
0
  6
CONTINUOUS
 62
7
 10
46.629200
 20
121.389000
 11
46.629200
 21
119.088997
  0
LINE
  8
0
  6
CONTINUOUS
 62
7
 10
42.629200
 20
119.088997
 11
44.629200
 21
117.929001
  0
LINE
  8
0
  6
CONTINUOUS
 62
7
 10
44.629200
 20
122.549004
 11
46.629200
 21
121.389000
  0
LINE
  8
0
  6
CONTINUOUS
 62
7
 10
44.629200
 20
117.929001
 11
46.629200
 21
119.088997
  0
LINE
  8
0
  6
CONTINUOUS
 62
7
 10
42.629200
 20
121.389000
 11
44.629200
 21
122.549004
  0
LINE
  8
0
  6
CONTINUOUS
 62
7
 10
-23.370800
 20
122.549004
 11
-21.370800
 21
121.389000
  0
LINE
  8
0
  6
CONTINUOUS
 62
7
 10
-25.370800
 20
119.088997
 11
-23.370800
 21
117.929001
  0
LINE
  8
0
  6
CONTINUOUS
 62
7
 10
-21.370800
 20
121.389000
 11
-21.370800
 21
119.088997
  0
LINE
  8
0
  6
CONTINUOUS
 62
7
 10
-25.370800
 20
121.389000
 11
-25.370800
 21
119.088997
  0
LINE
  8
0
  6
CONTINUOUS
 62
7
 10
-23.370800
 20
117.929001
 11
-21.370800
 21
119.088997
  0
LINE
  8
0
  6
CONTINUOUS
 62
7
 10
-25.370800
 20
121.389000
 11
-23.370800
 21
122.549004
  0
LINE
  8
0
  6
PHANTOM
 62
7
 10
-241.822998
 20
-169.026001
 11
-241.822998
 21
-17.986500
  0
LINE
  8
0
  6
CONTINUOUS
 62
4
 10
-510.032990
 20
-74.885002
 11
-510.032990
 21
-94.885002
  0
LINE
  8
0
  6
CENTER
 62
1
 10
-292.032990
 20
-64.885002
 11
-318.032990
 21
-64.885002
  0
LINE
  8
0
  6
CENTER
 62
1
 10
-292.032990
 20
-104.885002
 11
-318.032990
 21
-104.885002
  0
LINE
  8
0
  6
CENTER
 62
1
 10
-409.032990
 20
-64.885002
 11
-383.032990
 21
-64.885002
  0
LINE
  8
0
  6
CENTER
 62
1
 10
-383.032990
 20
-104.885002
 11
-409.032990
 21
-104.885002
  0
LINE
  8
0
  6
CENTER
 62
1
 10
-300.532990
 20
-84.885002
 11
-515.533020
 21
-84.885002
  0
LINE
  8
0
  6
CONTINUOUS
 62
4
 10
-425.532990
 20
-54.884998
 11
-275.532990
 21
-54.884998
  0
LINE
  8
0
  6
CONTINUOUS
 62
4
 10
-425.532990
 20
-114.885002
 11
-275.532990
 21
-114.885002
  0
LINE
  8
0
  6
CONTINUOUS
 62
7
 10
-269.032990
 20
-64.885002
 11
-269.032990
 21
-69.885002
  0
LINE
  8
0
  6
CONTINUOUS
 62
7
 10
-268.032990
 20
-69.885002
 11
-269.032990
 21
-69.885002
  0
LINE
  8
0
  6
CONTINUOUS
 62
7
 10
-268.032990
 20
-99.885002
 11
-269.032990
 21
-99.885002
  0
LINE
  8
0
  6
CONTINUOUS
 62
7
 10
-269.032990
 20
-99.885002
 11
-269.032990
 21
-104.885002
  0
LINE
  8
0
  6
CONTINUOUS
 62
7
 10
-432.032990
 20
-64.885002
 11
-432.032990
 21
-69.885002
  0
LINE
  8
0
  6
CONTINUOUS
 62
7
 10
-433.032990
 20
-69.885002
 11
-432.032990
 21
-69.885002
  0
LINE
  8
0
  6
CONTINUOUS
 62
7
 10
-433.032990
 20
-99.885002
 11
-433.032990
 21
-94.385002
  0
LINE
  8
0
  6
CONTINUOUS
 62
7
 10
-433.032990
 20
-99.885002
 11
-432.032990
 21
-99.885002
  0
LINE
  8
0
  6
CONTINUOUS
 62
7
 10
-432.032990
 20
-99.885002
 11
-432.032990
 21
-104.885002
  0
LINE
  8
0
  6
CONTINUOUS
 62
4
 10
-471.532990
 20
-142.884995
 11
-471.532990
 21
-26.885000
  0
LINE
  8
0
  6
CONTINUOUS
 62
7
 10
-268.032990
 20
-69.885002
 11
-268.032990
 21
-75.385002
  0
LINE
  8
0
  6
CONTINUOUS
 62
7
 10
-422.032990
 20
-42.884998
 11
-422.032990
 21
-46.884998
  0
LINE
  8
0
  6
CONTINUOUS
 62
7
 10
-422.032990
 20
-126.885002
 11
-422.032990
 21
-122.885002
  0
LINE
  8
0
  6
CONTINUOUS
 62
7
 10
-168.033005
 20
-76.385002
 11
-268.032990
 21
-76.385002
  0
LINE
  8
0
  6
CONTINUOUS
 62
7
 10
-168.033005
 20
-93.385002
 11
-268.032990
 21
-93.385002
  0
LINE
  8
0
  6
CONTINUOUS
 62
7
 10
-164.533005
 20
-46.884998
 11
-436.532990
 21
-46.884998
  0
LINE
  8
0
  6
CONTINUOUS
 62
7
 10
-164.533005
 20
-122.885002
 11
-436.532990
 21
-122.885002
  0
LINE
  8
0
  6
CONTINUOUS
 62
4
 10
-397.532990
 20
-26.885000
 11
-471.532990
 21
-26.885000
  0
LINE
  8
0
  6
CONTINUOUS
 62
7
 10
-435.032990
 20
-99.385002
 11
-435.032990
 21
-102.385002
  0
LINE
  8
0
  6
CONTINUOUS
 62
7
 10
-435.032990
 20
-72.144997
 11
-436.532990
 21
-71.885002
  0
LINE
  8
0
  6
CONTINUOUS
 62
7
 10
-435.032990
 20
-96.144997
 11
-436.532990
 21
-95.885002
  0
LINE
  8
0
  6
CONTINUOUS
 62
7
 10
-435.032990
 20
-99.385002
 11
-436.533997
 21
-99.125000
  0
LINE
  8
0
  6
CONTINUOUS
 62
7
 10
-435.032990
 20
-97.644997
 11
-436.532990
 21
-97.905098
  0
LINE
  8
0
  6
CONTINUOUS
 62
7
 10
-435.032990
 20
-70.385002
 11
-435.032990
 21
-67.385002
  0
LINE
  8
0
  6
CONTINUOUS
 62
7
 10
-435.032990
 20
-97.644997
 11
-435.032990
 21
-96.144997
  0
LINE
  8
0
  6
CONTINUOUS
 62
7
 10
-435.032990
 20
-72.144997
 11
-435.032990
 21
-73.644997
  0
LINE
  8
0
  6
CONTINUOUS
 62
7
 10
-435.032990
 20
-73.644997
 11
-436.533997
 21
-73.905098
  0
LINE
  8
0
  6
CONTINUOUS
 62
7
 10
-435.032990
 20
-70.385002
 11
-436.532990
 21
-70.665001
  0
LINE
  8
0
  6
CENTER
 62
1
 10
-393.532990
 20
-34.884998
 11
-434.532990
 21
-34.884998
  0
LINE
  8
0
  6
CENTER
 62
1
 10
-423.532990
 20
-45.884998
 11
-423.532990
 21
-23.885000
  0
LINE
  8
0
  6
CONTINUOUS
 62
4
 10
-397.532990
 20
-41.884998
 11
-397.532990
 21
-26.885000
  0
LINE
  8
0
  6
CONTINUOUS
 62
7
 10
-436.532990
 20
-102.385002
 11
-435.032990
 21
-102.385002
  0
LINE
  8
0
  6
CONTINUOUS
 62
7
 10
-436.532990
 20
-67.385002
 11
-435.032990
 21
-67.385002
  0
LINE
  8
0
  6
CONTINUOUS
 62
4
 10
-397.532990
 20
-127.885002
 11
-436.532990
 21
-127.885002
  0
LINE
  8
0
  6
CONTINUOUS
 62
4
 10
-433.032990
 20
-75.644997
 11
-436.532990
 21
-75.644997
  0
LINE
  8
0
  6
DASHED
 62
1
 10
-436.532990
 20
-74.885002
 11
-471.032990
 21
-74.885002
  0
LINE
  8
0
  6
PHANTOM
 62
1
 10
-417.032990
 20
-87.885002
 11
-433.032990
 21
-87.885002
  0
LINE
  8
0
  6
PHANTOM
 62
1
 10
-417.032990
 20
-81.885002
 11
-417.032990
 21
-87.885002
  0
LINE
  8
0
  6
PHANTOM
 62
1
 10
-417.032990
 20
-81.885002
 11
-433.032990
 21
-81.885002
  0
LINE
  8
0
  6
CONTINUOUS
 62
4
 10
-490.032990
 20
-74.885002
 11
-490.032990
 21
-94.885002
  0
LINE
  8
0
  6
DASHED
 62
1
 10
-437.532990
 20
-74.885002
 11
-437.532990
 21
-94.885002
  0
LINE
  8
0
  6
DASHED
 62
1
 10
-436.532990
 20
-94.885002
 11
-471.032990
 21
-94.885002
  0
LINE
  8
0
  6
CONTINUOUS
 62
4
 10
-433.032990
 20
-94.144997
 11
-436.532990
 21
-94.144997
  0
LINE
  8
0
  6
CONTINUOUS
 62
4
 10
-397.532990
 20
-41.884998
 11
-436.532990
 21
-41.884998
  0
LINE
  8
0
  6
CONTINUOUS
 62
7
 10
-436.532990
 20
-126.885002
 11
-164.533005
 21
-126.885002
  0
LINE
  8
0
  6
CONTINUOUS
 62
7
 10
-436.532990
 20
-42.884998
 11
-164.533005
 21
-42.884998
  0
LINE
  8
0
  6
CONTINUOUS
 62
4
 10
-397.532990
 20
-142.884995
 11
-471.532990
 21
-142.884995
  0
LINE
  8
0
  6
CONTINUOUS
 62
4
 10
-433.532990
 20
-75.644997
 11
-433.532990
 21
-94.144997
  0
LINE
  8
0
  6
CONTINUOUS
 62
4
 10
-436.532990
 20
-26.885000
 11
-436.532990
 21
-142.884995
  0
LINE
  8
0
  6
DASHED
 62
1
 10
-436.532990
 20
-75.644997
 11
-471.032990
 21
-75.644997
  0
LINE
  8
0
  6
DASHED
 62
1
 10
-436.532990
 20
-94.144997
 11
-471.032990
 21
-94.144997
  0
LINE
  8
0
  6
CENTER
 62
1
 10
-393.532990
 20
-134.884995
 11
-434.532990
 21
-134.884995
  0
LINE
  8
0
  6
CENTER
 62
1
 10
-423.532990
 20
-123.885002
 11
-423.532990
 21
-145.884995
  0
LINE
  8
0
  6
CENTER
 62
1
 10
-405.532990
 20
-45.884998
 11
-405.532990
 21
-23.885000
  0
LINE
  8
0
  6
CONTINUOUS
 62
4
 10
-397.532990
 20
-127.885002
 11
-397.532990
 21
-142.884995
  0
LINE
  8
0
  6
CENTER
 62
1
 10
-405.532990
 20
-123.885002
 11
-405.532990
 21
-145.884995
  0
LINE
  8
0
  6
CONTINUOUS
 62
4
 10
-471.532990
 20
-84.885002
 11
-479.532990
 21
-84.885002
  0
LINE
  8
0
  6
CONTINUOUS
 62
4
 10
-479.532990
 20
-96.885002
 11
-479.532990
 21
-72.885002
  0
LINE
  8
0
  6
CONTINUOUS
 62
1
 10
-479.532990
 20
-75.644997
 11
-510.032990
 21
-75.644997
  0
LINE
  8
0
  6
CONTINUOUS
 62
4
 10
-479.532990
 20
-74.885002
 11
-510.032990
 21
-74.885002
  0
LINE
  8
0
  6
CONTINUOUS
 62
1
 10
-479.532990
 20
-94.144997
 11
-510.032990
 21
-94.144997
  0
LINE
  8
0
  6
CONTINUOUS
 62
4
 10
-479.532990
 20
-94.885002
 11
-510.032990
 21
-94.885002
  0
LINE
  8
0
  6
CONTINUOUS
 62
4
 10
-471.532990
 20
-96.885002
 11
-479.532990
 21
-96.885002
  0
LINE
  8
0
  6
CONTINUOUS
 62
4
 10
-425.532990
 20
-54.884998
 11
-425.532990
 21
-114.885002
  0
LINE
  8
0
  6
CENTER
 62
1
 10
-400.532990
 20
-96.385002
 11
-400.532990
 21
-113.385002
  0
LINE
  8
0
  6
CONTINUOUS
 62
4
 10
-275.532990
 20
-54.884998
 11
-275.532990
 21
-114.885002
  0
LINE
  8
0
  6
CENTER
 62
1
 10
-388.032990
 20
-99.885002
 11
-388.032990
 21
-109.885002
  0
LINE
  8
0
  6
CENTER
 62
1
 10
-388.032990
 20
-69.885002
 11
-388.032990
 21
-59.884998
  0
LINE
  8
0
  6
CENTER
 62
1
 10
-313.032990
 20
-99.885002
 11
-313.032990
 21
-109.885002
  0
LINE
  8
0
  6
CENTER
 62
1
 10
-313.032990
 20
-69.885002
 11
-313.032990
 21
-59.884998
  0
LINE
  8
0
  6
CONTINUOUS
 62
4
 10
-400.532990
 20
-102.004997
 11
-398.032990
 21
-103.445000
  0
LINE
  8
0
  6
CONTINUOUS
 62
4
 10
-398.032990
 20
-103.445000
 11
-398.032990
 21
-106.345001
  0
LINE
  8
0
  6
CONTINUOUS
 62
4
 10
-400.532990
 20
-107.785004
 11
-398.032990
 21
-106.345001
  0
LINE
  8
0
  6
CONTINUOUS
 62
4
 10
-403.032990
 20
-106.345001
 11
-400.532990
 21
-107.785004
  0
LINE
  8
0
  6
CONTINUOUS
 62
4
 10
-403.032990
 20
-103.445000
 11
-403.032990
 21
-106.345001
  0
LINE
  8
0
  6
CONTINUOUS
 62
4
 10
-400.532990
 20
-102.004997
 11
-403.032990
 21
-103.445000
  0
LINE
  8
0
  6
CENTER
 62
1
 10
-400.532990
 20
-56.384998
 11
-400.532990
 21
-73.385002
  0
LINE
  8
0
  6
CONTINUOUS
 62
4
 10
-400.532990
 20
-62.005100
 11
-403.032990
 21
-63.445000
  0
LINE
  8
0
  6
CONTINUOUS
 62
4
 10
-400.533997
 20
-62.005001
 11
-398.032990
 21
-63.445000
  0
LINE
  8
0
  6
CONTINUOUS
 62
4
 10
-398.032990
 20
-63.445099
 11
-398.032990
 21
-66.345001
  0
LINE
  8
0
  6
CONTINUOUS
 62
4
 10
-403.032990
 20
-63.445099
 11
-403.032990
 21
-66.345001
  0
LINE
  8
0
  6
CONTINUOUS
 62
4
 10
-400.532990
 20
-67.785004
 11
-398.032990
 21
-66.345100
  0
LINE
  8
0
  6
CONTINUOUS
 62
4
 10
-403.032990
 20
-66.345001
 11
-400.532990
 21
-67.785004
  0
LINE
  8
0
  6
CENTER
 62
1
 10
-300.532990
 20
-56.384998
 11
-300.532990
 21
-73.385002
  0
LINE
  8
0
  6
CONTINUOUS
 62
4
 10
-298.032990
 20
-63.445099
 11
-298.032990
 21
-66.345001
  0
LINE
  8
0
  6
CONTINUOUS
 62
4
 10
-303.032990
 20
-63.445099
 11
-303.032990
 21
-66.345001
  0
LINE
  8
0
  6
CONTINUOUS
 62
4
 10
-300.532990
 20
-67.785004
 11
-298.032990
 21
-66.345001
  0
LINE
  8
0
  6
CONTINUOUS
 62
4
 10
-303.032990
 20
-66.345001
 11
-300.532990
 21
-67.785004
  0
LINE
  8
0
  6
CONTINUOUS
 62
4
 10
-300.532990
 20
-62.005001
 11
-298.032990
 21
-63.445000
  0
LINE
  8
0
  6
CONTINUOUS
 62
4
 10
-300.532990
 20
-62.005001
 11
-303.032990
 21
-63.445000
  0
LINE
  8
0
  6
CENTER
 62
1
 10
-300.532990
 20
-96.385002
 11
-300.532990
 21
-113.385002
  0
LINE
  8
0
  6
CONTINUOUS
 62
4
 10
-298.032990
 20
-103.445000
 11
-298.032990
 21
-106.345001
  0
LINE
  8
0
  6
CONTINUOUS
 62
4
 10
-303.032990
 20
-103.445000
 11
-303.032990
 21
-106.345001
  0
LINE
  8
0
  6
CONTINUOUS
 62
4
 10
-300.532990
 20
-107.785004
 11
-298.032990
 21
-106.345001
  0
LINE
  8
0
  6
CONTINUOUS
 62
4
 10
-303.032990
 20
-106.345001
 11
-300.532990
 21
-107.785004
  0
LINE
  8
0
  6
CONTINUOUS
 62
4
 10
-300.532990
 20
-102.004997
 11
-298.032990
 21
-103.445000
  0
LINE
  8
0
  6
CONTINUOUS
 62
4
 10
-300.532990
 20
-102.004997
 11
-303.032990
 21
-103.445000
  0
LINE
  8
0
  6
CONTINUOUS
 62
4
 10
-425.532990
 20
-84.885002
 11
-433.032990
 21
-84.885002
  0
LINE
  8
0
  6
CONTINUOUS
 62
4
 10
-425.532990
 20
-94.385002
 11
-433.032990
 21
-94.385002
  0
LINE
  8
0
  6
CONTINUOUS
 62
4
 10
-425.532990
 20
-75.385002
 11
-433.032990
 21
-75.385002
  0
LINE
  8
0
  6
CONTINUOUS
 62
4
 10
-437.532990
 20
-59.625000
 11
-470.532990
 21
-59.625000
  0
LINE
  8
0
  6
CONTINUOUS
 62
4
 10
-437.532990
 20
-110.165001
 11
-470.532990
 21
-110.165001
  0
LINE
  8
0
  6
CONTINUOUS
 62
4
 10
-471.532990
 20
-72.885002
 11
-479.532990
 21
-72.885002
  0
LINE
  8
0
  6
CONTINUOUS
 62
4
 10
-275.532990
 20
-84.885002
 11
-268.032990
 21
-84.885002
  0
LINE
  8
0
  6
CONTINUOUS
 62
4
 10
-275.532990
 20
-94.385002
 11
-268.032990
 21
-94.385002
  0
LINE
  8
0
  6
CONTINUOUS
 62
4
 10
-275.532990
 20
-75.385002
 11
-268.032990
 21
-75.385002
  0
LINE
  8
0
  6
CONTINUOUS
 62
7
 10
-433.032990
 20
-75.385002
 11
-433.032990
 21
-69.885002
  0
LINE
  8
0
  6
CONTINUOUS
 62
4
 10
-433.032990
 20
-94.385002
 11
-433.032990
 21
-75.385002
  0
LINE
  8
0
  6
CONTINUOUS
 62
4
 10
-268.032990
 20
-75.385002
 11
-268.032990
 21
-94.385002
  0
LINE
  8
0
  6
CONTINUOUS
 62
7
 10
-268.032990
 20
-94.385002
 11
-268.032990
 21
-99.885002
  0
LINE
  8
0
  6
CENTER
 62
1
 10
-177.533005
 20
-45.884998
 11
-177.533005
 21
-23.885000
  0
LINE
  8
0
  6
CONTINUOUS
 62
4
 10
-203.533005
 20
-41.884998
 11
-203.533005
 21
-26.885000
  0
LINE
  8
0
  6
CONTINUOUS
 62
4
 10
-164.533005
 20
-26.885000
 11
-164.533005
 21
-142.884995
  0
LINE
  8
0
  6
CENTER
 62
1
 10
-195.533005
 20
-45.884998
 11
-195.533005
 21
-23.885000
  0
LINE
  8
0
  6
CENTER
 62
1
 10
-207.533005
 20
-34.884998
 11
-166.533005
 21
-34.884998
  0
LINE
  8
0
  6
CONTINUOUS
 62
4
 10
-203.533005
 20
-26.885000
 11
-129.533005
 21
-26.885000
  0
LINE
  8
0
  6
CONTINUOUS
 62
4
 10
-203.533005
 20
-41.884998
 11
-164.533005
 21
-41.884998
  0
LINE
  8
0
  6
CENTER
 62
1
 10
-207.533005
 20
-134.884995
 11
-166.533005
 21
-134.884995
  0
LINE
  8
0
  6
CENTER
 62
1
 10
-177.533005
 20
-123.885002
 11
-177.533005
 21
-145.884995
  0
LINE
  8
0
  6
CONTINUOUS
 62
4
 10
-203.533005
 20
-127.885002
 11
-203.533005
 21
-142.884995
  0
LINE
  8
0
  6
CENTER
 62
1
 10
-195.533005
 20
-123.885002
 11
-195.533005
 21
-145.884995
  0
LINE
  8
0
  6
CONTINUOUS
 62
4
 10
-203.533005
 20
-142.884995
 11
-129.533005
 21
-142.884995
  0
LINE
  8
0
  6
CENTER
 62
1
 10
-300.532990
 20
-84.885002
 11
-85.533401
 21
-84.885002
  0
LINE
  8
0
  6
CONTINUOUS
 62
4
 10
-129.533005
 20
-142.884995
 11
-129.533005
 21
-26.885000
  0
LINE
  8
0
  6
DASHED
 62
1
 10
-164.533005
 20
-74.885002
 11
-130.033005
 21
-74.885002
  0
LINE
  8
0
  6
DASHED
 62
1
 10
-164.533005
 20
-94.885002
 11
-130.033005
 21
-94.885002
  0
LINE
  8
0
  6
DASHED
 62
1
 10
-164.533005
 20
-75.644997
 11
-130.033005
 21
-75.644997
  0
LINE
  8
0
  6
DASHED
 62
1
 10
-164.533005
 20
-94.144997
 11
-130.033005
 21
-94.144997
  0
LINE
  8
0
  6
CONTINUOUS
 62
4
 10
-163.533005
 20
-59.625000
 11
-130.533005
 21
-59.625000
  0
LINE
  8
0
  6
CONTINUOUS
 62
4
 10
-163.533005
 20
-110.165001
 11
-130.533005
 21
-110.165001
  0
LINE
  8
0
  6
CONTINUOUS
 62
4
 10
-129.533005
 20
-72.885002
 11
-121.532997
 21
-72.885002
  0
LINE
  8
0
  6
CONTINUOUS
 62
4
 10
-129.533005
 20
-96.885002
 11
-121.532997
 21
-96.885002
  0
LINE
  8
0
  6
CONTINUOUS
 62
4
 10
-121.532997
 20
-94.885002
 11
-91.033401
 21
-94.885002
  0
LINE
  8
0
  6
CONTINUOUS
 62
1
 10
-121.532997
 20
-94.144997
 11
-91.033401
 21
-94.144997
  0
LINE
  8
0
  6
CONTINUOUS
 62
4
 10
-121.532997
 20
-74.885002
 11
-91.033401
 21
-74.885002
  0
LINE
  8
0
  6
CONTINUOUS
 62
1
 10
-121.532997
 20
-75.644997
 11
-91.033401
 21
-75.644997
  0
LINE
  8
0
  6
CONTINUOUS
 62
4
 10
-121.532997
 20
-96.885002
 11
-121.532997
 21
-72.885002
  0
LINE
  8
0
  6
CONTINUOUS
 62
4
 10
-129.533005
 20
-84.885002
 11
-121.532997
 21
-84.885002
  0
LINE
  8
0
  6
CONTINUOUS
 62
4
 10
-91.033401
 20
-74.885002
 11
-91.033401
 21
-94.885002
  0
LINE
  8
0
  6
DASHED
 62
1
 10
-163.533005
 20
-74.885002
 11
-163.533005
 21
-94.885002
  0
LINE
  8
0
  6
CONTINUOUS
 62
4
 10
-203.533005
 20
-127.885002
 11
-164.533005
 21
-127.885002
  0
LINE
  8
0
  6
CONTINUOUS
 62
4
 10
-168.033005
 20
-75.644997
 11
-164.533005
 21
-75.644997
  0
LINE
  8
0
  6
CONTINUOUS
 62
4
 10
-168.033005
 20
-94.144997
 11
-168.033005
 21
-75.644997
  0
LINE
  8
0
  6
CONTINUOUS
 62
4
 10
-168.033005
 20
-94.144997
 11
-164.533005
 21
-94.144997
  0
LINE
  8
0
  6
CONTINUOUS
 62
4
 10
-184.033005
 20
-81.885002
 11
-184.033005
 21
-87.885002
  0
LINE
  8
0
  6
CONTINUOUS
 62
4
 10
-184.033005
 20
-81.885002
 11
-168.033005
 21
-81.885002
  0
LINE
  8
0
  6
CONTINUOUS
 62
4
 10
-184.033005
 20
-87.885002
 11
-168.033005
 21
-87.885002
  0
LINE
  8
0
  6
CONTINUOUS
 62
7
 10
-179.033005
 20
-42.884998
 11
-179.033005
 21
-46.884998
  0
LINE
  8
0
  6
CONTINUOUS
 62
7
 10
-179.033005
 20
-126.885002
 11
-179.033005
 21
-122.885002
  0
LINE
  8
0
  6
CENTER
 62
1
 10
-350.532990
 20
-136.981995
 11
-350.532990
 21
-34.884998
  0
LINE
  8
0
  6
CONTINUOUS
 62
4
 10
-510.032990
 20
-209.884995
 11
-510.032990
 21
-229.884995
  0
LINE
  8
0
  6
CONTINUOUS
 62
4
 10
-436.532990
 20
-205.884995
 11
-436.532990
 21
-242.884995
  0
LINE
  8
0
  6
CONTINUOUS
 62
7
 10
-435.032990
 20
-234.884995
 11
-435.032990
 21
-241.384995
  0
LINE
  8
0
  6
CONTINUOUS
 62
7
 10
-434.032990
 20
-234.884995
 11
-434.032990
 21
-241.384995
  0
LINE
  8
0
  6
CONTINUOUS
 62
4
 10
-471.532990
 20
-236.884995
 11
-471.532990
 21
-288.885010
  0
LINE
  8
0
  6
CONTINUOUS
 62
7
 10
-433.032990
 20
-230.884995
 11
-433.032990
 21
-241.384995
  0
LINE
  8
0
  6
CONTINUOUS
 62
7
 10
-268.032990
 20
-230.884995
 11
-268.032990
 21
-241.384995
  0
LINE
  8
0
  6
CONTINUOUS
 62
7
 10
-268.032990
 20
-230.884995
 11
-433.032990
 21
-230.884995
  0
LINE
  8
0
  6
CONTINUOUS
 62
7
 10
-434.032990
 20
-234.884995
 11
-436.532990
 21
-234.884995
  0
LINE
  8
0
  6
CONTINUOUS
 62
4
 10
-436.532990
 20
-205.884995
 11
-471.532990
 21
-205.884995
  0
LINE
  8
0
  6
CONTINUOUS
 62
1
 10
-414.532990
 20
-219.884995
 11
-513.533020
 21
-219.884995
  0
LINE
  8
0
  6
CONTINUOUS
 62
4
 10
-471.532990
 20
-205.884995
 11
-471.532990
 21
-236.884995
  0
LINE
  8
0
  6
DASHED
 62
1
 10
-436.532990
 20
-209.884995
 11
-471.532990
 21
-209.884995
  0
LINE
  8
0
  6
CONTINUOUS
 62
4
 10
-433.032990
 20
-210.625000
 11
-436.532990
 21
-210.625000
  0
LINE
  8
0
  6
PHANTOM
 62
1
 10
-417.032990
 20
-216.884995
 11
-417.032990
 21
-222.884995
  0
LINE
  8
0
  6
PHANTOM
 62
1
 10
-417.032990
 20
-222.884995
 11
-433.032990
 21
-222.884995
  0
LINE
  8
0
  6
PHANTOM
 62
1
 10
-417.032990
 20
-216.884995
 11
-433.032990
 21
-216.884995
  0
LINE
  8
0
  6
CONTINUOUS
 62
4
 10
-490.032990
 20
-209.884995
 11
-490.032990
 21
-229.884995
  0
LINE
  8
0
  6
DASHED
 62
1
 10
-437.532990
 20
-209.884995
 11
-437.532990
 21
-229.884995
  0
LINE
  8
0
  6
CONTINUOUS
 62
4
 10
-433.032990
 20
-229.125000
 11
-436.532990
 21
-229.125000
  0
LINE
  8
0
  6
DASHED
 62
1
 10
-436.532990
 20
-229.884995
 11
-471.532990
 21
-229.884995
  0
LINE
  8
0
  6
DASHED
 62
1
 10
-436.532990
 20
-210.625000
 11
-471.532990
 21
-210.625000
  0
LINE
  8
0
  6
DASHED
 62
1
 10
-436.532990
 20
-229.125000
 11
-471.532990
 21
-229.125000
  0
LINE
  8
0
  6
CONTINUOUS
 62
4
 10
-433.032990
 20
-230.845001
 11
-433.032990
 21
-208.904999
  0
LINE
  8
0
  6
CONTINUOUS
 62
4
 10
-479.532990
 20
-206.024994
 11
-479.532990
 21
-233.725006
  0
LINE
  8
0
  6
CONTINUOUS
 62
4
 10
-479.532990
 20
-209.884995
 11
-510.032990
 21
-209.884995
  0
LINE
  8
0
  6
CONTINUOUS
 62
1
 10
-479.532990
 20
-210.625000
 11
-510.032990
 21
-210.625000
  0
LINE
  8
0
  6
CONTINUOUS
 62
1
 10
-479.532990
 20
-229.125000
 11
-510.032990
 21
-229.125000
  0
LINE
  8
0
  6
CONTINUOUS
 62
4
 10
-479.532990
 20
-229.884995
 11
-510.032990
 21
-229.884995
  0
LINE
  8
0
  6
CONTINUOUS
 62
4
 10
-275.532990
 20
-203.884995
 11
-425.532990
 21
-203.884995
  0
LINE
  8
0
  6
CONTINUOUS
 62
4
 10
-425.532990
 20
-230.884995
 11
-425.532990
 21
-203.884995
  0
LINE
  8
0
  6
CENTER
 62
1
 10
-438.032990
 20
-219.884995
 11
-414.173004
 21
-219.884995
  0
LINE
  8
0
  6
CONTINUOUS
 62
4
 10
-425.532990
 20
-230.845001
 11
-433.032990
 21
-230.845001
  0
LINE
  8
0
  6
CONTINUOUS
 62
4
 10
-425.532990
 20
-225.365005
 11
-433.032990
 21
-225.365005
  0
LINE
  8
0
  6
CONTINUOUS
 62
4
 10
-425.532990
 20
-208.904999
 11
-433.032990
 21
-208.904999
  0
LINE
  8
0
  6
CONTINUOUS
 62
4
 10
-425.532990
 20
-214.384995
 11
-433.032990
 21
-214.384995
  0
LINE
  8
0
  6
CONTINUOUS
 62
4
 10
-275.532990
 20
-230.884995
 11
-275.532990
 21
-203.884995
  0
LINE
  8
0
  6
CONTINUOUS
 62
4
 10
-470.532990
 20
-218.925003
 11
-437.532990
 21
-218.925003
  0
LINE
  8
0
  6
CONTINUOUS
 62
4
 10
-471.532990
 20
-206.024994
 11
-479.532990
 21
-206.024994
  0
LINE
  8
0
  6
CONTINUOUS
 62
4
 10
-471.532990
 20
-212.945007
 11
-479.532990
 21
-212.945007
  0
LINE
  8
0
  6
CONTINUOUS
 62
4
 10
-471.532990
 20
-226.804993
 11
-479.532990
 21
-226.804993
  0
LINE
  8
0
  6
CONTINUOUS
 62
4
 10
-471.532990
 20
-233.725006
 11
-479.532990
 21
-233.725006
  0
LINE
  8
0
  6
CONTINUOUS
 62
4
 10
-275.532990
 20
-214.384995
 11
-268.032990
 21
-214.384995
  0
LINE
  8
0
  6
CONTINUOUS
 62
4
 10
-275.532990
 20
-208.904999
 11
-268.032990
 21
-208.904999
  0
LINE
  8
0
  6
CONTINUOUS
 62
4
 10
-275.532990
 20
-225.365005
 11
-268.032990
 21
-225.365005
  0
LINE
  8
0
  6
CONTINUOUS
 62
4
 10
-275.532990
 20
-230.845001
 11
-268.032990
 21
-230.845001
  0
LINE
  8
0
  6
CONTINUOUS
 62
4
 10
-268.032990
 20
-230.845001
 11
-268.032990
 21
-208.904999
  0
LINE
  8
0
  6
CENTER
 62
1
 10
-460.032990
 20
-259.889008
 11
-460.032990
 21
-283.015015
  0
LINE
  8
0
  6
CENTER
 62
1
 10
-449.244995
 20
-270.885010
 11
-471.039001
 21
-270.885010
  0
LINE
  8
0
  6
CONTINUOUS
 62
7
 10
-269.532990
 20
-241.725006
 11
-269.532990
 21
-244.085007
  0
LINE
  8
0
  6
CONTINUOUS
 62
7
 10
-268.333008
 20
-245.065002
 11
-269.292999
 21
-244.524994
  0
LINE
  8
0
  6
CONTINUOUS
 62
7
 10
-268.333008
 20
-245.884995
 11
-268.333008
 21
-245.065002
  0
LINE
  8
0
  6
CONTINUOUS
 62
7
 10
-433.032990
 20
-241.384995
 11
-268.032990
 21
-241.384995
  0
LINE
  8
0
  6
CONTINUOUS
 62
7
 10
-431.532990
 20
-241.725006
 11
-431.532990
 21
-244.085007
  0
LINE
  8
0
  6
CONTINUOUS
 62
7
 10
-432.733002
 20
-245.065002
 11
-431.773010
 21
-244.524994
  0
LINE
  8
0
  6
CONTINUOUS
 62
7
 10
-432.733002
 20
-245.884995
 11
-432.733002
 21
-245.065002
  0
LINE
  8
0
  6
CONTINUOUS
 62
7
 10
-203.533005
 20
-288.885010
 11
-397.532990
 21
-288.885010
  0
LINE
  8
0
  6
CONTINUOUS
 62
7
 10
-431.532990
 20
-244.365005
 11
-269.532990
 21
-244.365005
  0
LINE
  8
0
  6
CONTINUOUS
 62
7
 10
-268.333008
 20
-245.065002
 11
-432.733002
 21
-245.065002
  0
LINE
  8
0
  6
CONTINUOUS
 62
7
 10
-203.533005
 20
-282.684998
 11
-397.532990
 21
-282.684998
  0
LINE
  8
0
  6
CONTINUOUS
 62
7
 10
-203.533005
 20
-277.885010
 11
-397.532990
 21
-277.885010
  0
LINE
  8
0
  6
CONTINUOUS
 62
7
 10
-203.533005
 20
-257.885010
 11
-397.532990
 21
-257.885010
  0
LINE
  8
0
  6
CONTINUOUS
 62
7
 10
-203.533005
 20
-249.925003
 11
-397.532990
 21
-249.925003
  0
LINE
  8
0
  6
CONTINUOUS
 62
7
 10
-203.533005
 20
-251.824997
 11
-397.532990
 21
-251.824997
  0
LINE
  8
0
  6
CONTINUOUS
 62
7
 10
-434.032990
 20
-241.384995
 11
-436.532990
 21
-241.384995
  0
LINE
  8
0
  6
CONTINUOUS
 62
7
 10
-397.532990
 20
-266.484985
 11
-203.533005
 21
-266.484985
  0
LINE
  8
0
  6
CONTINUOUS
 62
7
 10
-397.532990
 20
-263.285004
 11
-203.533005
 21
-263.285004
  0
LINE
  8
0
  6
CONTINUOUS
 62
7
 10
-435.713013
 20
-245.884995
 11
-165.337006
 21
-245.884995
  0
LINE
  8
0
  6
CONTINUOUS
 62
4
 10
-397.532990
 20
-248.884995
 11
-430.532990
 21
-248.884995
  0
LINE
  8
0
  6
CONTINUOUS
 62
4
 10
-446.532990
 20
-270.885010
 11
-446.532990
 21
-288.885010
  0
LINE
  8
0
  6
CONTINUOUS
 62
4
 10
-397.532990
 20
-248.884995
 11
-397.532990
 21
-288.885010
  0
LINE
  8
0
  6
CONTINUOUS
 62
4
 10
-460.032990
 20
-257.385010
 11
-471.532990
 21
-257.385010
  0
LINE
  8
0
  6
CONTINUOUS
 62
4
 10
-397.532990
 20
-288.885010
 11
-471.532990
 21
-288.885010
  0
LINE
  8
0
  6
CONTINUOUS
 62
4
 10
-164.533005
 20
-205.884995
 11
-129.533005
 21
-205.884995
  0
LINE
  8
0
  6
CONTINUOUS
 62
1
 10
-186.533005
 20
-219.884995
 11
-87.533401
 21
-219.884995
  0
LINE
  8
0
  6
DASHED
 62
1
 10
-164.533005
 20
-209.884995
 11
-129.533005
 21
-209.884995
  0
LINE
  8
0
  6
DASHED
 62
1
 10
-164.533005
 20
-229.884995
 11
-129.533005
 21
-229.884995
  0
LINE
  8
0
  6
DASHED
 62
1
 10
-164.533005
 20
-210.625000
 11
-129.533005
 21
-210.625000
  0
LINE
  8
0
  6
DASHED
 62
1
 10
-164.533005
 20
-229.125000
 11
-129.533005
 21
-229.125000
  0
LINE
  8
0
  6
CONTINUOUS
 62
4
 10
-130.533005
 20
-218.925003
 11
-163.533005
 21
-218.925003
  0
LINE
  8
0
  6
CONTINUOUS
 62
4
 10
-203.533005
 20
-288.885010
 11
-129.533005
 21
-288.885010
  0
LINE
  8
0
  6
CONTINUOUS
 62
4
 10
-141.033005
 20
-257.385010
 11
-129.533005
 21
-257.385010
  0
LINE
  8
0
  6
CONTINUOUS
 62
4
 10
-154.533005
 20
-270.885010
 11
-154.533005
 21
-288.885010
  0
LINE
  8
0
  6
CENTER
 62
1
 10
-151.822006
 20
-270.885010
 11
-130.028000
 21
-270.885010
  0
LINE
  8
0
  6
CENTER
 62
1
 10
-141.033005
 20
-259.889008
 11
-141.033005
 21
-283.015015
  0
LINE
  8
0
  6
CONTINUOUS
 62
4
 10
-129.533005
 20
-233.725006
 11
-121.532997
 21
-233.725006
  0
LINE
  8
0
  6
CONTINUOUS
 62
4
 10
-129.533005
 20
-226.804993
 11
-121.532997
 21
-226.804993
  0
LINE
  8
0
  6
CONTINUOUS
 62
4
 10
-129.533005
 20
-212.945007
 11
-121.532997
 21
-212.945007
  0
LINE
  8
0
  6
CONTINUOUS
 62
4
 10
-129.533005
 20
-206.024994
 11
-121.532997
 21
-206.024994
  0
LINE
  8
0
  6
CONTINUOUS
 62
4
 10
-121.532997
 20
-229.884995
 11
-91.033401
 21
-229.884995
  0
LINE
  8
0
  6
CONTINUOUS
 62
1
 10
-121.532997
 20
-229.125000
 11
-91.033401
 21
-229.125000
  0
LINE
  8
0
  6
CONTINUOUS
 62
1
 10
-121.532997
 20
-210.625000
 11
-91.033401
 21
-210.625000
  0
LINE
  8
0
  6
CONTINUOUS
 62
4
 10
-121.532997
 20
-209.884995
 11
-91.033401
 21
-209.884995
  0
LINE
  8
0
  6
CONTINUOUS
 62
4
 10
-121.532997
 20
-206.024994
 11
-121.532997
 21
-233.725006
  0
LINE
  8
0
  6
CONTINUOUS
 62
4
 10
-91.033401
 20
-209.884995
 11
-91.033401
 21
-229.884995
  0
LINE
  8
0
  6
CONTINUOUS
 62
4
 10
-129.533005
 20
-205.884995
 11
-129.533005
 21
-236.884995
  0
LINE
  8
0
  6
CONTINUOUS
 62
4
 10
-129.533005
 20
-236.884995
 11
-129.533005
 21
-288.885010
  0
LINE
  8
0
  6
CONTINUOUS
 62
4
 10
-203.533005
 20
-248.884995
 11
-203.533005
 21
-288.885010
  0
LINE
  8
0
  6
CONTINUOUS
 62
4
 10
-203.533005
 20
-248.884995
 11
-170.533005
 21
-248.884995
  0
LINE
  8
0
  6
CONTINUOUS
 62
4
 10
-164.533005
 20
-205.884995
 11
-164.533005
 21
-242.884995
  0
LINE
  8
0
  6
CONTINUOUS
 62
7
 10
-167.033005
 20
-234.884995
 11
-164.533005
 21
-234.884995
  0
LINE
  8
0
  6
CONTINUOUS
 62
7
 10
-167.033005
 20
-241.384995
 11
-164.533005
 21
-241.384995
  0
LINE
  8
0
  6
CONTINUOUS
 62
4
 10
-168.033005
 20
-210.625000
 11
-164.533005
 21
-210.625000
  0
LINE
  8
0
  6
DASHED
 62
7
 10
-163.533005
 20
-209.884995
 11
-163.533005
 21
-229.884995
  0
LINE
  8
0
  6
CONTINUOUS
 62
4
 10
-168.033005
 20
-229.125000
 11
-164.533005
 21
-229.125000
  0
LINE
  8
0
  6
CONTINUOUS
 62
7
 10
-166.033005
 20
-234.884995
 11
-166.033005
 21
-241.384995
  0
LINE
  8
0
  6
CONTINUOUS
 62
7
 10
-167.033005
 20
-234.884995
 11
-167.033005
 21
-241.384995
  0
LINE
  8
0
  6
CONTINUOUS
 62
4
 10
-184.033005
 20
-216.884995
 11
-184.033005
 21
-222.884995
  0
LINE
  8
0
  6
CONTINUOUS
 62
4
 10
-184.033005
 20
-216.884995
 11
-168.033005
 21
-216.884995
  0
LINE
  8
0
  6
CONTINUOUS
 62
4
 10
-184.033005
 20
-222.884995
 11
-168.033005
 21
-222.884995
  0
LINE
  8
0
  6
CONTINUOUS
 62
4
 10
-168.033005
 20
-210.625000
 11
-168.033005
 21
-229.125000
  0
LINE
  8
0
  6
PHANTOM
 62
4
 10
-241.822998
 20
-306.402008
 11
-241.822998
 21
-169.026001
  0
LINE
  8
0
  6
CONTINUOUS
 62
4
 10
-13.533600
 20
-203.884995
 11
-13.533600
 21
-219.024002
  0
LINE
  8
0
  6
CONTINUOUS
 62
4
 10
46.466400
 20
-203.884995
 11
46.466400
 21
-218.994003
  0
LINE
  8
0
  6
CONTINUOUS
 62
4
 10
46.466400
 20
-203.884995
 11
-13.533600
 21
-203.884995
  0
LINE
  8
0
  6
CONTINUOUS
 62
7
 10
43.466400
 20
-234.884995
 11
-10.533600
 21
-234.884995
  0
LINE
  8
0
  6
CONTINUOUS
 62
7
 10
58.466400
 20
-288.885010
 11
-25.533600
 21
-288.885010
  0
LINE
  8
0
  6
CONTINUOUS
 62
7
 10
58.466400
 20
-249.884995
 11
58.466400
 21
-263.285004
  0
LINE
  8
0
  6
CENTER
 62
2
 10
-25.033600
 20
-250.884995
 11
-10.033600
 21
-250.884995
  0
LINE
  8
0
  6
CENTER
 62
2
 10
-17.533600
 20
-243.384995
 11
-17.533600
 21
-258.385010
  0
LINE
  8
0
  6
CENTER
 62
2
 10
49.466400
 20
-274.385010
 11
49.466400
 21
-289.385010
  0
LINE
  8
0
  6
CENTER
 62
2
 10
56.966400
 20
-281.885010
 11
41.966400
 21
-281.885010
  0
LINE
  8
0
  6
CENTER
 62
2
 10
50.466400
 20
-243.384995
 11
50.466400
 21
-258.385010
  0
LINE
  8
0
  6
CENTER
 62
2
 10
57.966400
 20
-250.884995
 11
42.966400
 21
-250.884995
  0
LINE
  8
0
  6
CONTINUOUS
 62
7
 10
58.466400
 20
-263.285004
 11
57.966400
 21
-263.285004
  0
LINE
  8
0
  6
CONTINUOUS
 62
7
 10
57.466400
 20
-262.785004
 11
57.966400
 21
-263.285004
  0
LINE
  8
0
  6
CONTINUOUS
 62
7
 10
55.866402
 20
-262.785004
 11
57.466400
 21
-262.785004
  0
LINE
  8
0
  6
CONTINUOUS
 62
7
 10
54.666401
 20
-266.605011
 11
54.666401
 21
-267.725006
  0
LINE
  8
0
  6
CONTINUOUS
 62
7
 10
53.866402
 20
-269.105011
 11
54.666401
 21
-267.725006
  0
LINE
  8
0
  6
CONTINUOUS
 62
7
 10
53.866402
 20
-270.984985
 11
53.866402
 21
-269.105011
  0
LINE
  8
0
  6
CONTINUOUS
 62
7
 10
56.666401
 20
-269.864990
 11
57.466400
 21
-268.484985
  0
LINE
  8
0
  6
CONTINUOUS
 62
7
 10
56.666401
 20
-270.984985
 11
56.666401
 21
-269.864990
  0
LINE
  8
0
  6
CONTINUOUS
 62
7
 10
57.466400
 20
-266.984985
 11
57.466400
 21
-268.484985
  0
LINE
  8
0
  6
CONTINUOUS
 62
7
 10
57.466400
 20
-266.984985
 11
57.966400
 21
-266.484985
  0
LINE
  8
0
  6
CONTINUOUS
 62
7
 10
58.466400
 20
-266.484985
 11
57.966400
 21
-266.484985
  0
LINE
  8
0
  6
CONTINUOUS
 62
7
 10
58.466400
 20
-266.484985
 11
58.466400
 21
-288.885010
  0
LINE
  8
0
  6
CONTINUOUS
 62
7
 10
58.466400
 20
-262.385010
 11
55.466400
 21
-262.385010
  0
LINE
  8
0
  6
CONTINUOUS
 62
7
 10
53.466400
 20
-264.385010
 11
53.466400
 21
-270.885010
  0
LINE
  8
0
  6
CONTINUOUS
 62
7
 10
58.466400
 20
-272.885010
 11
55.466400
 21
-272.885010
  0
LINE
  8
0
  6
CONTINUOUS
 62
7
 10
-25.533600
 20
-249.884995
 11
-25.533600
 21
-288.885010
  0
LINE
  8
0
  6
CONTINUOUS
 62
7
 10
23.466400
 20
-242.884995
 11
19.466400
 21
-242.884995
  0
LINE
  8
0
  6
CONTINUOUS
 62
7
 10
23.466400
 20
-258.885010
 11
9.466430
 21
-258.885010
  0
LINE
  8
0
  6
CONTINUOUS
 62
7
 10
24.466400
 20
-243.884995
 11
24.466400
 21
-257.885010
  0
LINE
  8
0
  6
CONTINUOUS
 62
7
 10
8.466430
 20
-243.884995
 11
8.466430
 21
-257.885010
  0
LINE
  8
0
  6
CENTER
 62
1
 10
16.466400
 20
-200.884995
 11
16.466400
 21
-297.265015
  0
LINE
  8
0
  6
CONTINUOUS
 62
7
 10
19.466400
 20
-234.884995
 11
19.466400
 21
-242.884995
  0
LINE
  8
0
  6
CONTINUOUS
 62
7
 10
13.466400
 20
-234.884995
 11
13.466400
 21
-242.884995
  0
LINE
  8
0
  6
CONTINUOUS
 62
7
 10
13.466400
 20
-242.884995
 11
9.466430
 21
-242.884995
  0
LINE
  8
0
  6
CONTINUOUS
 62
7
 10
-13.533600
 20
-234.164993
 11
-13.533600
 21
-235.184998
  0
LINE
  8
0
  6
CONTINUOUS
 62
7
 10
46.466400
 20
-234.164993
 11
46.466400
 21
-235.184998
  0
LINE
  8
0
  6
CONTINUOUS
 62
4
 10
43.466400
 20
-233.884995
 11
-10.533600
 21
-233.884995
  0
LINE
  8
0
  6
CONTINUOUS
 62
4
 10
59.466400
 20
-288.885010
 11
74.466400
 21
-288.885010
  0
LINE
  8
0
  6
CONTINUOUS
 62
4
 10
-26.533600
 20
-288.885010
 11
-41.533600
 21
-288.885010
  0
LINE
  8
0
  6
CENTER
 62
1
 10
33.466400
 20
-219.884995
 11
-0.533569
 21
-219.884995
  0
LINE
  8
0
  6
CONTINUOUS
 62
4
 10
-41.533600
 20
-249.884995
 11
-41.533600
 21
-288.885010
  0
LINE
  8
0
  6
DASHED
 62
1
 10
-26.513599
 20
-248.884995
 11
-41.533600
 21
-248.884995
  0
LINE
  8
0
  6
CONTINUOUS
 62
4
 10
74.466400
 20
-249.884995
 11
74.466400
 21
-288.885010
  0
LINE
  8
0
  6
CENTER
 62
1
 10
66.466400
 20
-240.884995
 11
66.466400
 21
-291.885010
  0
LINE
  8
0
  6
DASHED
 62
1
 10
59.426399
 20
-248.884995
 11
74.446404
 21
-248.884995
  0
LINE
  8
0
  6
DASHED
 62
1
 10
60.966400
 20
-255.384995
 11
71.966400
 21
-255.384995
  0
LINE
  8
0
  6
DASHED
 62
1
 10
60.966400
 20
-248.884995
 11
60.966400
 21
-255.384995
  0
LINE
  8
0
  6
DASHED
 62
1
 10
71.966400
 20
-248.884995
 11
71.966400
 21
-255.384995
  0
LINE
  8
0
  6
DASHED
 62
1
 10
-28.033600
 20
-248.884995
 11
-28.033600
 21
-255.384995
  0
LINE
  8
0
  6
DASHED
 62
1
 10
-39.033600
 20
-248.884995
 11
-39.033600
 21
-255.384995
  0
LINE
  8
0
  6
DASHED
 62
1
 10
-28.033600
 20
-255.384995
 11
-39.033600
 21
-255.384995
  0
LINE
  8
0
  6
CENTER
 62
1
 10
-33.533600
 20
-240.884995
 11
-33.533600
 21
-291.885010
  0
LINE
  8
0
  6
CONTINUOUS
 62
4
 10
-26.533600
 20
-257.385010
 11
-41.533600
 21
-257.385010
  0
LINE
  8
0
  6
CONTINUOUS
 62
4
 10
59.466400
 20
-257.385010
 11
74.466400
 21
-257.385010
  0
LINE
  8
0
  6
CONTINUOUS
 62
4
 10
61.966400
 20
-262.885010
 11
61.966400
 21
-288.885010
  0
LINE
  8
0
  6
CONTINUOUS
 62
4
 10
59.466400
 20
-249.884995
 11
59.466400
 21
-288.885010
  0
LINE
  8
0
  6
CONTINUOUS
 62
4
 10
-29.033600
 20
-262.885010
 11
-29.033600
 21
-288.885010
  0
LINE
  8
0
  6
CONTINUOUS
 62
7
 10
-26.533600
 20
-249.884995
 11
-26.533600
 21
-288.885010
  0
LINE
  8
0
  6
CONTINUOUS
 62
4
 10
16.466400
 20
-233.725006
 11
28.466400
 21
-226.804993
  0
LINE
  8
0
  6
CONTINUOUS
 62
4
 10
28.466400
 20
-226.804993
 11
28.466400
 21
-212.945007
  0
LINE
  8
0
  6
CONTINUOUS
 62
4
 10
16.466400
 20
-206.024994
 11
28.466400
 21
-212.945007
  0
LINE
  8
0
  6
CONTINUOUS
 62
4
 10
4.466440
 20
-212.945007
 11
16.466400
 21
-206.024994
  0
LINE
  8
0
  6
CONTINUOUS
 62
4
 10
4.466430
 20
-226.804993
 11
4.466430
 21
-212.945007
  0
LINE
  8
0
  6
CONTINUOUS
 62
4
 10
16.466400
 20
-233.725006
 11
4.466430
 21
-226.804993
  0
LINE
  8
0
  6
CONTINUOUS
 62
7
 10
51.466400
 20
-280.725006
 11
51.466400
 21
-283.024994
  0
LINE
  8
0
  6
CONTINUOUS
 62
7
 10
47.466400
 20
-280.725006
 11
47.466400
 21
-283.024994
  0
LINE
  8
0
  6
CONTINUOUS
 62
7
 10
49.466400
 20
-279.565002
 11
51.466400
 21
-280.725006
  0
LINE
  8
0
  6
CONTINUOUS
 62
7
 10
47.466400
 20
-283.024994
 11
49.466400
 21
-284.184998
  0
LINE
  8
0
  6
CONTINUOUS
 62
7
 10
47.466400
 20
-280.725006
 11
49.466400
 21
-279.565002
  0
LINE
  8
0
  6
CONTINUOUS
 62
7
 10
49.466400
 20
-284.184998
 11
51.466400
 21
-283.024994
  0
LINE
  8
0
  6
CONTINUOUS
 62
7
 10
52.466400
 20
-249.725006
 11
52.466400
 21
-252.024994
  0
LINE
  8
0
  6
CONTINUOUS
 62
7
 10
48.466400
 20
-249.725006
 11
48.466400
 21
-252.024994
  0
LINE
  8
0
  6
CONTINUOUS
 62
7
 10
50.466400
 20
-248.565002
 11
52.466400
 21
-249.725006
  0
LINE
  8
0
  6
CONTINUOUS
 62
7
 10
48.466400
 20
-252.024994
 11
50.466400
 21
-253.184998
  0
LINE
  8
0
  6
CONTINUOUS
 62
7
 10
48.466400
 20
-249.725006
 11
50.466400
 21
-248.565002
  0
LINE
  8
0
  6
CONTINUOUS
 62
7
 10
50.466400
 20
-253.184998
 11
52.466400
 21
-252.024994
  0
LINE
  8
0
  6
CONTINUOUS
 62
7
 10
-19.533600
 20
-249.725006
 11
-17.533600
 21
-248.565002
  0
LINE
  8
0
  6
CONTINUOUS
 62
7
 10
-17.533600
 20
-253.184998
 11
-15.533600
 21
-252.024994
  0
LINE
  8
0
  6
CONTINUOUS
 62
7
 10
-19.533600
 20
-252.024994
 11
-17.533600
 21
-253.184998
  0
LINE
  8
0
  6
CONTINUOUS
 62
7
 10
-17.533600
 20
-248.565002
 11
-15.533600
 21
-249.725006
  0
LINE
  8
0
  6
CONTINUOUS
 62
7
 10
-19.533600
 20
-249.725006
 11
-19.533600
 21
-252.024994
  0
LINE
  8
0
  6
CONTINUOUS
 62
7
 10
-15.533600
 20
-249.725006
 11
-15.533600
 21
-252.024994
  0
LINE
  8
0
  6
DASHED
 62
1
 10
-30.233601
 20
-255.384995
 11
-30.233601
 21
-288.885010
  0
LINE
  8
0
  6
DASHED
 62
1
 10
-36.833599
 20
-255.384995
 11
-36.833599
 21
-288.885010
  0
LINE
  8
0
  6
DASHED
 62
1
 10
69.766403
 20
-255.384995
 11
69.766403
 21
-288.885010
  0
LINE
  8
0
  6
DASHED
 62
1
 10
63.166401
 20
-255.384995
 11
63.166401
 21
-288.885010
  0
LINE
  8
0
  6
CENTER
 62
1
 10
180.832993
 20
189.973999
 11
422.372986
 21
189.973999
  0
LINE
  8
0
  6
CONTINUOUS
 62
7
 10
234.432999
 20
200.173996
 11
381.433014
 21
200.173996
  0
LINE
  8
0
  6
CONTINUOUS
 62
7
 10
234.432999
 20
179.774002
 11
381.433014
 21
179.774002
  0
LINE
  8
0
  6
CONTINUOUS
 62
7
 10
382.433014
 20
199.173996
 11
382.433014
 21
180.774002
  0
LINE
  8
0
  6
CONTINUOUS
 62
7
 10
233.432999
 20
199.173996
 11
233.432999
 21
180.774002
  0
LINE
  8
0
  6
CONTINUOUS
 62
7
 10
236.432999
 20
219.973999
 11
379.433014
 21
219.973999
  0
LINE
  8
0
  6
CONTINUOUS
 62
7
 10
236.432999
 20
159.973999
 11
379.433014
 21
159.973999
  0
LINE
  8
0
  6
CONTINUOUS
 62
7
 10
212.932999
 20
151.973999
 11
218.432999
 21
151.973999
  0
LINE
  8
0
  6
CONTINUOUS
 62
7
 10
212.932999
 20
227.973999
 11
218.432999
 21
227.973999
  0
LINE
  8
0
  6
CONTINUOUS
 62
7
 10
429.778992
 20
147.973999
 11
188.932999
 21
147.973999
  0
LINE
  8
0
  6
CONTINUOUS
 62
7
 10
414.967010
 20
231.973999
 11
188.932999
 21
231.973999
  0
LINE
  8
0
  6
CONTINUOUS
 62
4
 10
222.432999
 20
229.973999
 11
393.433014
 21
229.973999
  0
LINE
  8
0
  6
CONTINUOUS
 62
4
 10
222.432999
 20
149.973999
 11
393.433014
 21
149.973999
  0
LINE
  8
0
  6
CONTINUOUS
 62
4
 10
217.432999
 20
167.733994
 11
217.432999
 21
154.973999
  0
LINE
  8
0
  6
CONTINUOUS
 62
4
 10
398.433014
 20
167.733994
 11
398.433014
 21
154.973999
  0
LINE
  8
0
  6
CONTINUOUS
 62
7
 10
398.433014
 20
181.473999
 11
423.872009
 21
181.473999
  0
LINE
  8
0
  6
CONTINUOUS
 62
7
 10
398.433014
 20
198.473999
 11
420.873993
 21
198.473999
  0
LINE
  8
0
  6
CONTINUOUS
 62
7
 10
225.432999
 20
204.973999
 11
225.432999
 21
174.973999
  0
LINE
  8
0
  6
CONTINUOUS
 62
7
 10
389.433014
 20
174.973999
 11
389.433014
 21
169.973999
  0
LINE
  8
0
  6
CONTINUOUS
 62
7
 10
390.433014
 20
174.973999
 11
389.433014
 21
174.973999
  0
LINE
  8
0
  6
CONTINUOUS
 62
4
 10
390.433014
 20
211.473999
 11
390.433014
 21
168.473999
  0
LINE
  8
0
  6
CONTINUOUS
 62
7
 10
390.433014
 20
204.973999
 11
389.433014
 21
204.973999
  0
LINE
  8
0
  6
CONTINUOUS
 62
7
 10
389.433014
 20
209.973999
 11
389.433014
 21
204.973999
  0
LINE
  8
0
  6
CONTINUOUS
 62
7
 10
226.432999
 20
174.973999
 11
226.432999
 21
169.973999
  0
LINE
  8
0
  6
CONTINUOUS
 62
7
 10
225.132996
 20
174.973999
 11
226.432999
 21
174.973999
  0
LINE
  8
0
  6
CONTINUOUS
 62
7
 10
225.132996
 20
204.973999
 11
226.432999
 21
204.973999
  0
LINE
  8
0
  6
CONTINUOUS
 62
7
 10
226.432999
 20
209.973999
 11
226.432999
 21
204.973999
  0
LINE
  8
0
  6
CONTINUOUS
 62
4
 10
398.433014
 20
224.973999
 11
398.433014
 21
212.233994
  0
LINE
  8
0
  6
CONTINUOUS
 62
4
 10
217.432999
 20
203.733994
 11
217.432999
 21
176.233994
  0
LINE
  8
0
  6
CONTINUOUS
 62
4
 10
398.433014
 20
203.733994
 11
398.433014
 21
176.233994
  0
LINE
  8
0
  6
CONTINUOUS
 62
7
 10
212.932999
 20
181.473999
 11
217.432999
 21
181.473999
  0
LINE
  8
0
  6
CONTINUOUS
 62
4
 10
217.432999
 20
224.973999
 11
217.432999
 21
212.233994
  0
LINE
  8
0
  6
CENTER
 62
2
 10
351.933014
 20
209.973999
 11
363.933014
 21
209.973999
  0
LINE
  8
0
  6
CENTER
 62
2
 10
357.933014
 20
215.973999
 11
357.933014
 21
203.973999
  0
LINE
  8
0
  6
CENTER
 62
2
 10
257.933014
 20
215.973999
 11
257.933014
 21
203.973999
  0
LINE
  8
0
  6
CENTER
 62
2
 10
257.933014
 20
163.973999
 11
257.933014
 21
175.973999
  0
LINE
  8
0
  6
CENTER
 62
2
 10
351.933014
 20
169.973999
 11
363.933014
 21
169.973999
  0
LINE
  8
0
  6
CENTER
 62
2
 10
357.933014
 20
163.973999
 11
357.933014
 21
175.973999
  0
LINE
  8
0
  6
CENTER
 62
2
 10
263.933014
 20
209.973999
 11
251.932999
 21
209.973999
  0
LINE
  8
0
  6
CENTER
 62
2
 10
263.933014
 20
169.973999
 11
251.932999
 21
169.973999
  0
LINE
  8
0
  6
CONTINUOUS
 62
4
 10
235.132996
 20
221.473999
 11
380.433014
 21
221.473999
  0
LINE
  8
0
  6
CONTINUOUS
 62
4
 10
235.132996
 20
158.473999
 11
380.433014
 21
158.473999
  0
LINE
  8
0
  6
CONTINUOUS
 62
7
 10
397.433014
 20
227.973999
 11
415.671997
 21
227.973999
  0
LINE
  8
0
  6
CONTINUOUS
 62
4
 10
225.132996
 20
174.973999
 11
225.132996
 21
168.473999
  0
LINE
  8
0
  6
CONTINUOUS
 62
7
 10
397.433014
 20
151.973999
 11
429.072998
 21
151.973999
  0
LINE
  8
0
  6
CONTINUOUS
 62
4
 10
225.132996
 20
211.473999
 11
225.132996
 21
204.973999
  0
LINE
  8
0
  6
CONTINUOUS
 62
7
 10
212.932999
 20
198.473999
 11
217.432999
 21
198.473999
  0
LINE
  8
0
  6
CENTER
 62
1
 10
224.932999
 20
227.973999
 11
224.932999
 21
219.973999
  0
LINE
  8
0
  6
CENTER
 62
1
 10
390.933014
 20
227.973999
 11
390.933014
 21
219.973999
  0
LINE
  8
0
  6
CENTER
 62
1
 10
220.932999
 20
223.973999
 11
228.932999
 21
223.973999
  0
LINE
  8
0
  6
CENTER
 62
1
 10
224.932999
 20
151.973999
 11
224.932999
 21
159.973999
  0
LINE
  8
0
  6
CENTER
 62
1
 10
394.933014
 20
223.973999
 11
386.933014
 21
223.973999
  0
LINE
  8
0
  6
CENTER
 62
1
 10
390.933014
 20
151.973999
 11
390.933014
 21
159.973999
  0
LINE
  8
0
  6
CENTER
 62
1
 10
220.932999
 20
155.973999
 11
228.932999
 21
155.973999
  0
LINE
  8
0
  6
CENTER
 62
1
 10
394.933014
 20
155.973999
 11
386.933014
 21
155.973999
  0
LINE
  8
0
  6
CENTER
 62
2
 10
205.932999
 20
200.473999
 11
205.932999
 21
215.473999
  0
LINE
  8
0
  6
CENTER
 62
2
 10
198.432999
 20
207.973999
 11
213.432999
 21
207.973999
  0
LINE
  8
0
  6
CONTINUOUS
 62
7
 10
186.932999
 20
229.973999
 11
186.932999
 21
149.973999
  0
LINE
  8
0
  6
CONTINUOUS
 62
7
 10
186.932999
 20
186.973999
 11
212.932999
 21
186.973999
  0
LINE
  8
0
  6
CONTINUOUS
 62
7
 10
186.932999
 20
192.973999
 11
212.932999
 21
192.973999
  0
LINE
  8
0
  6
CONTINUOUS
 62
7
 10
212.932999
 20
168.113998
 11
212.932999
 21
147.973999
  0
LINE
  8
0
  6
CONTINUOUS
 62
7
 10
212.932999
 20
204.113998
 11
212.932999
 21
175.854004
  0
LINE
  8
0
  6
CONTINUOUS
 62
7
 10
212.932999
 20
231.973999
 11
212.932999
 21
211.854004
  0
LINE
  8
0
  6
CENTER
 62
2
 10
205.932999
 20
164.473999
 11
205.932999
 21
179.473999
  0
LINE
  8
0
  6
CENTER
 62
2
 10
198.432999
 20
171.973999
 11
213.432999
 21
171.973999
  0
LINE
  8
0
  6
PHANTOM
 62
3
 10
430.863007
 20
141.824997
 11
413.562012
 21
239.942001
  0
LINE
  8
0
  6
CONTINUOUS
 62
4
 10
463.933014
 20
149.973999
 11
463.933014
 21
229.973999
  0
LINE
  8
0
  6
CONTINUOUS
 62
7
 10
475.933014
 20
149.973999
 11
475.933014
 21
150.285004
  0
LINE
  8
0
  6
CONTINUOUS
 62
4
 10
463.933014
 20
149.973999
 11
475.933014
 21
149.973999
  0
LINE
  8
0
  6
CONTINUOUS
 62
4
 10
463.933014
 20
229.973999
 11
475.933014
 21
229.973999
  0
LINE
  8
0
  6
CONTINUOUS
 62
7
 10
483.773010
 20
153.973999
 11
482.613007
 21
155.973999
  0
LINE
  8
0
  6
CONTINUOUS
 62
7
 10
487.233002
 20
155.973999
 11
486.072998
 21
157.973999
  0
LINE
  8
0
  6
CONTINUOUS
 62
7
 10
483.773010
 20
153.973999
 11
486.072998
 21
153.973999
  0
LINE
  8
0
  6
CONTINUOUS
 62
7
 10
483.773010
 20
157.973999
 11
486.072998
 21
157.973999
  0
LINE
  8
0
  6
CONTINUOUS
 62
7
 10
486.072998
 20
153.973999
 11
487.233002
 21
155.973999
  0
LINE
  8
0
  6
CONTINUOUS
 62
7
 10
482.613007
 20
155.973999
 11
483.773010
 21
157.973999
  0
LINE
  8
0
  6
CONTINUOUS
 62
7
 10
483.773010
 20
221.973999
 11
482.613007
 21
223.973999
  0
LINE
  8
0
  6
CONTINUOUS
 62
7
 10
487.233002
 20
223.973999
 11
486.072998
 21
225.973999
  0
LINE
  8
0
  6
CONTINUOUS
 62
7
 10
482.613007
 20
223.973999
 11
483.773010
 21
225.973999
  0
LINE
  8
0
  6
CONTINUOUS
 62
7
 10
486.072998
 20
221.973999
 11
487.233002
 21
223.973999
  0
LINE
  8
0
  6
CONTINUOUS
 62
7
 10
483.773010
 20
225.973999
 11
486.072998
 21
225.973999
  0
LINE
  8
0
  6
CONTINUOUS
 62
7
 10
483.773010
 20
221.973999
 11
486.072998
 21
221.973999
  0
LINE
  8
0
  6
CONTINUOUS
 62
7
 10
514.773010
 20
220.973999
 11
513.612976
 21
222.973999
  0
LINE
  8
0
  6
CONTINUOUS
 62
7
 10
518.232971
 20
222.973999
 11
517.072998
 21
224.973999
  0
LINE
  8
0
  6
CONTINUOUS
 62
7
 10
513.612976
 20
222.973999
 11
514.773010
 21
224.973999
  0
LINE
  8
0
  6
CONTINUOUS
 62
7
 10
517.072998
 20
220.973999
 11
518.232971
 21
222.973999
  0
LINE
  8
0
  6
CONTINUOUS
 62
7
 10
514.773010
 20
224.973999
 11
517.072998
 21
224.973999
  0
LINE
  8
0
  6
CONTINUOUS
 62
7
 10
514.773010
 20
220.973999
 11
517.072998
 21
220.973999
  0
LINE
  8
0
  6
CENTER
 62
2
 10
477.433014
 20
155.973999
 11
492.433014
 21
155.973999
  0
LINE
  8
0
  6
CENTER
 62
2
 10
484.933014
 20
163.473999
 11
484.933014
 21
148.473999
  0
LINE
  8
0
  6
CENTER
 62
2
 10
515.932983
 20
230.473999
 11
515.932983
 21
215.473999
  0
LINE
  8
0
  6
CENTER
 62
2
 10
508.433014
 20
222.973999
 11
523.432983
 21
222.973999
  0
LINE
  8
0
  6
CONTINUOUS
 62
7
 10
476.933014
 20
186.973999
 11
476.933014
 21
182.973999
  0
LINE
  8
0
  6
CONTINUOUS
 62
7
 10
468.933014
 20
186.973999
 11
476.933014
 21
186.973999
  0
LINE
  8
0
  6
CONTINUOUS
 62
7
 10
468.933014
 20
192.973999
 11
476.933014
 21
192.973999
  0
LINE
  8
0
  6
CONTINUOUS
 62
7
 10
477.933014
 20
181.973999
 11
491.933014
 21
181.973999
  0
LINE
  8
0
  6
CONTINUOUS
 62
7
 10
477.933014
 20
197.973999
 11
491.933014
 21
197.973999
  0
LINE
  8
0
  6
CONTINUOUS
 62
7
 10
492.933014
 20
196.973999
 11
492.933014
 21
182.973999
  0
LINE
  8
0
  6
CONTINUOUS
 62
7
 10
476.933014
 20
196.973999
 11
476.933014
 21
192.973999
  0
LINE
  8
0
  6
CONTINUOUS
 62
7
 10
483.933014
 20
147.973999
 11
522.932983
 21
147.973999
  0
LINE
  8
0
  6
CONTINUOUS
 62
7
 10
506.933014
 20
231.973999
 11
506.933014
 21
228.973999
  0
LINE
  8
0
  6
CONTINUOUS
 62
7
 10
498.433014
 20
226.973999
 11
504.933014
 21
226.973999
  0
LINE
  8
0
  6
CONTINUOUS
 62
7
 10
496.433014
 20
231.973999
 11
496.433014
 21
228.973999
  0
LINE
  8
0
  6
CONTINUOUS
 62
7
 10
500.532990
 20
231.973999
 11
522.932983
 21
231.973999
  0
LINE
  8
0
  6
CONTINUOUS
 62
7
 10
500.532990
 20
231.973999
 11
500.532990
 21
231.473999
  0
LINE
  8
0
  6
CONTINUOUS
 62
7
 10
501.032990
 20
230.973999
 11
500.532990
 21
231.473999
  0
LINE
  8
0
  6
CONTINUOUS
 62
7
 10
501.032990
 20
230.973999
 11
502.532990
 21
230.973999
  0
LINE
  8
0
  6
CONTINUOUS
 62
7
 10
505.032990
 20
230.173996
 11
503.912994
 21
230.173996
  0
LINE
  8
0
  6
CONTINUOUS
 62
7
 10
503.912994
 20
230.173996
 11
502.532990
 21
230.973999
  0
LINE
  8
0
  6
CONTINUOUS
 62
7
 10
505.032990
 20
227.373993
 11
503.153015
 21
227.373993
  0
LINE
  8
0
  6
CONTINUOUS
 62
7
 10
503.153015
 20
227.373993
 11
501.773010
 21
228.173996
  0
LINE
  8
0
  6
CONTINUOUS
 62
7
 10
500.653015
 20
228.173996
 11
501.773010
 21
228.173996
  0
LINE
  8
0
  6
CONTINUOUS
 62
7
 10
496.833008
 20
229.373993
 11
496.833008
 21
230.973999
  0
LINE
  8
0
  6
CONTINUOUS
 62
7
 10
496.833008
 20
230.973999
 11
497.333008
 21
231.473999
  0
LINE
  8
0
  6
CONTINUOUS
 62
7
 10
497.333008
 20
231.973999
 11
497.333008
 21
231.473999
  0
LINE
  8
0
  6
CENTER
 62
2
 10
484.933014
 20
231.473999
 11
484.933014
 21
216.473999
  0
LINE
  8
0
  6
CENTER
 62
2
 10
477.433014
 20
223.973999
 11
492.433014
 21
223.973999
  0
LINE
  8
0
  6
CONTINUOUS
 62
7
 10
483.933014
 20
231.973999
 11
497.333008
 21
231.973999
  0
LINE
  8
0
  6
CONTINUOUS
 62
7
 10
522.932983
 20
231.973999
 11
522.932983
 21
147.973999
  0
LINE
  8
0
  6
CONTINUOUS
 62
7
 10
468.933014
 20
216.973999
 11
468.933014
 21
162.973999
  0
LINE
  8
0
  6
CONTINUOUS
 62
7
 10
475.933014
 20
229.662994
 11
475.933014
 21
229.973999
  0
LINE
  8
0
  6
CENTER
 62
1
 10
459.153015
 20
189.973999
 11
526.572998
 21
189.973999
  0
LINE
  8
0
  6
CONTINUOUS
 62
4
 10
491.750000
 20
-216.483994
 11
491.750000
 21
-224.983994
  0
LINE
  8
0
  6
CONTINUOUS
 62
4
 10
475.750000
 20
-224.983994
 11
491.750000
 21
-224.983994
  0
LINE
  8
0
  6
CONTINUOUS
 62
4
 10
490.250000
 20
-214.983994
 11
475.750000
 21
-214.983994
  0
LINE
  8
0
  6
CENTER
 62
1
 10
483.750000
 20
-213.143997
 11
483.750000
 21
-227.483994
  0
LINE
  8
0
  6
DASHED
 62
1
 10
488.250000
 20
-214.983994
 11
488.250000
 21
-224.983994
  0
LINE
  8
0
  6
DASHED
 62
1
 10
479.250000
 20
-214.983994
 11
479.250000
 21
-224.983994
  0
LINE
  8
0
  6
CONTINUOUS
 62
4
 10
375.750000
 20
-216.483994
 11
375.750000
 21
-224.983994
  0
LINE
  8
0
  6
CONTINUOUS
 62
4
 10
391.750000
 20
-224.983994
 11
375.750000
 21
-224.983994
  0
LINE
  8
0
  6
CONTINUOUS
 62
4
 10
377.250000
 20
-214.983994
 11
391.750000
 21
-214.983994
  0
LINE
  8
0
  6
CENTER
 62
1
 10
383.750000
 20
-213.143997
 11
383.750000
 21
-227.483994
  0
LINE
  8
0
  6
DASHED
 62
1
 10
379.250000
 20
-214.983994
 11
379.250000
 21
-224.983994
  0
LINE
  8
0
  6
DASHED
 62
1
 10
388.250000
 20
-214.983994
 11
388.250000
 21
-224.983994
  0
LINE
  8
0
  6
CENTER
 62
1
 10
234.750000
 20
-211.003998
 11
234.750000
 21
-228.063995
  0
LINE
  8
0
  6
CONTINUOUS
 62
4
 10
197.250000
 20
-214.983994
 11
272.250000
 21
-214.983994
  0
LINE
  8
0
  6
CONTINUOUS
 62
4
 10
197.250000
 20
-214.983994
 11
197.250000
 21
-224.983994
  0
LINE
  8
0
  6
CONTINUOUS
 62
4
 10
272.250000
 20
-214.983994
 11
272.250000
 21
-224.983994
  0
LINE
  8
0
  6
CENTER
 62
1
 10
207.250000
 20
-211.003998
 11
207.250000
 21
-228.063995
  0
LINE
  8
0
  6
DASHED
 62
1
 10
202.750000
 20
-214.983994
 11
202.750000
 21
-224.983994
  0
LINE
  8
0
  6
DASHED
 62
1
 10
211.750000
 20
-214.983994
 11
211.750000
 21
-224.983994
  0
LINE
  8
0
  6
DASHED
 62
1
 10
266.750000
 20
-214.983994
 11
266.750000
 21
-224.983994
  0
LINE
  8
0
  6
CENTER
 62
1
 10
262.250000
 20
-211.003998
 11
262.250000
 21
-228.063995
  0
LINE
  8
0
  6
DASHED
 62
1
 10
257.750000
 20
-214.983994
 11
257.750000
 21
-224.983994
  0
ARC
  8
0
  6
CONTINUOUS
 62
3
 10
472.750000
 20
-200.483994
 40
2.000000
 50
90.000000
 51
180.000000
  0
ARC
  8
0
  6
CONTINUOUS
 62
3
 10
472.750000
 20
-206.983994
 40
2.000000
 50
180.000000
 51
270.000000
  0
ARC
  8
0
  6
CONTINUOUS
 62
3
 10
406.750000
 20
-185.983994
 40
15.000000
 50
90.000000
 51
180.000000
  0
ARC
  8
0
  6
CONTINUOUS
 62
3
 10
460.750000
 20
-185.983994
 40
15.000000
 50
0.000000
 51
90.000000
  0
CIRCLE
  8
0
  6
CONTINUOUS
 62
7
 10
-450.371002
 20
258.229004
 40
5.500000
  0
CIRCLE
  8
0
  6
CONTINUOUS
 62
7
 10
-450.371002
 20
258.229004
 40
3.500000
  0
CIRCLE
  8
0
  6
CONTINUOUS
 62
7
 10
-450.371002
 20
222.229004
 40
5.500000
  0
CIRCLE
  8
0
  6
CONTINUOUS
 62
7
 10
-450.371002
 20
222.229004
 40
3.500000
  0
ARC
  8
0
  6
CONTINUOUS
 62
7
 10
-450.371002
 20
258.218994
 40
7.998550
 50
331.063995
 51
28.936300
  0
ARC
  8
0
  6
CONTINUOUS
 62
7
 10
-450.371002
 20
222.218994
 40
7.998550
 50
331.063995
 51
28.936300
  0
ARC
  8
0
  6
CONTINUOUS
 62
7
 10
-419.871002
 20
260.229004
 40
10.000000
 50
90.000000
 51
180.000000
  0
ARC
  8
0
  6
CONTINUOUS
 62
7
 10
-419.871002
 20
220.229004
 40
10.000000
 50
180.000000
 51
270.000000
  0
ARC
  8
0
  6
CONTINUOUS
 62
7
 10
-276.871002
 20
260.229004
 40
10.000000
 50
0.000000
 51
90.000000
  0
ARC
  8
0
  6
CONTINUOUS
 62
7
 10
-276.871002
 20
220.229004
 40
10.000000
 50
270.000000
 51
0.000000
  0
ARC
  8
0
  6
CONTINUOUS
 62
7
 10
-467.371002
 20
280.229004
 40
2.000000
 50
90.000000
 51
180.000000
  0
ARC
  8
0
  6
CONTINUOUS
 62
7
 10
-467.371002
 20
200.229004
 40
2.000000
 50
180.000000
 51
270.000000
  0
ARC
  8
0
  6
CONTINUOUS
 62
7
 10
-434.671997
 20
249.481995
 40
0.499034
 50
181.464996
 51
260.907990
  0
ARC
  8
0
  6
CONTINUOUS
 62
7
 10
-434.679993
 20
238.643005
 40
0.490909
 50
98.303200
 51
179.326996
  0
ARC
  8
0
  6
CONTINUOUS
 62
7
 10
-434.610992
 20
253.839005
 40
0.555719
 50
98.224701
 51
261.774994
  0
ARC
  8
0
  6
CONTINUOUS
 62
7
 10
-432.863007
 20
247.630997
 40
0.992862
 50
359.868011
 51
79.972397
  0
ARC
  8
0
  6
CONTINUOUS
 62
7
 10
-434.671997
 20
242.975998
 40
0.498991
 50
99.103401
 51
180.837006
  0
ARC
  8
0
  6
CONTINUOUS
 62
7
 10
-434.671997
 20
237.481995
 40
0.499034
 50
181.464996
 51
260.907990
  0
ARC
  8
0
  6
CONTINUOUS
 62
7
 10
-434.679993
 20
250.643005
 40
0.490909
 50
98.303200
 51
179.326996
  0
ARC
  8
0
  6
CONTINUOUS
 62
7
 10
-434.670013
 20
241.802994
 40
0.500877
 50
181.641006
 51
260.730011
  0
ARC
  8
0
  6
CONTINUOUS
 62
7
 10
-434.671997
 20
230.975998
 40
0.498991
 50
99.103401
 51
180.837006
  0
ARC
  8
0
  6
CONTINUOUS
 62
7
 10
-432.863007
 20
235.630997
 40
0.992862
 50
359.868011
 51
79.972397
  0
ARC
  8
0
  6
CONTINUOUS
 62
7
 10
-432.872986
 20
232.815002
 40
1.002680
 50
280.497009
 51
359.662994
  0
ARC
  8
0
  6
CONTINUOUS
 62
7
 10
-432.872986
 20
244.815002
 40
1.002680
 50
280.497009
 51
359.662994
  0
ARC
  8
0
  6
CONTINUOUS
 62
7
 10
-434.670013
 20
229.802994
 40
0.500877
 50
181.641006
 51
260.730011
  0
ARC
  8
0
  6
CONTINUOUS
 62
7
 10
-434.610992
 20
226.598999
 40
0.555714
 50
98.221603
 51
261.778015
  0
ARC
  8
0
  6
CONTINUOUS
 62
7
 10
-437.371002
 20
200.229004
 40
2.000000
 50
270.000000
 51
0.000000
  0
ARC
  8
0
  6
CONTINUOUS
 62
7
 10
-437.371002
 20
280.229004
 40
2.000000
 50
0.000000
 51
90.000000
  0
CIRCLE
  8
0
  6
CONTINUOUS
 62
7
 10
-146.371002
 20
258.229004
 40
5.500000
  0
CIRCLE
  8
0
  6
CONTINUOUS
 62
7
 10
-146.371002
 20
258.229004
 40
3.500000
  0
CIRCLE
  8
0
  6
CONTINUOUS
 62
7
 10
-146.371002
 20
222.229004
 40
5.500000
  0
CIRCLE
  8
0
  6
CONTINUOUS
 62
7
 10
-146.371002
 20
222.229004
 40
3.500000
  0
ARC
  8
0
  6
CONTINUOUS
 62
7
 10
-146.371002
 20
258.218994
 40
7.998550
 50
151.063995
 51
208.936005
  0
ARC
  8
0
  6
CONTINUOUS
 62
7
 10
-146.371002
 20
222.218994
 40
7.998550
 50
151.063995
 51
208.936005
  0
ARC
  8
0
  6
CONTINUOUS
 62
7
 10
-129.371002
 20
280.229004
 40
2.000000
 50
0.000000
 51
90.000000
  0
ARC
  8
0
  6
CONTINUOUS
 62
7
 10
-129.371002
 20
200.229004
 40
2.000000
 50
270.000000
 51
0.000000
  0
ARC
  8
0
  6
CONTINUOUS
 62
7
 10
-162.070007
 20
249.481995
 40
0.499022
 50
279.092010
 51
358.535004
  0
ARC
  8
0
  6
CONTINUOUS
 62
7
 10
-162.061996
 20
238.643005
 40
0.490909
 50
0.673199
 51
81.698601
  0
ARC
  8
0
  6
CONTINUOUS
 62
7
 10
-162.130005
 20
253.839005
 40
0.555717
 50
278.222992
 51
81.776901
  0
ARC
  8
0
  6
CONTINUOUS
 62
7
 10
-163.878006
 20
247.630997
 40
0.992871
 50
100.027000
 51
180.132004
  0
ARC
  8
0
  6
CONTINUOUS
 62
7
 10
-162.070007
 20
242.975998
 40
0.499000
 50
359.162994
 51
80.896599
  0
ARC
  8
0
  6
CONTINUOUS
 62
7
 10
-162.070007
 20
237.481995
 40
0.499022
 50
279.092010
 51
358.535004
  0
ARC
  8
0
  6
CONTINUOUS
 62
7
 10
-162.061996
 20
250.643005
 40
0.490909
 50
0.673199
 51
81.698601
  0
ARC
  8
0
  6
CONTINUOUS
 62
7
 10
-162.070999
 20
241.802994
 40
0.500878
 50
279.269012
 51
358.359009
  0
ARC
  8
0
  6
CONTINUOUS
 62
7
 10
-162.070007
 20
230.975998
 40
0.499000
 50
359.162994
 51
80.896599
  0
ARC
  8
0
  6
CONTINUOUS
 62
7
 10
-163.878006
 20
235.630997
 40
0.992871
 50
100.027000
 51
180.132004
  0
ARC
  8
0
  6
CONTINUOUS
 62
7
 10
-163.867996
 20
232.815002
 40
1.002690
 50
180.337006
 51
259.503998
  0
ARC
  8
0
  6
CONTINUOUS
 62
7
 10
-163.867996
 20
244.815002
 40
1.002690
 50
180.337006
 51
259.503998
  0
ARC
  8
0
  6
CONTINUOUS
 62
7
 10
-162.070999
 20
229.802994
 40
0.500878
 50
279.269012
 51
358.359009
  0
ARC
  8
0
  6
CONTINUOUS
 62
7
 10
-162.130005
 20
226.598999
 40
0.555714
 50
278.221985
 51
81.778503
  0
ARC
  8
0
  6
CONTINUOUS
 62
7
 10
-159.371002
 20
200.229004
 40
2.000000
 50
180.000000
 51
270.000000
  0
ARC
  8
0
  6
CONTINUOUS
 62
7
 10
-159.371002
 20
280.229004
 40
2.000000
 50
90.000000
 51
180.000000
  0
ARC
  8
0
  6
CONTINUOUS
 62
7
 10
-421.871002
 20
249.429001
 40
1.000020
 50
90.000000
 51
179.998993
  0
ARC
  8
0
  6
CONTINUOUS
 62
7
 10
-421.871002
 20
231.029007
 40
1.000000
 50
180.000000
 51
270.000000
  0
ARC
  8
0
  6
CONTINUOUS
 62
7
 10
-274.871002
 20
249.429001
 40
1.000000
 50
0.000874
 51
90.000000
  0
ARC
  8
0
  6
CONTINUOUS
 62
7
 10
-274.871002
 20
231.029007
 40
1.000000
 50
270.000000
 51
0.000000
  0
CIRCLE
  8
0
  6
CONTINUOUS
 62
2
 10
-298.371002
 20
260.229004
 40
3.000000
  0
CIRCLE
  8
0
  6
CONTINUOUS
 62
7
 10
-298.371002
 20
260.229004
 40
2.500000
  0
CIRCLE
  8
0
  6
CONTINUOUS
 62
7
 10
-398.371002
 20
260.229004
 40
2.500000
  0
CIRCLE
  8
0
  6
CONTINUOUS
 62
2
 10
-398.371002
 20
260.229004
 40
3.000000
  0
CIRCLE
  8
0
  6
CONTINUOUS
 62
7
 10
-398.371002
 20
220.229004
 40
2.500000
  0
CIRCLE
  8
0
  6
CONTINUOUS
 62
2
 10
-398.371002
 20
220.229004
 40
3.000000
  0
CIRCLE
  8
0
  6
CONTINUOUS
 62
7
 10
-298.371002
 20
220.229004
 40
2.500000
  0
CIRCLE
  8
0
  6
CONTINUOUS
 62
2
 10
-298.371002
 20
220.229004
 40
3.000000
  0
CIRCLE
  8
0
  6
CONTINUOUS
 62
4
 10
-341.371002
 20
106.228996
 40
1.500000
  0
CIRCLE
  8
0
  6
CONTINUOUS
 62
4
 10
-241.371002
 20
106.228996
 40
1.500000
  0
ARC
  8
0
  6
CONTINUOUS
 62
7
 10
-429.880005
 20
127.001999
 40
0.509804
 50
301.946014
 51
0.832589
  0
ARC
  8
0
  6
CONTINUOUS
 62
7
 10
-429.020996
 20
129.378998
 40
0.350148
 50
88.366798
 51
181.636002
  0
ARC
  8
0
  6
CONTINUOUS
 62
7
 10
-267.721008
 20
129.378998
 40
0.350149
 50
358.364014
 51
88.361900
  0
ARC
  8
0
  6
CONTINUOUS
 62
7
 10
-266.865997
 20
127.011002
 40
0.504946
 50
180.177002
 51
240.983002
  0
ARC
  8
0
  6
CONTINUOUS
 62
7
 10
-467.371002
 20
134.229004
 40
2.000000
 50
90.000000
 51
180.000000
  0
CIRCLE
  8
0
  6
CONTINUOUS
 62
2
 10
-457.871002
 20
100.228996
 40
6.500000
  0
CIRCLE
  8
0
  6
CONTINUOUS
 62
7
 10
-457.871002
 20
100.228996
 40
5.500000
  0
CIRCLE
  8
0
  6
CONTINUOUS
 62
7
 10
-457.871002
 20
100.228996
 40
8.100000
  0
ARC
  8
0
  6
CONTINUOUS
 62
7
 10
-129.371002
 20
134.229004
 40
2.000000
 50
0.000000
 51
90.000000
  0
CIRCLE
  8
0
  6
CONTINUOUS
 62
2
 10
-138.871002
 20
100.228996
 40
6.500000
  0
CIRCLE
  8
0
  6
CONTINUOUS
 62
7
 10
-138.871002
 20
100.228996
 40
5.500000
  0
CIRCLE
  8
0
  6
CONTINUOUS
 62
7
 10
-138.871002
 20
100.228996
 40
8.100000
  0
ARC
  8
0
  6
CONTINUOUS
 62
7
 10
-457.877014
 20
100.250000
 40
10.506200
 50
359.885986
 51
32.850201
  0
ARC
  8
0
  6
CONTINUOUS
 62
7
 10
-447.378998
 20
107.035004
 40
1.993810
 50
89.768501
 51
213.011002
  0
ARC
  8
0
  6
CONTINUOUS
 62
7
 10
-445.371002
 20
100.228996
 40
2.000000
 50
180.000000
 51
270.000000
  0
ARC
  8
0
  6
CONTINUOUS
 62
7
 10
-138.865005
 20
100.250000
 40
10.506200
 50
147.149994
 51
180.113998
  0
ARC
  8
0
  6
CONTINUOUS
 62
7
 10
-149.363007
 20
107.035004
 40
1.993810
 50
326.989990
 51
90.230698
  0
ARC
  8
0
  6
CONTINUOUS
 62
7
 10
-151.371002
 20
100.228996
 40
2.000000
 50
270.000000
 51
0.000000
  0
ARC
  8
0
  6
CONTINUOUS
 62
7
 10
-163.371002
 20
125.228996
 40
2.000000
 50
270.000000
 51
0.000000
  0
ARC
  8
0
  6
CONTINUOUS
 62
7
 10
-433.371002
 20
125.228996
 40
2.000000
 50
180.000000
 51
270.000000
  0
ARC
  8
0
  6
CONTINUOUS
 62
7
 10
-159.371002
 20
134.229004
 40
2.000000
 50
90.000000
 51
180.000000
  0
ARC
  8
0
  6
CONTINUOUS
 62
7
 10
-437.371002
 20
134.229004
 40
2.000000
 50
0.000000
 51
90.000000
  0
CIRCLE
  8
0
  6
CONTINUOUS
 62
7
 10
-23.370800
 20
120.228996
 40
5.750000
  0
CIRCLE
  8
0
  6
CONTINUOUS
 62
7
 10
43.629200
 20
89.228996
 40
5.750000
  0
CIRCLE
  8
0
  6
CONTINUOUS
 62
7
 10
44.629200
 20
120.228996
 40
5.750000
  0
ARC
  8
0
  6
CONTINUOUS
 62
7
 10
50.029598
 20
106.230003
 40
2.098620
 50
90.011703
 51
235.108994
  0
ARC
  8
0
  6
CONTINUOUS
 62
7
 10
49.429199
 20
100.128998
 40
1.400000
 50
180.000000
 51
0.000000
  0
ARC
  8
0
  6
CONTINUOUS
 62
7
 10
49.629200
 20
106.728996
 40
2.000000
 50
90.000000
 51
180.000000
  0
ARC
  8
0
  6
CONTINUOUS
 62
7
 10
49.629200
 20
100.228996
 40
2.000000
 50
180.000000
 51
270.000000
  0
ARC
  8
0
  6
CONTINUOUS
 62
7
 10
17.629200
 20
127.228996
 40
1.000000
 50
0.000000
 51
90.000000
  0
ARC
  8
0
  6
CONTINUOUS
 62
7
 10
3.629200
 20
127.228996
 40
1.000000
 50
90.000000
 51
180.000000
  0
ARC
  8
0
  6
CONTINUOUS
 62
7
 10
3.629200
 20
113.228996
 40
1.000000
 50
180.000000
 51
270.000000
  0
ARC
  8
0
  6
CONTINUOUS
 62
7
 10
17.629200
 20
113.228996
 40
1.000000
 50
270.000000
 51
0.000000
  0
ARC
  8
0
  6
CONTINUOUS
 62
7
 10
-16.370800
 20
121.228996
 40
15.000000
 50
90.000000
 51
180.000000
  0
ARC
  8
0
  6
CONTINUOUS
 62
7
 10
37.629200
 20
121.228996
 40
15.000000
 50
0.000000
 51
90.000000
  0
CIRCLE
  8
0
  6
CONTINUOUS
 62
7
 10
43.629200
 20
89.228996
 40
2.309400
  0
CIRCLE
  8
0
  6
CONTINUOUS
 62
7
 10
44.629200
 20
120.228996
 40
2.309400
  0
CIRCLE
  8
0
  6
CONTINUOUS
 62
7
 10
-23.370800
 20
120.228996
 40
2.309400
  0
ARC
  8
0
  6
CONTINUOUS
 62
7
 10
-279.029999
 20
-64.890099
 40
9.996490
 50
0.028992
 51
69.526604
  0
ARC
  8
0
  6
CONTINUOUS
 62
7
 10
-279.039001
 20
-104.892998
 40
10.005900
 50
290.510986
 51
0.048319
  0
ARC
  8
0
  6
CONTINUOUS
 62
7
 10
-422.036987
 20
-64.890099
 40
9.996490
 50
110.473000
 51
179.970993
  0
ARC
  8
0
  6
CONTINUOUS
 62
7
 10
-422.028015
 20
-104.892998
 40
10.005900
 50
179.951996
 51
249.488998
  0
CIRCLE
  8
0
  6
CONTINUOUS
 62
4
 10
-423.532990
 20
-34.884998
 40
5.500000
  0
CIRCLE
  8
0
  6
CONTINUOUS
 62
4
 10
-423.532990
 20
-134.884995
 40
5.500000
  0
CIRCLE
  8
0
  6
CONTINUOUS
 62
4
 10
-405.532990
 20
-34.884998
 40
5.500000
  0
CIRCLE
  8
0
  6
CONTINUOUS
 62
4
 10
-405.532990
 20
-134.884995
 40
5.500000
  0
CIRCLE
  8
0
  6
CONTINUOUS
 62
4
 10
-400.532990
 20
-104.885002
 40
5.500000
  0
CIRCLE
  8
0
  6
CONTINUOUS
 62
4
 10
-388.032990
 20
-104.885002
 40
2.350000
  0
CIRCLE
  8
0
  6
CONTINUOUS
 62
1
 10
-388.032990
 20
-104.885002
 40
3.000000
  0
CIRCLE
  8
0
  6
CONTINUOUS
 62
4
 10
-388.032990
 20
-64.885002
 40
2.350000
  0
CIRCLE
  8
0
  6
CONTINUOUS
 62
1
 10
-388.032990
 20
-64.885002
 40
3.000000
  0
CIRCLE
  8
0
  6
CONTINUOUS
 62
4
 10
-313.032990
 20
-104.885002
 40
2.350000
  0
CIRCLE
  8
0
  6
CONTINUOUS
 62
1
 10
-313.032990
 20
-104.885002
 40
3.000000
  0
CIRCLE
  8
0
  6
CONTINUOUS
 62
4
 10
-313.032990
 20
-64.885002
 40
2.350000
  0
CIRCLE
  8
0
  6
CONTINUOUS
 62
1
 10
-313.032990
 20
-64.885002
 40
3.000000
  0
CIRCLE
  8
0
  6
CONTINUOUS
 62
4
 10
-400.532990
 20
-104.885002
 40
5.000000
  0
CIRCLE
  8
0
  6
CONTINUOUS
 62
4
 10
-400.532990
 20
-64.885002
 40
5.500000
  0
CIRCLE
  8
0
  6
CONTINUOUS
 62
4
 10
-400.532990
 20
-64.885002
 40
5.000000
  0
CIRCLE
  8
0
  6
CONTINUOUS
 62
4
 10
-300.532990
 20
-64.885002
 40
5.500000
  0
CIRCLE
  8
0
  6
CONTINUOUS
 62
4
 10
-300.532990
 20
-64.885002
 40
5.000000
  0
CIRCLE
  8
0
  6
CONTINUOUS
 62
4
 10
-300.532990
 20
-104.885002
 40
5.500000
  0
CIRCLE
  8
0
  6
CONTINUOUS
 62
4
 10
-300.532990
 20
-104.885002
 40
5.000000
  0
CIRCLE
  8
0
  6
CONTINUOUS
 62
4
 10
-405.532990
 20
-34.884998
 40
3.300000
  0
CIRCLE
  8
0
  6
CONTINUOUS
 62
4
 10
-423.532990
 20
-34.884998
 40
3.300000
  0
CIRCLE
  8
0
  6
CONTINUOUS
 62
4
 10
-405.532990
 20
-134.884995
 40
3.300000
  0
CIRCLE
  8
0
  6
CONTINUOUS
 62
4
 10
-423.532990
 20
-134.884995
 40
3.300000
  0
CIRCLE
  8
0
  6
CONTINUOUS
 62
4
 10
-177.533005
 20
-34.884998
 40
5.500000
  0
CIRCLE
  8
0
  6
CONTINUOUS
 62
4
 10
-195.533005
 20
-34.884998
 40
5.500000
  0
CIRCLE
  8
0
  6
CONTINUOUS
 62
4
 10
-177.533005
 20
-34.884998
 40
3.300000
  0
CIRCLE
  8
0
  6
CONTINUOUS
 62
4
 10
-195.533005
 20
-34.884998
 40
3.300000
  0
CIRCLE
  8
0
  6
CONTINUOUS
 62
4
 10
-177.533005
 20
-134.884995
 40
5.500000
  0
CIRCLE
  8
0
  6
CONTINUOUS
 62
4
 10
-195.533005
 20
-134.884995
 40
5.500000
  0
CIRCLE
  8
0
  6
CONTINUOUS
 62
4
 10
-177.533005
 20
-134.884995
 40
3.300000
  0
CIRCLE
  8
0
  6
CONTINUOUS
 62
4
 10
-195.533005
 20
-134.884995
 40
3.300000
  0
CIRCLE
  8
0
  6
CONTINUOUS
 62
1
 10
-460.032990
 20
-270.885010
 40
6.500000
  0
CIRCLE
  8
0
  6
CONTINUOUS
 62
4
 10
-460.032990
 20
-270.885010
 40
5.500000
  0
ARC
  8
0
  6
CONTINUOUS
 62
7
 10
-269.032013
 20
-244.097000
 40
0.501215
 50
178.610992
 51
238.608002
  0
ARC
  8
0
  6
CONTINUOUS
 62
7
 10
-269.882996
 20
-241.735001
 40
0.350149
 50
1.638150
 51
91.633202
  0
ARC
  8
0
  6
CONTINUOUS
 62
7
 10
-431.183014
 20
-241.735001
 40
0.350148
 50
88.366798
 51
178.362000
  0
ARC
  8
0
  6
CONTINUOUS
 62
7
 10
-432.035004
 20
-244.097000
 40
0.501221
 50
301.391998
 51
1.388590
  0
CIRCLE
  8
0
  6
CONTINUOUS
 62
4
 10
-460.032990
 20
-270.885010
 40
8.100000
  0
ARC
  8
0
  6
CONTINUOUS
 62
4
 10
-460.032990
 20
-270.885010
 40
13.500000
 50
0.000000
 51
90.000000
  0
ARC
  8
0
  6
CONTINUOUS
 62
4
 10
-430.532990
 20
-242.884995
 40
6.000000
 50
180.000000
 51
270.000000
  0
ARC
  8
0
  6
CONTINUOUS
 62
4
 10
-141.033005
 20
-270.885010
 40
13.500000
 50
90.000000
 51
180.000000
  0
CIRCLE
  8
0
  6
CONTINUOUS
 62
4
 10
-141.033005
 20
-270.885010
 40
8.100000
  0
CIRCLE
  8
0
  6
CONTINUOUS
 62
4
 10
-141.033005
 20
-270.885010
 40
5.500000
  0
CIRCLE
  8
0
  6
CONTINUOUS
 62
1
 10
-141.033005
 20
-270.885010
 40
6.500000
  0
ARC
  8
0
  6
CONTINUOUS
 62
4
 10
-170.533005
 20
-242.884995
 40
6.000000
 50
270.000000
 51
0.000000
  0
CIRCLE
  8
0
  6
CONTINUOUS
 62
7
 10
-17.533600
 20
-250.884995
 40
5.750000
  0
CIRCLE
  8
0
  6
CONTINUOUS
 62
7
 10
49.466400
 20
-281.885010
 40
5.750000
  0
CIRCLE
  8
0
  6
CONTINUOUS
 62
7
 10
50.466400
 20
-250.884995
 40
5.750000
  0
ARC
  8
0
  6
CONTINUOUS
 62
7
 10
55.866901
 20
-264.884003
 40
2.098600
 50
90.011703
 51
235.108994
  0
ARC
  8
0
  6
CONTINUOUS
 62
7
 10
55.266399
 20
-270.984985
 40
1.400000
 50
180.000000
 51
0.000000
  0
ARC
  8
0
  6
CONTINUOUS
 62
7
 10
55.466400
 20
-264.385010
 40
2.000000
 50
90.000000
 51
180.000000
  0
ARC
  8
0
  6
CONTINUOUS
 62
7
 10
55.466400
 20
-270.885010
 40
2.000000
 50
180.000000
 51
270.000000
  0
ARC
  8
0
  6
CONTINUOUS
 62
7
 10
23.466400
 20
-243.884995
 40
1.000000
 50
0.000000
 51
90.000000
  0
ARC
  8
0
  6
CONTINUOUS
 62
7
 10
9.466430
 20
-243.884995
 40
1.000000
 50
90.000000
 51
180.000000
  0
ARC
  8
0
  6
CONTINUOUS
 62
7
 10
9.466430
 20
-257.885010
 40
1.000000
 50
180.000000
 51
270.000000
  0
ARC
  8
0
  6
CONTINUOUS
 62
7
 10
23.466400
 20
-257.885010
 40
1.000000
 50
270.000000
 51
0.000000
  0
ARC
  8
0
  6
CONTINUOUS
 62
7
 10
-10.533600
 20
-249.884995
 40
15.000000
 50
90.000000
 51
180.000000
  0
ARC
  8
0
  6
CONTINUOUS
 62
7
 10
43.466400
 20
-249.884995
 40
15.000000
 50
0.000000
 51
90.000000
  0
ARC
  8
0
  6
CONTINUOUS
 62
4
 10
-10.533600
 20
-249.884995
 40
16.000000
 50
90.000000
 51
180.000000
  0
ARC
  8
0
  6
CONTINUOUS
 62
4
 10
43.466400
 20
-249.884995
 40
16.000000
 50
0.000000
 51
90.000000
  0
CIRCLE
  8
0
  6
CONTINUOUS
 62
4
 10
16.466400
 20
-219.884995
 40
10.000000
  0
CIRCLE
  8
0
  6
CONTINUOUS
 62
1
 10
16.466400
 20
-219.884995
 40
9.250000
  0
ARC
  8
0
  6
CONTINUOUS
 62
4
 10
-10.530100
 20
-249.880997
 40
31.003401
 50
94.297897
 51
180.007004
  0
ARC
  8
0
  6
CONTINUOUS
 62
4
 10
16.456400
 20
-236.884995
 40
31.013901
 50
42.870201
 51
137.130005
  0
ARC
  8
0
  6
CONTINUOUS
 62
4
 10
43.463699
 20
-249.882004
 40
31.002701
 50
359.994995
 51
85.740501
  0
ARC
  8
0
  6
CONTINUOUS
 62
4
 10
59.466400
 20
-262.885010
 40
2.500000
 50
0.000000
 51
90.000000
  0
ARC
  8
0
  6
CONTINUOUS
 62
4
 10
-26.533600
 20
-262.885010
 40
2.500000
 50
90.000000
 51
180.000000
  0
ARC
  8
0
  6
CONTINUOUS
 62
4
 10
46.523998
 20
-209.000000
 40
9.994020
 50
222.759995
 51
265.652008
  0
ARC
  8
0
  6
CONTINUOUS
 62
4
 10
-13.607400
 20
-209.007996
 40
9.985950
 50
274.329010
 51
317.257996
  0
CIRCLE
  8
0
  6
CONTINUOUS
 62
7
 10
49.466400
 20
-281.885010
 40
2.309400
  0
CIRCLE
  8
0
  6
CONTINUOUS
 62
7
 10
50.466400
 20
-250.884995
 40
2.309400
  0
CIRCLE
  8
0
  6
CONTINUOUS
 62
7
 10
-17.533600
 20
-250.884995
 40
2.309400
  0
ARC
  8
0
  6
CONTINUOUS
 62
4
 10
380.433014
 20
168.473999
 40
10.000000
 50
270.000000
 51
0.000000
  0
ARC
  8
0
  6
CONTINUOUS
 62
4
 10
235.132996
 20
168.473999
 40
10.000000
 50
180.000000
 51
270.000000
  0
ARC
  8
0
  6
CONTINUOUS
 62
4
 10
235.132996
 20
211.473999
 40
10.000000
 50
90.000000
 51
180.000000
  0
ARC
  8
0
  6
CONTINUOUS
 62
7
 10
381.433014
 20
180.774002
 40
1.000020
 50
270.000000
 51
359.998993
  0
ARC
  8
0
  6
CONTINUOUS
 62
7
 10
381.433014
 20
199.173996
 40
1.000000
 50
0.000000
 51
90.000000
  0
ARC
  8
0
  6
CONTINUOUS
 62
7
 10
234.432999
 20
180.774002
 40
1.000020
 50
180.001007
 51
269.998993
  0
ARC
  8
0
  6
CONTINUOUS
 62
7
 10
234.432999
 20
199.173996
 40
1.000000
 50
90.000000
 51
180.000000
  0
ARC
  8
0
  6
CONTINUOUS
 62
4
 10
406.933014
 20
171.983994
 40
9.503290
 50
153.434998
 51
206.565002
  0
ARC
  8
0
  6
CONTINUOUS
 62
4
 10
208.932999
 20
207.983994
 40
9.503290
 50
333.434998
 51
26.565100
  0
ARC
  8
0
  6
CONTINUOUS
 62
4
 10
208.932999
 20
171.983994
 40
9.503290
 50
333.434998
 51
26.565100
  0
ARC
  8
0
  6
CONTINUOUS
 62
4
 10
406.933014
 20
207.983994
 40
9.503290
 50
153.434998
 51
206.565002
  0
ARC
  8
0
  6
CONTINUOUS
 62
4
 10
393.433014
 20
154.973999
 40
5.000000
 50
270.000000
 51
0.000000
  0
ARC
  8
0
  6
CONTINUOUS
 62
4
 10
222.432999
 20
224.973999
 40
5.000000
 50
90.000000
 51
180.000000
  0
ARC
  8
0
  6
CONTINUOUS
 62
4
 10
222.432999
 20
154.973999
 40
5.000000
 50
180.000000
 51
270.000000
  0
ARC
  8
0
  6
CONTINUOUS
 62
4
 10
393.433014
 20
224.973999
 40
5.000000
 50
0.000000
 51
90.000000
  0
ARC
  8
0
  6
CONTINUOUS
 62
7
 10
379.433014
 20
169.973999
 40
10.000000
 50
270.000000
 51
0.000000
  0
ARC
  8
0
  6
CONTINUOUS
 62
7
 10
379.433014
 20
209.973999
 40
10.000000
 50
0.000000
 51
90.000000
  0
ARC
  8
0
  6
CONTINUOUS
 62
7
 10
236.432999
 20
169.973999
 40
10.000000
 50
180.000000
 51
270.000000
  0
ARC
  8
0
  6
CONTINUOUS
 62
7
 10
236.432999
 20
209.973999
 40
10.000000
 50
90.000000
 51
180.000000
  0
CIRCLE
  8
0
  6
CONTINUOUS
 62
7
 10
257.933014
 20
209.973999
 40
2.500000
  0
CIRCLE
  8
0
  6
CONTINUOUS
 62
2
 10
257.933014
 20
209.973999
 40
3.000000
  0
CIRCLE
  8
0
  6
CONTINUOUS
 62
7
 10
357.933014
 20
209.973999
 40
2.500000
  0
CIRCLE
  8
0
  6
CONTINUOUS
 62
2
 10
357.933014
 20
209.973999
 40
3.000000
  0
CIRCLE
  8
0
  6
CONTINUOUS
 62
7
 10
257.933014
 20
169.973999
 40
2.500000
  0
CIRCLE
  8
0
  6
CONTINUOUS
 62
2
 10
257.933014
 20
169.973999
 40
3.000000
  0
CIRCLE
  8
0
  6
CONTINUOUS
 62
7
 10
357.933014
 20
169.973999
 40
2.500000
  0
CIRCLE
  8
0
  6
CONTINUOUS
 62
2
 10
357.933014
 20
169.973999
 40
3.000000
  0
ARC
  8
0
  6
CONTINUOUS
 62
4
 10
380.433014
 20
211.473999
 40
10.000000
 50
0.000000
 51
90.000000
  0
CIRCLE
  8
0
  6
CONTINUOUS
 62
4
 10
224.932999
 20
223.973999
 40
2.500000
  0
CIRCLE
  8
0
  6
CONTINUOUS
 62
4
 10
390.933014
 20
223.973999
 40
2.500000
  0
CIRCLE
  8
0
  6
CONTINUOUS
 62
1
 10
224.932999
 20
223.973999
 40
3.000000
  0
CIRCLE
  8
0
  6
CONTINUOUS
 62
1
 10
390.933014
 20
223.973999
 40
3.000000
  0
CIRCLE
  8
0
  6
CONTINUOUS
 62
4
 10
390.933014
 20
155.973999
 40
2.500000
  0
CIRCLE
  8
0
  6
CONTINUOUS
 62
4
 10
224.932999
 20
155.973999
 40
2.500000
  0
CIRCLE
  8
0
  6
CONTINUOUS
 62
1
 10
224.932999
 20
155.973999
 40
3.000000
  0
CIRCLE
  8
0
  6
CONTINUOUS
 62
1
 10
390.933014
 20
155.973999
 40
3.000000
  0
CIRCLE
  8
0
  6
CONTINUOUS
 62
7
 10
205.932999
 20
171.973999
 40
3.500000
  0
CIRCLE
  8
0
  6
CONTINUOUS
 62
7
 10
205.932999
 20
171.973999
 40
5.500000
  0
CIRCLE
  8
0
  6
CONTINUOUS
 62
7
 10
205.932999
 20
207.973999
 40
3.500000
  0
CIRCLE
  8
0
  6
CONTINUOUS
 62
7
 10
205.932999
 20
207.973999
 40
5.500000
  0
ARC
  8
0
  6
CONTINUOUS
 62
7
 10
188.932999
 20
149.973999
 40
2.000000
 50
180.000000
 51
270.000000
  0
ARC
  8
0
  6
CONTINUOUS
 62
7
 10
188.932999
 20
229.973999
 40
2.000000
 50
90.000000
 51
180.000000
  0
ARC
  8
0
  6
CONTINUOUS
 62
7
 10
205.932999
 20
171.983994
 40
7.998550
 50
331.063995
 51
28.936300
  0
ARC
  8
0
  6
CONTINUOUS
 62
7
 10
205.932999
 20
207.983994
 40
7.998550
 50
331.063995
 51
28.936300
  0
CIRCLE
  8
0
  6
CONTINUOUS
 62
7
 10
484.933014
 20
155.973999
 40
2.309400
  0
CIRCLE
  8
0
  6
CONTINUOUS
 62
7
 10
484.933014
 20
223.973999
 40
2.309400
  0
CIRCLE
  8
0
  6
CONTINUOUS
 62
7
 10
515.932983
 20
222.973999
 40
2.309400
  0
ARC
  8
0
  6
CONTINUOUS
 62
7
 10
483.933014
 20
216.973999
 40
15.000000
 50
90.000000
 51
180.000000
  0
ARC
  8
0
  6
CONTINUOUS
 62
7
 10
483.933014
 20
162.973999
 40
15.000000
 50
180.000000
 51
270.000000
  0
ARC
  8
0
  6
CONTINUOUS
 62
7
 10
491.933014
 20
196.973999
 40
1.000000
 50
0.000000
 51
90.000000
  0
ARC
  8
0
  6
CONTINUOUS
 62
7
 10
491.933014
 20
182.973999
 40
1.000000
 50
270.000000
 51
0.000000
  0
ARC
  8
0
  6
CONTINUOUS
 62
7
 10
477.933014
 20
182.973999
 40
1.000000
 50
180.000000
 51
270.000000
  0
ARC
  8
0
  6
CONTINUOUS
 62
7
 10
477.933014
 20
196.973999
 40
1.000000
 50
90.000000
 51
180.000000
  0
ARC
  8
0
  6
CONTINUOUS
 62
7
 10
504.933014
 20
228.973999
 40
2.000000
 50
270.000000
 51
0.000000
  0
ARC
  8
0
  6
CONTINUOUS
 62
7
 10
498.433014
 20
228.973999
 40
2.000000
 50
180.000000
 51
270.000000
  0
ARC
  8
0
  6
CONTINUOUS
 62
7
 10
505.032990
 20
228.774002
 40
1.399990
 50
270.000000
 51
90.000000
  0
ARC
  8
0
  6
CONTINUOUS
 62
7
 10
498.931000
 20
229.373993
 40
2.098600
 50
180.011993
 51
325.109009
  0
CIRCLE
  8
0
  6
CONTINUOUS
 62
7
 10
484.933014
 20
223.973999
 40
5.750000
  0
CIRCLE
  8
0
  6
CONTINUOUS
 62
7
 10
515.932983
 20
222.973999
 40
5.750000
  0
CIRCLE
  8
0
  6
CONTINUOUS
 62
7
 10
484.933014
 20
155.973999
 40
5.750000
  0
ARC
  8
0
  6
CONTINUOUS
 62
4
 10
490.250000
 20
-216.483994
 40
1.500000
 50
0.000000
 51
90.000000
  0
ARC
  8
0
  6
CONTINUOUS
 62
4
 10
377.250000
 20
-216.483994
 40
1.500000
 50
90.000000
 51
180.000000
  0
TEXT
  8
0
 62
7
 10
-298.385315
 20
-352.750000
 40
9.000000
  1
STRETCH LIST
 50
0.000000
 41
0.776883
 51
0.000000
  7
STANDARD
  0
TEXT
  8
0
 62
7
 10
-62.685513
 20
-354.005005
 40
9.000000
  1
（ｍｍ）
 50
0.000000
 41
0.720379
 51
0.000000
  7
STANDARD
  0
TEXT
  8
0
 62
7
 10
-460.385315
 20
-385.250000
 40
9.000000
  1
0
 50
0.000000
 41
0.820000
 51
0.000000
  7
STANDARD
  0
TEXT
  8
0
 62
7
 10
-545.885315
 20
-385.250000
 40
9.000000
  1
STRETCH
 50
0.000000
 41
0.785813
 51
0.000000
  7
STANDARD
  0
TEXT
  8
0
 62
7
 10
-469.385315
 20
-370.250000
 40
9.000000
  1
100
 50
0.000000
 41
1.238251
 51
0.000000
  7
STANDARD
  0
TEXT
  8
0
 62
7
 10
-541.385315
 20
-370.250000
 40
9.000000
  1
STROKE
 50
0.000000
 41
0.800101
 51
0.000000
  7
STANDARD
  0
TEXT
  8
0
 62
7
 10
-424.385315
 20
-370.250000
 40
9.000000
  1
200
 50
0.000000
 41
1.013114
 51
0.000000
  7
STANDARD
  0
TEXT
  8
0
 62
7
 10
-379.385315
 20
-370.250000
 40
9.000000
  1
300
 50
0.000000
 41
1.013114
 51
0.000000
  7
STANDARD
  0
TEXT
  8
0
 62
7
 10
-334.385315
 20
-370.250000
 40
9.000000
  1
400
 50
0.000000
 41
1.013114
 51
0.000000
  7
STANDARD
  0
TEXT
  8
0
 62
7
 10
-289.385315
 20
-370.250000
 40
9.000000
  1
500
 50
0.000000
 41
1.013114
 51
0.000000
  7
STANDARD
  0
TEXT
  8
0
 62
7
 10
-244.385315
 20
-370.250000
 40
9.000000
  1
600
 50
0.000000
 41
1.013114
 51
0.000000
  7
STANDARD
  0
TEXT
  8
0
 62
7
 10
-199.385315
 20
-370.250000
 40
9.000000
  1
700
 50
0.000000
 41
1.013114
 51
0.000000
  7
STANDARD
  0
TEXT
  8
0
 62
7
 10
-154.385315
 20
-370.250000
 40
9.000000
  1
800
 50
0.000000
 41
1.013114
 51
0.000000
  7
STANDARD
  0
TEXT
  8
0
 62
7
 10
-109.385307
 20
-370.250000
 40
9.000000
  1
900
 50
0.000000
 41
1.013114
 51
0.000000
  7
STANDARD
  0
TEXT
  8
0
 62
7
 10
-424.385315
 20
-385.250000
 40
9.000000
  1
100
 50
0.000000
 41
1.238251
 51
0.000000
  7
STANDARD
  0
TEXT
  8
0
 62
7
 10
-379.385315
 20
-385.250000
 40
9.000000
  1
200
 50
0.000000
 41
1.013114
 51
0.000000
  7
STANDARD
  0
TEXT
  8
0
 62
7
 10
-334.385315
 20
-385.250000
 40
9.000000
  1
300
 50
0.000000
 41
1.013114
 51
0.000000
  7
STANDARD
  0
TEXT
  8
0
 62
7
 10
-289.385315
 20
-385.250000
 40
9.000000
  1
400
 50
0.000000
 41
1.013114
 51
0.000000
  7
STANDARD
  0
TEXT
  8
0
 62
7
 10
-244.385315
 20
-385.250000
 40
9.000000
  1
500
 50
0.000000
 41
1.013114
 51
0.000000
  7
STANDARD
  0
TEXT
  8
0
 62
7
 10
-199.385315
 20
-385.250000
 40
9.000000
  1
600
 50
0.000000
 41
1.013114
 51
0.000000
  7
STANDARD
  0
TEXT
  8
0
 62
7
 10
-154.385315
 20
-385.250000
 40
9.000000
  1
700
 50
0.000000
 41
1.013114
 51
0.000000
  7
STANDARD
  0
TEXT
  8
0
 62
7
 10
-109.385307
 20
-385.250000
 40
9.000000
  1
800
 50
0.000000
 41
1.013114
 51
0.000000
  7
STANDARD
  0
TEXT
  8
0
 62
7
 10
-64.385307
 20
-385.250000
 40
9.000000
  1
900
 50
0.000000
 41
1.013114
 51
0.000000
  7
STANDARD
  0
TEXT
  8
0
 62
7
 10
-68.885307
 20
-370.250000
 40
9.000000
  1
1000
 50
0.000000
 41
1.102179
 51
0.000000
  7
STANDARD
  0
TEXT
  8
0
 62
3
 10
-285.901367
 20
-8.535650
 40
9.000000
  1
STRETCH LINE
 50
0.000000
 41
0.849609
 51
0.000000
  7
STANDARD
  0
TEXT
  8
0
 62
3
 10
-303.738373
 20
316.578491
 40
9.000000
  1
STRETCH LINE
 50
0.000000
 41
0.849609
 51
0.000000
  7
STANDARD
  0
TEXT
  8
0
 62
7
 10
-539.153015
 20
319.558014
 40
12.500000
  1
(WITH SENSOR SWITCH)
 50
0.000000
 41
0.716146
 51
0.000000
  7
STANDARD
  0
TEXT
  8
0
 62
7
 10
-539.554688
 20
13.507900
 40
12.500000
  1
MODEL:ORV40*ST(100)-K2
 50
0.000000
 41
0.804970
 51
0.000000
  7
STANDARD
  0
TEXT
  8
0
 62
7
 10
284.379822
 20
-10.843750
 40
12.500000
  1
F-SUPPORT(-F)
 50
0.000000
 41
0.843750
 51
0.000000
  7
STANDARD
  0
TEXT
  8
0
 62
7
 10
296.879822
 20
359.656250
 40
12.500000
  1
M-MOUNT(-M)
 50
0.000000
 41
0.856681
 51
0.000000
  7
STANDARD
  0
TEXT
  8
0
 62
7
 10
-540.750793
 20
337.375000
 40
12.500000
  1
MODEL:ORV40*ST(100)
 50
0.000000
 41
0.805296
 51
0.000000
  7
STANDARD
  0
TEXT
  8
0
 62
7
 10
415.214844
 20
382.375000
 40
12.500000
  1
Ｖｅｒ．　１．０
 50
0.000000
 41
0.651771
 51
0.000000
  7
STANDARD
  0
TEXT
  8
0
 62
7
 10
355.729370
 20
-390.000000
 40
18.000000
  1
KOGANEI CORP.
 50
0.000000
 41
0.771525
 51
0.000000
  7
STANDARD
  0
TEXT
  8
0
 62
7
 10
-543.785156
 20
382.375000
 40
12.500000
  1
RODLESS CYLINDER
 50
0.000000
 41
0.759835
 51
0.000000
  7
STANDARD
  0
TEXT
  8
0
 62
7
 10
-17.597389
 20
-387.394989
 40
7.000000
  1
STROKE<1000mm  CATALOG
 50
0.000000
 41
0.778009
 51
0.000000
  7
STANDARD
  0
ENDSEC
  0
EOF
