  0
SECTION
  2
HEADER
  9
$ACADVER
  1
AC1003
  9
$EXTMIN
 10
-5.64500000E+02
 20
-4.00500000E+02
  9
$EXTMAX
 10
5.74500000E+02
 20
4.00500000E+02
  9
$LIMMIN
 10
-5.64501000E+02
 20
-4.00501000E+02
  9
$LIMMAX
 10
5.74501000E+02
 20
4.00501000E+02
  9
$SNAPUNIT
 10
1
 20
1
  9
$SNAPBASE
 10
0
 20
0
  9
$GRIDMODE
 70
0
  9
$GRIDUNIT
 10
0
 20
0
  9
$LTSCALE
 40
1.89833333E+01
  9
$TEXTSIZE
 40
3.2
  9
$DIMTAD
 70
0
  9
$LUNITS
 70
2
  9
$LUPREC
 70
4
  9
$FILLETRAD
 40
0
  9
$AUNITS
 70
0
  9
$AUPREC
 70
0
  0
ENDSEC
  0
SECTION
  2
TABLES
  0
TABLE
  2
LTYPE
 70
2
  0
LTYPE
  2
CONTINUOUS
 70
64
  3
Solid-Line
 72
65
 73
0
 40
0
  0
LTYPE
  2
DASHED
 70
64
  3
DASHED
 72
65
 73
2
 40
.75
 49
.5
 49
-.25
  0
LTYPE
  2
HIDDEN
 70
64
  3
HIDDEN
 72
65
 73
2
 40
.375
 49
.25
 49
-.125
  0
LTYPE
  2
CENTER
 70
64
  3
CENTER
 72
65
 73
4
 40
2
 49
1.25
 49
-.25
 49
.25
 49
-.25
  0
LTYPE
  2
PHANTOM
 70
64
  3
PHANTOM
 72
65
 73
6
 40
2.5
 49
1.25
 49
-.25
 49
.25
 49
-.25
 49
.25
 49
-.25
  0
ENDTAB
  0
TABLE
  2
LAYER
 70
1
  0
LAYER
  2
0
 70
0
 62
3
  6
CONTINUOUS
 0
ENDTAB
  0
TABLE
  2
STYLE
 70
2
  0
STYLE
  2
MONOTXT
 70
0
 40
0
 41
1
 50
0
 71
0
 42
.2
  3
monotxt
  0
STYLE
  2
BIGFONT
 70
0
 40
0
 41
1
 50
0
 71
0
 42
.2
  3
txt
  4
bigfont
  0
ENDTAB
  0
ENDSEC
  0
SECTION
  2
ENTITIES
  0
LINE
  8
0
  6
PHANTOM
 10
-2.46251027E+02
 20
1.62578515E+02
 11
-2.46251027E+02
 21
1.05770572E+02
  0
LINE
  8
0
 62
7
 10
-4.15251020E+02
 20
9.99705749E+01
 11
-2.07251026E+02
 21
9.99705749E+01
  0
LINE
  8
0
 62
7
 10
-4.64251014E+02
 20
8.15705733E+01
 11
-1.58251022E+02
 21
8.15705733E+01
  0
LINE
  8
0
 62
7
 10
-4.40251020E+02
 20
8.60705735E+01
 11
-1.82251026E+02
 21
8.60705735E+01
  0
LINE
  8
0
 62
7
 10
-4.40251020E+02
 20
1.03170572E+02
 11
-1.82251026E+02
 21
1.03170572E+02
  0
LINE
  8
0
 62
7
 10
-4.16751024E+02
 20
1.10620572E+02
 11
-2.05751027E+02
 21
1.10620572E+02
  0
LINE
  8
0
 62
7
 10
-4.32751031E+02
 20
1.14838526E+02
 11
-1.89751026E+02
 21
1.14838526E+02
  0
CIRCLE
  8
0
 62
7
 10
-4.52751031E+02
 20
9.45705732E+01
 40
5.49999986E+00
  0
CIRCLE
  8
0
 62
7
 10
-4.52751031E+02
 20
9.45705732E+01
 40
7.99999986E+00
  0
ARC
  8
0
 62
7
 10
-4.42983226E+02
 20
1.02370573E+02
 40
1.99999997E+00
 50
9.00000002E+01
 51
2.18608824E+02
  0
ARC
  8
0
 62
7
 10
-4.41251027E+02
 20
9.45705732E+01
 40
9.99999983E-01
 50
1.79999991E+02
 51
2.70000000E+02
  0
ARC
  8
0
 62
7
 10
-4.52751031E+02
 20
9.45705732E+01
 40
1.04999999E+01
 50
0.00000000E+00
 51
3.86088293E+01
  0
CIRCLE
  8
0
 62
7
 10
-4.55751018E+02
 20
9.55705736E+01
 40
1.90000006E+00
  0
CIRCLE
  8
0
 62
2
 10
-4.52751031E+02
 20
9.45705732E+01
 40
6.74999986E+00
  0
CIRCLE
  8
0
 62
2
 10
-1.69751026E+02
 20
9.45705732E+01
 40
6.74999986E+00
  0
ARC
  8
0
 62
7
 10
-4.31751024E+02
 20
1.16570573E+02
 40
1.99999997E+00
 50
1.79999991E+02
 51
2.70000000E+02
  0
ARC
  8
0
 62
7
 10
-4.35751018E+02
 20
1.25570572E+02
 40
1.99999997E+00
 50
3.59999995E+02
 51
9.00000002E+01
  0
ARC
  8
0
 62
7
 10
-1.86751029E+02
 20
1.25570572E+02
 40
1.99999997E+00
 50
9.00000002E+01
 51
1.80000005E+02
  0
ARC
  8
0
 62
7
 10
-1.90751027E+02
 20
1.16570573E+02
 40
1.99999997E+00
 50
2.70000000E+02
 51
8.65142235E-06
  0
ARC
  8
0
 62
7
 10
-1.60251024E+02
 20
1.25570572E+02
 40
1.99999997E+00
 50
3.59999995E+02
 51
9.00000002E+01
  0
CIRCLE
  8
0
 62
7
 10
-1.69751026E+02
 20
9.45705732E+01
 40
5.49999986E+00
  0
CIRCLE
  8
0
 62
7
 10
-1.69751026E+02
 20
9.45705732E+01
 40
7.99999986E+00
  0
ARC
  8
0
 62
7
 10
-1.79518820E+02
 20
1.02370573E+02
 40
1.99999997E+00
 50
3.21391177E+02
 51
9.00000002E+01
  0
ARC
  8
0
 62
7
 10
-1.81251025E+02
 20
9.45705732E+01
 40
9.99999983E-01
 50
2.70000000E+02
 51
8.65142235E-06
  0
ARC
  8
0
 62
7
 10
-1.69751026E+02
 20
9.45705732E+01
 40
1.04999999E+01
 50
1.41391172E+02
 51
1.80000005E+02
  0
CIRCLE
  8
0
 62
7
 10
-1.66751029E+02
 20
9.55705736E+01
 40
1.90000006E+00
  0
ARC
  8
0
 62
7
 10
-4.62251022E+02
 20
1.25570572E+02
 40
1.99999997E+00
 50
9.00000002E+01
 51
1.80000005E+02
  0
LINE
  8
0
 62
7
 10
-4.40251020E+02
 20
9.35705735E+01
 11
-4.41251027E+02
 21
9.35705735E+01
  0
LINE
  8
0
  6
CENTER
 62
2
 10
-4.52751031E+02
 20
1.05070573E+02
 11
-4.52751031E+02
 21
8.40705733E+01
  0
LINE
  8
0
  6
CENTER
 62
2
 10
-4.51351015E+02
 20
9.55705736E+01
 11
-4.60151021E+02
 21
9.55705736E+01
  0
LINE
  8
0
  6
CENTER
 62
2
 10
-4.42251022E+02
 20
9.45705732E+01
 11
-4.63251018E+02
 21
9.45705732E+01
  0
LINE
  8
0
  6
CENTER
 62
2
 10
-4.55751018E+02
 20
9.99705735E+01
 11
-4.55751018E+02
 21
9.11705734E+01
  0
LINE
  8
0
 62
7
 10
-4.40251020E+02
 20
1.04370572E+02
 11
-4.42983226E+02
 21
1.04370572E+02
  0
LINE
  8
0
  6
CENTER
 62
2
 10
-1.71151031E+02
 20
9.55705736E+01
 11
-1.62351026E+02
 21
9.55705736E+01
  0
LINE
  8
0
  6
CENTER
 62
2
 10
-1.66751029E+02
 20
9.99705735E+01
 11
-1.66751029E+02
 21
9.11705734E+01
  0
LINE
  8
0
  6
CENTER
 62
2
 10
-1.80251024E+02
 20
9.45705732E+01
 11
-1.59251029E+02
 21
9.45705732E+01
  0
LINE
  8
0
  6
CENTER
 62
2
 10
-1.69751026E+02
 20
1.05070573E+02
 11
-1.69751026E+02
 21
8.40705733E+01
  0
LINE
  8
0
 62
7
 10
-4.16751024E+02
 20
1.08870574E+02
 11
-4.40251020E+02
 21
1.08870574E+02
  0
LINE
  8
0
 62
7
 10
-4.16751024E+02
 20
1.08870574E+02
 11
-4.16751024E+02
 21
1.14570574E+02
  0
LINE
  8
0
 62
7
 10
-4.31751024E+02
 20
1.14570574E+02
 11
-4.16751024E+02
 21
1.14570574E+02
  0
LINE
  8
0
 62
7
 10
-4.15251020E+02
 20
9.65705733E+01
 11
-4.15251020E+02
 21
9.99705749E+01
  0
LINE
  8
0
 62
7
 10
-4.40251020E+02
 20
9.70061382E+01
 11
-4.15251020E+02
 21
9.70061382E+01
  0
LINE
  8
0
 62
7
 10
-4.40251020E+02
 20
9.65705733E+01
 11
-4.15251020E+02
 21
9.65705733E+01
  0
LINE
  8
0
 62
7
 10
-4.40251020E+02
 20
8.15705733E+01
 11
-4.40251020E+02
 21
1.27570574E+02
  0
LINE
  8
0
 62
7
 10
-4.27751020E+02
 20
1.17882249E+02
 11
-2.94751022E+02
 21
1.17882249E+02
  0
LINE
  8
0
 62
7
 10
-2.94751022E+02
 20
1.21070573E+02
 11
-2.94751022E+02
 21
1.17882249E+02
  0
LINE
  8
0
 62
7
 10
-2.92878857E+02
 20
1.17189294E+02
 11
-2.94751022E+02
 21
1.17882250E+02
  0
LINE
  8
0
 62
7
 10
-2.92716665E+02
 20
1.16570572E+02
 11
-2.92878853E+02
 21
1.17189295E+02
  0
LINE
  8
0
 62
7
 10
-4.27751020E+02
 20
1.21070573E+02
 11
-4.27751020E+02
 21
1.17882249E+02
  0
LINE
  8
0
 62
7
 10
-4.29785378E+02
 20
1.16570576E+02
 11
-4.29623191E+02
 21
1.17189294E+02
  0
LINE
  8
0
 62
7
 10
-4.29623173E+02
 20
1.17189295E+02
 11
-4.27751016E+02
 21
1.17882248E+02
  0
LINE
  8
0
 62
7
 10
-4.33751027E+02
 20
1.16570573E+02
 11
-4.33751027E+02
 21
1.25570572E+02
  0
LINE
  8
0
 62
7
 10
-4.31251027E+02
 20
1.21070573E+02
 11
-4.31251027E+02
 21
1.27570574E+02
  0
LINE
  8
0
 62
7
 10
-4.33751027E+02
 20
1.21070573E+02
 11
-4.30251020E+02
 21
1.21070573E+02
  0
LINE
  8
0
 62
7
 10
-4.30251020E+02
 20
1.21070573E+02
 11
-4.30251020E+02
 21
1.27570574E+02
  0
LINE
  8
0
 62
7
 10
-2.05751027E+02
 20
1.08870574E+02
 11
-1.82251026E+02
 21
1.08870574E+02
  0
LINE
  8
0
 62
7
 10
-2.05751027E+02
 20
1.08870574E+02
 11
-2.05751027E+02
 21
1.14570574E+02
  0
LINE
  8
0
 62
7
 10
-1.90751027E+02
 20
1.14570574E+02
 11
-2.05751027E+02
 21
1.14570574E+02
  0
LINE
  8
0
 62
7
 10
-1.88751025E+02
 20
1.16570573E+02
 11
-1.88751025E+02
 21
1.25570572E+02
  0
LINE
  8
0
 62
7
 10
-1.91251025E+02
 20
1.21070573E+02
 11
-1.91251025E+02
 21
1.27570574E+02
  0
LINE
  8
0
 62
7
 10
-1.88751025E+02
 20
1.21070573E+02
 11
-1.92251026E+02
 21
1.21070573E+02
  0
LINE
  8
0
 62
7
 10
-1.92251026E+02
 20
1.21070573E+02
 11
-1.92251026E+02
 21
1.27570574E+02
  0
LINE
  8
0
 62
7
 10
-1.82251026E+02
 20
1.27570574E+02
 11
-1.92251026E+02
 21
1.27570574E+02
  0
LINE
  8
0
  6
CENTER
 62
2
 10
-3.61251027E+02
 20
7.65705733E+01
 11
-3.61251027E+02
 21
1.34570574E+02
  0
LINE
  8
0
 62
7
 10
-4.29251024E+02
 20
1.21070573E+02
 11
-2.93251023E+02
 21
1.21070573E+02
  0
LINE
  8
0
 62
7
 10
-2.93251023E+02
 20
1.29570574E+02
 11
-2.93251023E+02
 21
1.21070573E+02
  0
LINE
  8
0
 62
7
 10
-4.29251024E+02
 20
1.29570574E+02
 11
-4.29251024E+02
 21
1.21070573E+02
  0
LINE
  8
0
 62
7
 10
-4.29251024E+02
 20
1.29570574E+02
 11
-2.93251023E+02
 21
1.29570574E+02
  0
LINE
  8
0
 62
7
 10
-1.82251026E+02
 20
9.35705735E+01
 11
-1.81251025E+02
 21
9.35705735E+01
  0
LINE
  8
0
 62
7
 10
-1.82251026E+02
 20
8.15705733E+01
 11
-1.82251026E+02
 21
1.27570574E+02
  0
LINE
  8
0
 62
7
 10
-1.58251022E+02
 20
8.15705733E+01
 11
-1.58251022E+02
 21
1.25570572E+02
  0
LINE
  8
0
 62
7
 10
-1.60251024E+02
 20
1.27570574E+02
 11
-1.82251026E+02
 21
1.27570574E+02
  0
LINE
  8
0
 62
7
 10
-1.82251026E+02
 20
1.04370572E+02
 11
-1.79518820E+02
 21
1.04370572E+02
  0
LINE
  8
0
 62
7
 10
-4.64251014E+02
 20
8.15705733E+01
 11
-4.64251014E+02
 21
1.25570572E+02
  0
LINE
  8
0
 62
7
 10
-4.62251022E+02
 20
1.27570574E+02
 11
-4.30251020E+02
 21
1.27570574E+02
  0
LINE
  8
0
 62
7
 10
-2.07251026E+02
 20
9.65705733E+01
 11
-2.07251026E+02
 21
9.99705749E+01
  0
LINE
  8
0
 62
7
 10
-1.82251026E+02
 20
9.70061382E+01
 11
-2.07251026E+02
 21
9.70061382E+01
  0
LINE
  8
0
 62
7
 10
-1.82251026E+02
 20
9.65705733E+01
 11
-2.07251026E+02
 21
9.65705733E+01
  0
LINE
  8
0
 62
7
 10
-4.40251020E+02
 20
9.03705726E+01
 11
-1.82251026E+02
 21
9.03705726E+01
  0
LINE
  8
0
 62
7
 10
-4.40251020E+02
 20
1.08370572E+02
 11
-1.82251026E+02
 21
1.08370572E+02
  0
LINE
  8
0
 62
7
 10
-4.33751027E+02
 20
1.16570573E+02
 11
-1.88751025E+02
 21
1.16570573E+02
  0
LINE
  8
0
 62
7
 10
-4.16751024E+02
 20
1.12520575E+02
 11
-2.05751027E+02
 21
1.12520575E+02
  0
LINE
  8
0
 62
4
 10
-3.26251022E+02
 20
1.03170574E+02
 11
-3.05251022E+02
 21
1.03170574E+02
  0
LINE
  8
0
 62
4
 10
-3.26251022E+02
 20
9.99705741E+01
 11
-3.05251022E+02
 21
9.99705741E+01
  0
LINE
  8
0
 62
4
 10
-3.07471022E+02
 20
1.00800574E+02
 11
-3.09021022E+02
 21
1.02340574E+02
  0
LINE
  8
0
 62
4
 10
-3.07471022E+02
 20
1.02340574E+02
 11
-3.09021022E+02
 21
1.00800574E+02
  0
CIRCLE
  8
0
 62
4
 10
-3.08251022E+02
 20
1.01570574E+02
 40
1.50000000E+00
  0
LINE
  8
0
 62
4
 10
-3.11251022E+02
 20
1.03170574E+02
 11
-3.11251022E+02
 21
9.99705741E+01
  0
LINE
  8
0
 62
4
 10
-3.05251022E+02
 20
1.03170574E+02
 11
-3.05251022E+02
 21
9.99705741E+01
  0
LINE
  8
0
 62
4
 10
-3.26251022E+02
 20
1.03170574E+02
 11
-3.26251022E+02
 21
9.99705741E+01
  0
LINE
  8
0
 62
4
 10
-3.27751022E+02
 20
1.02760574E+02
 11
-3.27751022E+02
 21
1.00380574E+02
  0
LINE
  8
0
 62
4
 10
-3.26251022E+02
 20
1.03170574E+02
 11
-3.27751022E+02
 21
1.02760574E+02
  0
LINE
  8
0
 62
4
 10
-3.27751022E+02
 20
1.02760574E+02
 11
-3.33032247E+02
 21
1.02760574E+02
  0
LINE
  8
0
 62
6
 10
-3.33032247E+02
 20
1.02760574E+02
 11
-3.34114065E+02
 21
1.00380574E+02
  0
LINE
  8
0
 62
4
 10
-3.26251022E+02
 20
9.99705741E+01
 11
-3.27751022E+02
 21
1.00380574E+02
  0
LINE
  8
0
 62
4
 10
-3.27751022E+02
 20
1.00380574E+02
 11
-3.34114065E+02
 21
1.00380574E+02
  0
LINE
  8
0
 62
4
 10
-3.72251014E+02
 20
1.03170574E+02
 11
-3.51251014E+02
 21
1.03170574E+02
  0
LINE
  8
0
 62
4
 10
-3.72251014E+02
 20
9.99705741E+01
 11
-3.51251014E+02
 21
9.99705741E+01
  0
LINE
  8
0
 62
4
 10
-3.53471014E+02
 20
1.00800574E+02
 11
-3.55021014E+02
 21
1.02340574E+02
  0
LINE
  8
0
 62
4
 10
-3.53471014E+02
 20
1.02340574E+02
 11
-3.55021014E+02
 21
1.00800574E+02
  0
CIRCLE
  8
0
 62
4
 10
-3.54251014E+02
 20
1.01570574E+02
 40
1.50000000E+00
  0
LINE
  8
0
 62
4
 10
-3.57251014E+02
 20
1.03170574E+02
 11
-3.57251014E+02
 21
9.99705741E+01
  0
LINE
  8
0
 62
4
 10
-3.51251014E+02
 20
1.03170574E+02
 11
-3.51251014E+02
 21
9.99705741E+01
  0
LINE
  8
0
 62
4
 10
-3.72251014E+02
 20
1.03170574E+02
 11
-3.72251014E+02
 21
9.99705741E+01
  0
LINE
  8
0
 62
4
 10
-3.73751014E+02
 20
1.02760574E+02
 11
-3.73751014E+02
 21
1.00380574E+02
  0
LINE
  8
0
 62
4
 10
-3.72251014E+02
 20
1.03170574E+02
 11
-3.73751014E+02
 21
1.02760574E+02
  0
LINE
  8
0
 62
4
 10
-3.73751014E+02
 20
1.02760574E+02
 11
-3.79032238E+02
 21
1.02760574E+02
  0
LINE
  8
0
 62
6
 10
-3.79032238E+02
 20
1.02760574E+02
 11
-3.80114057E+02
 21
1.00380574E+02
  0
LINE
  8
0
 62
4
 10
-3.72251014E+02
 20
9.99705741E+01
 11
-3.73751014E+02
 21
1.00380574E+02
  0
LINE
  8
0
 62
4
 10
-3.73751014E+02
 20
1.00380574E+02
 11
-3.80114057E+02
 21
1.00380574E+02
  0
LINE
  8
0
  6
PHANTOM
 10
-3.41251027E+02
 20
7.65705733E+01
 11
-3.41251027E+02
 21
1.05770572E+02
  0
LINE
  8
0
  6
PHANTOM
 10
-3.41251027E+02
 20
1.05770572E+02
 11
-2.46251027E+02
 21
1.05770572E+02
  0
CIRCLE
  8
0
 62
7
 10
-2.60816529E+00
 20
8.75705734E+01
 40
5.00000000E+00
  0
CIRCLE
  8
0
 62
7
 10
-5.76081653E+01
 20
1.11570573E+02
 40
5.00000000E+00
  0
CIRCLE
  8
0
 62
7
 10
-2.60816529E+00
 20
1.11570573E+02
 40
5.00000000E+00
  0
ARC
  8
0
 62
7
 10
1.69182686E+00
 20
1.02370577E+02
 40
1.99999997E+00
 50
9.00000002E+01
 51
1.80000005E+02
  0
CIRCLE
  8
0
 62
7
 10
-5.76081653E+01
 20
1.11570573E+02
 40
5.49999986E+00
  0
ARC
  8
0
 62
7
 10
-5.01081653E+01
 20
1.12570574E+02
 40
1.50000000E+01
 50
9.00000002E+01
 51
1.80000005E+02
  0
ARC
  8
0
 62
7
 10
-1.01081653E+01
 20
1.12570574E+02
 40
1.50000000E+01
 50
9.33466765E-06
 51
9.00000002E+01
  0
ARC
  8
0
 62
7
 10
1.69182686E+00
 20
9.55705736E+01
 40
1.99999997E+00
 50
1.79999991E+02
 51
2.70000000E+02
  0
ARC
  8
0
 62
7
 10
-2.60816529E+00
 20
8.75705734E+01
 40
5.49999986E+00
 50
3.03055739E+02
 51
2.36944262E+02
  0
CIRCLE
  8
0
 62
7
 10
-2.60816529E+00
 20
1.11570573E+02
 40
5.49999986E+00
  0
LINE
  8
0
 62
7
 10
-5.10816529E+00
 20
1.26712709E+02
 11
-5.10816529E+00
 21
1.29570574E+02
  0
LINE
  8
0
 62
7
 10
-5.51081653E+01
 20
1.26712709E+02
 11
-5.51081653E+01
 21
1.29570574E+02
  0
LINE
  8
0
 62
7
 10
-5.51081653E+01
 20
1.29570574E+02
 11
-5.10816529E+00
 21
1.29570574E+02
  0
LINE
  8
0
 62
7
 10
-1.16479284E+00
 20
9.00705733E+01
 11
-4.05153775E+00
 21
9.00705733E+01
  0
LINE
  8
0
 62
7
 10
-1.16479337E+00
 20
9.00705747E+01
 11
2.78584530E-01
 21
8.75705709E+01
  0
LINE
  8
0
 62
7
 10
-5.49492031E+00
 20
8.75705747E+01
 11
-4.05154241E+00
 21
8.50705709E+01
  0
LINE
  8
0
 62
7
 10
-4.05154121E+00
 20
9.00705693E+01
 11
-5.49491367E+00
 21
8.75705749E+01
  0
LINE
  8
0
 62
7
 10
2.78585730E-01
 20
8.75705693E+01
 11
-1.16478672E+00
 21
8.50705749E+01
  0
LINE
  8
0
 62
7
 10
-1.16479284E+00
 20
8.50705734E+01
 11
-4.05153775E+00
 21
8.50705734E+01
  0
LINE
  8
0
 62
7
 10
-5.61647928E+01
 20
1.14070573E+02
 11
-5.90515377E+01
 21
1.14070573E+02
  0
LINE
  8
0
 62
7
 10
-5.61647919E+01
 20
1.14070571E+02
 11
-5.47214168E+01
 21
1.11570572E+02
  0
LINE
  8
0
 62
7
 10
-6.04949189E+01
 20
1.11570571E+02
 11
-5.90515437E+01
 21
1.09070572E+02
  0
LINE
  8
0
 62
7
 10
-5.90515459E+01
 20
1.14070569E+02
 11
-6.04949184E+01
 21
1.11570575E+02
  0
LINE
  8
0
 62
7
 10
-5.47214190E+01
 20
1.11570569E+02
 11
-5.61647915E+01
 21
1.09070575E+02
  0
LINE
  8
0
 62
7
 10
-5.61647928E+01
 20
1.09070573E+02
 11
-5.90515377E+01
 21
1.09070573E+02
  0
LINE
  8
0
 62
7
 10
-1.16479284E+00
 20
1.09070573E+02
 11
-4.05153775E+00
 21
1.09070573E+02
  0
LINE
  8
0
 62
7
 10
2.78573211E-01
 20
1.11570573E+02
 11
-1.16479924E+00
 21
1.09070579E+02
  0
LINE
  8
0
 62
7
 10
-4.05155373E+00
 20
1.14070573E+02
 11
-5.49492618E+00
 21
1.11570579E+02
  0
LINE
  8
0
 62
7
 10
-5.49492667E+00
 20
1.11570568E+02
 11
-4.05155422E+00
 21
1.09070573E+02
  0
LINE
  8
0
 62
7
 10
-1.16479973E+00
 20
1.14070568E+02
 11
2.78572721E-01
 21
1.11570573E+02
  0
LINE
  8
0
 62
7
 10
-1.16479284E+00
 20
1.14070573E+02
 11
-4.05153775E+00
 21
1.14070573E+02
  0
LINE
  8
0
 62
7
 10
-3.28581697E+01
 20
1.27370573E+02
 11
-2.73581609E+01
 21
1.27370573E+02
  0
LINE
  8
0
 62
7
 10
3.91843426E-01
 20
8.29608016E+01
 11
3.91843426E-01
 21
8.15705733E+01
  0
LINE
  8
0
 62
7
 10
-2.73581609E+01
 20
1.27570574E+02
 11
-1.01081653E+01
 21
1.27570574E+02
  0
LINE
  8
0
 62
7
 10
-3.81081740E+01
 20
1.19570574E+02
 11
-3.81081740E+01
 21
1.04570574E+02
  0
LINE
  8
0
 62
7
 10
-3.28581697E+01
 20
1.27570574E+02
 11
-3.28581697E+01
 21
1.19570574E+02
  0
LINE
  8
0
 62
7
 10
-2.73581609E+01
 20
1.27570574E+02
 11
-2.73581609E+01
 21
1.19570574E+02
  0
LINE
  8
0
 62
7
 10
-2.21081566E+01
 20
1.19570574E+02
 11
-2.21081566E+01
 21
1.04570574E+02
  0
LINE
  8
0
 62
7
 10
-3.81081740E+01
 20
1.04570574E+02
 11
-2.21081566E+01
 21
1.04570574E+02
  0
LINE
  8
0
 62
7
 10
-2.21081566E+01
 20
1.19570574E+02
 11
-2.73581609E+01
 21
1.19570574E+02
  0
LINE
  8
0
 62
7
 10
-3.81081740E+01
 20
1.19570574E+02
 11
-3.28581697E+01
 21
1.19570574E+02
  0
LINE
  8
0
 62
7
 10
1.69182686E+00
 20
1.04370576E+02
 11
4.89183471E+00
 21
1.04370576E+02
  0
LINE
  8
0
 62
7
 10
-3.16081697E+01
 20
8.25705731E+01
 11
-3.16081697E+01
 21
8.15705733E+01
  0
LINE
  8
0
 62
7
 10
1.69182686E+00
 20
9.35705735E+01
 11
4.89183471E+00
 21
9.35705735E+01
  0
LINE
  8
0
  6
CENTER
 62
2
 10
-2.60816529E+00
 20
1.19570573E+02
 11
-2.60816529E+00
 21
1.03570573E+02
  0
LINE
  8
0
  6
CENTER
 62
2
 10
-1.06081653E+01
 20
8.75705734E+01
 11
5.39183471E+00
 21
8.75705734E+01
  0
LINE
  8
0
  6
CENTER
 62
2
 10
5.39183471E+00
 20
1.11570573E+02
 11
-1.06081653E+01
 21
1.11570573E+02
  0
LINE
  8
0
 62
7
 10
4.89183471E+00
 20
9.35705735E+01
 11
4.89183471E+00
 21
8.15705733E+01
  0
LINE
  8
0
 62
7
 10
4.89183471E+00
 20
1.12570574E+02
 11
4.89183471E+00
 21
1.04370576E+02
  0
LINE
  8
0
 62
7
 10
-2.86081609E+01
 20
8.15705733E+01
 11
4.89183471E+00
 21
8.15705733E+01
  0
LINE
  8
0
 62
7
 10
-2.86081609E+01
 20
8.25705731E+01
 11
-2.86081609E+01
 21
8.15705733E+01
  0
LINE
  8
0
 62
7
 10
-6.51081653E+01
 20
8.15705733E+01
 11
-3.16081697E+01
 21
8.15705733E+01
  0
LINE
  8
0
 62
7
 10
-3.08186220E-01
 20
1.02370577E+02
 11
-3.08186220E-01
 21
9.55705736E+01
  0
LINE
  8
0
 62
7
 10
-5.60817401E+00
 20
8.29608016E+01
 11
-5.60817401E+00
 21
8.15705733E+01
  0
LINE
  8
0
 62
7
 10
-5.01081653E+01
 20
1.27570574E+02
 11
-3.28581697E+01
 21
1.27570574E+02
  0
LINE
  8
0
 62
7
 10
-6.51081653E+01
 20
8.15705733E+01
 11
-6.51081653E+01
 21
1.12570574E+02
  0
LINE
  8
0
  6
CENTER
 62
2
 10
-2.60816529E+00
 20
9.55705734E+01
 11
-2.60816529E+00
 21
7.95705734E+01
  0
LINE
  8
0
  6
CENTER
 62
2
 10
-3.01081653E+01
 20
1.34570574E+02
 11
-3.01081653E+01
 21
7.44217125E+01
  0
LINE
  8
0
 62
7
 10
-2.86081609E+01
 20
8.25705731E+01
 11
-3.16081697E+01
 21
8.25705731E+01
  0
LINE
  8
0
  6
CENTER
 62
2
 10
-4.96081653E+01
 20
1.11570573E+02
 11
-6.56081653E+01
 21
1.11570573E+02
  0
LINE
  8
0
  6
CENTER
 62
2
 10
-5.76081653E+01
 20
1.03570573E+02
 11
-5.76081653E+01
 21
1.19570573E+02
  0
LINE
  8
0
  6
PHANTOM
 10
-2.46251027E+02
 20
2.67499140E+02
 11
-2.46251027E+02
 21
1.62578515E+02
  0
LINE
  8
0
 62
7
 10
-4.33751027E+02
 20
2.58999145E+02
 11
-1.88751025E+02
 21
2.58999145E+02
  0
ARC
  8
0
 62
7
 10
-4.33051030E+02
 20
2.35750581E+02
 40
4.99999991E-01
 50
1.79999991E+02
 51
2.60000003E+02
  0
ARC
  8
0
 62
7
 10
-4.35751018E+02
 20
1.94999146E+02
 40
1.99999997E+00
 50
2.70000000E+02
 51
3.59999992E+02
  0
ARC
  8
0
 62
7
 10
-4.32991564E+02
 20
2.40124143E+02
 40
5.59466311E-01
 50
9.99999936E+01
 51
2.60000003E+02
  0
ARC
  8
0
 62
7
 10
-4.32991564E+02
 20
2.14874149E+02
 40
5.59466311E-01
 50
1.00000000E+02
 51
2.60000003E+02
  0
ARC
  8
0
 62
7
 10
-4.33051030E+02
 20
2.24750575E+02
 40
4.99999991E-01
 50
1.80000008E+02
 51
2.59999993E+02
  0
ARC
  8
0
 62
7
 10
-4.31251027E+02
 20
2.21088236E+02
 40
9.99999983E-01
 50
2.80000009E+02
 51
3.59999992E+02
  0
ARC
  8
0
 62
7
 10
-4.31251027E+02
 20
2.22910049E+02
 40
9.99999983E-01
 50
3.59999995E+02
 51
7.99999976E+01
  0
ARC
  8
0
 62
7
 10
-4.33051030E+02
 20
2.30247706E+02
 40
4.99999991E-01
 50
1.00000000E+02
 51
1.80000005E+02
  0
ARC
  8
0
 62
7
 10
-4.31251027E+02
 20
2.32088243E+02
 40
9.99999983E-01
 50
2.80000009E+02
 51
3.59999992E+02
  0
ARC
  8
0
 62
7
 10
-4.33051030E+02
 20
2.25924041E+02
 40
4.99999991E-01
 50
1.00000000E+02
 51
1.80000005E+02
  0
ARC
  8
0
 62
7
 10
-4.33051030E+02
 20
2.29074251E+02
 40
4.99999991E-01
 50
1.80000008E+02
 51
2.59999993E+02
  0
ARC
  8
0
 62
7
 10
-4.33051030E+02
 20
2.19247710E+02
 40
4.99999991E-01
 50
1.00000000E+02
 51
1.80000005E+02
  0
ARC
  8
0
 62
7
 10
-4.33051030E+02
 20
2.36924037E+02
 40
4.99999991E-01
 50
1.00000007E+02
 51
1.79999991E+02
  0
ARC
  8
0
 62
7
 10
-4.33051030E+02
 20
2.18074244E+02
 40
4.99999991E-01
 50
1.80000008E+02
 51
2.59999993E+02
  0
ARC
  8
0
 62
7
 10
-4.35751018E+02
 20
2.59999140E+02
 40
1.99999997E+00
 50
3.59999995E+02
 51
9.00000002E+01
  0
ARC
  8
0
 62
7
 10
-4.31251027E+02
 20
2.33910044E+02
 40
9.99999983E-01
 50
8.65142155E-06
 51
7.99999907E+01
  0
ARC
  8
0
 62
7
 10
-1.86751029E+02
 20
2.59999140E+02
 40
1.99999997E+00
 50
9.00000002E+01
 51
1.80000005E+02
  0
ARC
  8
0
 62
7
 10
-1.89451039E+02
 20
2.36924037E+02
 40
4.99999991E-01
 50
8.65142155E-06
 51
7.99999907E+01
  0
ARC
  8
0
 62
7
 10
-1.89451039E+02
 20
2.19247710E+02
 40
4.99999991E-01
 50
3.59999995E+02
 51
7.99999976E+01
  0
ARC
  8
0
 62
7
 10
-1.89451039E+02
 20
2.18074244E+02
 40
4.99999991E-01
 50
2.80000009E+02
 51
3.59999992E+02
  0
ARC
  8
0
 62
7
 10
-1.89451039E+02
 20
2.29074251E+02
 40
4.99999991E-01
 50
2.80000009E+02
 51
3.59999992E+02
  0
ARC
  8
0
 62
7
 10
-1.91251025E+02
 20
2.32088243E+02
 40
9.99999983E-01
 50
1.80000008E+02
 51
2.59999993E+02
  0
ARC
  8
0
 62
7
 10
-1.89451039E+02
 20
2.30247706E+02
 40
4.99999991E-01
 50
3.59999995E+02
 51
7.99999976E+01
  0
ARC
  8
0
 62
7
 10
-1.91251025E+02
 20
2.22910049E+02
 40
9.99999983E-01
 50
1.00000000E+02
 51
1.80000005E+02
  0
ARC
  8
0
 62
7
 10
-1.91251025E+02
 20
2.21088236E+02
 40
9.99999983E-01
 50
1.80000008E+02
 51
2.59999993E+02
  0
ARC
  8
0
 62
7
 10
-1.89451039E+02
 20
2.24750575E+02
 40
4.99999991E-01
 50
2.80000009E+02
 51
3.59999992E+02
  0
ARC
  8
0
 62
7
 10
-1.89451039E+02
 20
2.25924041E+02
 40
4.99999991E-01
 50
3.59999995E+02
 51
7.99999976E+01
  0
ARC
  8
0
 62
7
 10
-1.89510488E+02
 20
2.14874149E+02
 40
5.59466311E-01
 50
2.79999996E+02
 51
7.99999976E+01
  0
ARC
  8
0
 62
7
 10
-1.89510488E+02
 20
2.40124143E+02
 40
5.59466311E-01
 50
2.79999996E+02
 51
8.00000045E+01
  0
ARC
  8
0
 62
7
 10
-1.91251025E+02
 20
2.33910044E+02
 40
9.99999983E-01
 50
1.00000007E+02
 51
1.79999991E+02
  0
ARC
  8
0
 62
7
 10
-1.89451039E+02
 20
2.35750581E+02
 40
4.99999991E-01
 50
2.79999996E+02
 51
8.65142155E-06
  0
ARC
  8
0
 62
7
 10
-1.86751029E+02
 20
1.94999146E+02
 40
1.99999997E+00
 50
1.80000008E+02
 51
2.70000000E+02
  0
ARC
  8
0
 62
7
 10
-4.21251027E+02
 20
2.18299148E+02
 40
9.99999983E-01
 50
1.80000005E+02
 51
2.70000000E+02
  0
ARC
  8
0
 62
7
 10
-3.01251021E+02
 20
2.36699144E+02
 40
9.99999983E-01
 50
3.59999995E+02
 51
9.00000002E+01
  0
ARC
  8
0
 62
7
 10
-3.01251021E+02
 20
2.18299148E+02
 40
9.99999983E-01
 50
2.70000000E+02
 51
8.65142155E-06
  0
ARC
  8
0
 62
7
 10
-4.21251027E+02
 20
2.36699144E+02
 40
9.99999983E-01
 50
9.00000002E+01
 51
1.80000005E+02
  0
CIRCLE
  8
0
 62
7
 10
-3.21251021E+02
 20
2.11499145E+02
 40
2.34999997E+00
  0
CIRCLE
  8
0
 62
2
 10
-3.21251021E+02
 20
2.11499145E+02
 40
2.99999986E+00
  0
CIRCLE
  8
0
 62
7
 10
-4.01251027E+02
 20
2.11499145E+02
 40
2.34999997E+00
  0
CIRCLE
  8
0
 62
2
 10
-4.01251027E+02
 20
2.11499145E+02
 40
2.99999986E+00
  0
CIRCLE
  8
0
 62
7
 10
-3.21251021E+02
 20
2.43499147E+02
 40
2.34999997E+00
  0
CIRCLE
  8
0
 62
2
 10
-3.21251021E+02
 20
2.43499147E+02
 40
2.99999986E+00
  0
ARC
  8
0
 62
7
 10
-4.20251020E+02
 20
2.10499149E+02
 40
7.99999986E+00
 50
1.80000005E+02
 51
2.70000000E+02
  0
ARC
  8
0
 62
7
 10
-3.02251022E+02
 20
2.10499149E+02
 40
7.99999986E+00
 50
2.70000000E+02
 51
8.65142218E-06
  0
ARC
  8
0
 62
7
 10
-4.20251020E+02
 20
2.44499143E+02
 40
7.99999986E+00
 50
9.00000002E+01
 51
1.80000005E+02
  0
ARC
  8
0
 62
7
 10
-3.02251022E+02
 20
2.44499143E+02
 40
7.99999986E+00
 50
3.59999995E+02
 51
9.00000002E+01
  0
CIRCLE
  8
0
 62
7
 10
-4.01251027E+02
 20
2.43499147E+02
 40
2.34999997E+00
  0
CIRCLE
  8
0
 62
2
 10
-4.01251027E+02
 20
2.43499147E+02
 40
2.99999986E+00
  0
ARC
  8
0
 62
7
 10
-4.62251022E+02
 20
2.60499149E+02
 40
1.99999997E+00
 50
9.00000002E+01
 51
1.80000005E+02
  0
ARC
  8
0
 62
7
 10
-4.62251022E+02
 20
1.94499143E+02
 40
1.99999997E+00
 50
1.79999991E+02
 51
2.70000000E+02
  0
ARC
  8
0
 62
7
 10
-4.47251022E+02
 20
2.43499147E+02
 40
7.99999986E+00
 50
3.31044980E+02
 51
2.89550263E+01
  0
ARC
  8
0
 62
7
 10
-4.47251022E+02
 20
2.11499145E+02
 40
7.99999986E+00
 50
3.31044980E+02
 51
2.89550263E+01
  0
CIRCLE
  8
0
 62
7
 10
-4.47251022E+02
 20
2.43499147E+02
 40
5.49999986E+00
  0
CIRCLE
  8
0
 62
7
 10
-4.47251022E+02
 20
2.43499147E+02
 40
3.50000007E+00
  0
CIRCLE
  8
0
 62
7
 10
-4.47251022E+02
 20
2.11499145E+02
 40
5.49999986E+00
  0
CIRCLE
  8
0
 62
7
 10
-4.47251022E+02
 20
2.11499145E+02
 40
3.50000007E+00
  0
ARC
  8
0
 62
7
 10
-1.60251024E+02
 20
2.60499149E+02
 40
1.99999997E+00
 50
3.59999995E+02
 51
9.00000002E+01
  0
ARC
  8
0
 62
7
 10
-1.60251024E+02
 20
1.94499143E+02
 40
1.99999997E+00
 50
2.70000000E+02
 51
8.65142235E-06
  0
ARC
  8
0
 62
7
 10
-1.75251024E+02
 20
2.43499147E+02
 40
7.99999986E+00
 50
1.51044975E+02
 51
2.08955021E+02
  0
ARC
  8
0
 62
7
 10
-1.75251024E+02
 20
2.11499145E+02
 40
7.99999986E+00
 50
1.51044975E+02
 51
2.08955021E+02
  0
CIRCLE
  8
0
 62
7
 10
-1.75251024E+02
 20
2.43499147E+02
 40
5.49999986E+00
  0
CIRCLE
  8
0
 62
7
 10
-1.75251024E+02
 20
2.43499147E+02
 40
3.50000007E+00
  0
CIRCLE
  8
0
 62
7
 10
-1.75251024E+02
 20
2.11499145E+02
 40
5.49999986E+00
  0
CIRCLE
  8
0
 62
7
 10
-1.75251024E+02
 20
2.11499145E+02
 40
3.50000007E+00
  0
LINE
  8
0
  6
CENTER
 62
2
 10
-4.55251031E+02
 20
2.43499147E+02
 11
-4.39251024E+02
 21
2.43499147E+02
  0
LINE
  8
0
  6
CENTER
 62
2
 10
-3.61251027E+02
 20
2.67499140E+02
 11
-3.61251027E+02
 21
1.87499146E+02
  0
LINE
  8
0
 62
7
 10
-2.93251023E+02
 20
2.35999147E+02
 11
-1.88951041E+02
 21
2.35999147E+02
  0
LINE
  8
0
 62
7
 10
-2.93251023E+02
 20
2.18999145E+02
 11
-1.88951041E+02
 21
2.18999145E+02
  0
LINE
  8
0
 62
7
 10
-4.40251020E+02
 20
2.61999143E+02
 11
-4.16751024E+02
 21
2.61999143E+02
  0
LINE
  8
0
 62
7
 10
-4.16751024E+02
 20
2.61999143E+02
 11
-4.16751024E+02
 21
2.58999145E+02
  0
LINE
  8
0
 62
7
 10
-4.30251020E+02
 20
2.33910044E+02
 11
-4.30251020E+02
 21
2.32088243E+02
  0
LINE
  8
0
 62
7
 10
-4.31077385E+02
 20
2.20103429E+02
 11
-4.33137851E+02
 21
2.19740113E+02
  0
LINE
  8
0
 62
7
 10
-4.30251020E+02
 20
2.21088236E+02
 11
-4.30251020E+02
 21
2.22910049E+02
  0
LINE
  8
0
 62
7
 10
-4.31077374E+02
 20
2.23894851E+02
 11
-4.33137851E+02
 21
2.24258169E+02
  0
LINE
  8
0
 62
7
 10
-4.31251027E+02
 20
2.17249147E+02
 11
-4.31251027E+02
 21
2.15749143E+02
  0
LINE
  8
0
 62
7
 10
-4.33551027E+02
 20
2.18074244E+02
 11
-4.33551027E+02
 21
2.19247710E+02
  0
LINE
  8
0
 62
7
 10
-4.31251023E+02
 20
2.26749133E+02
 11
-4.33137852E+02
 21
2.26416434E+02
  0
LINE
  8
0
 62
7
 10
-4.33751027E+02
 20
2.44999140E+02
 11
-4.33751027E+02
 21
2.59999140E+02
  0
LINE
  8
0
 62
7
 10
-4.31077377E+02
 20
2.31103435E+02
 11
-4.33137844E+02
 21
2.30740119E+02
  0
LINE
  8
0
 62
7
 10
-4.31251022E+02
 20
2.28249138E+02
 11
-4.33137831E+02
 21
2.28581833E+02
  0
LINE
  8
0
 62
7
 10
-4.33551027E+02
 20
2.30247706E+02
 11
-4.33551027E+02
 21
2.29074251E+02
  0
LINE
  8
0
 62
7
 10
-4.33751027E+02
 20
2.44999140E+02
 11
-4.31251027E+02
 21
2.44999140E+02
  0
LINE
  8
0
 62
7
 10
-4.31251027E+02
 20
2.28249143E+02
 11
-4.31251027E+02
 21
2.26749149E+02
  0
LINE
  8
0
 62
7
 10
-4.33751027E+02
 20
1.94999146E+02
 11
-4.33751027E+02
 21
2.09999140E+02
  0
LINE
  8
0
 62
7
 10
-4.33751027E+02
 20
2.09999140E+02
 11
-4.31251027E+02
 21
2.09999140E+02
  0
LINE
  8
0
 62
7
 10
-4.31251027E+02
 20
2.37749147E+02
 11
-4.33137857E+02
 21
2.37416448E+02
  0
LINE
  8
0
 62
7
 10
-4.33551027E+02
 20
2.24750575E+02
 11
-4.33551027E+02
 21
2.25924041E+02
  0
LINE
  8
0
 62
7
 10
-4.31251036E+02
 20
2.40999139E+02
 11
-4.33088717E+02
 21
2.40675106E+02
  0
LINE
  8
0
 62
7
 10
-4.31251030E+02
 20
2.39249144E+02
 11
-4.33137838E+02
 21
2.39581839E+02
  0
LINE
  8
0
 62
7
 10
-4.31251034E+02
 20
2.13999142E+02
 11
-4.33088704E+02
 21
2.14323173E+02
  0
LINE
  8
0
 62
7
 10
-4.16751024E+02
 20
1.92999144E+02
 11
-4.16751024E+02
 21
1.95999147E+02
  0
LINE
  8
0
 62
7
 10
-4.33751027E+02
 20
2.59249149E+02
 11
-4.16751024E+02
 21
2.59249149E+02
  0
LINE
  8
0
 62
7
 10
-4.33751027E+02
 20
1.95749143E+02
 11
-4.16751024E+02
 21
1.95749143E+02
  0
LINE
  8
0
 62
7
 10
-4.31251014E+02
 20
2.17249137E+02
 11
-4.33137843E+02
 21
2.17581836E+02
  0
LINE
  8
0
 62
7
 10
-4.31251034E+02
 20
2.15749148E+02
 11
-4.33137853E+02
 21
2.15416451E+02
  0
LINE
  8
0
 62
7
 10
-4.31077383E+02
 20
2.34894852E+02
 11
-4.33137860E+02
 21
2.35258170E+02
  0
LINE
  8
0
 62
7
 10
-4.40251020E+02
 20
1.92999144E+02
 11
-4.16751024E+02
 21
1.92999144E+02
  0
LINE
  8
0
 62
7
 10
-4.31251027E+02
 20
2.40999147E+02
 11
-4.31251027E+02
 21
2.44999140E+02
  0
LINE
  8
0
 62
7
 10
-4.31251027E+02
 20
2.13999145E+02
 11
-4.31251027E+02
 21
2.09999140E+02
  0
LINE
  8
0
 62
7
 10
-4.33551027E+02
 20
2.36924037E+02
 11
-4.33551027E+02
 21
2.35750581E+02
  0
LINE
  8
0
 62
7
 10
-4.31251027E+02
 20
2.37749145E+02
 11
-4.31251027E+02
 21
2.39249149E+02
  0
LINE
  8
0
 62
7
 10
-1.91424649E+02
 20
2.34894860E+02
 11
-1.89364182E+02
 21
2.35258175E+02
  0
LINE
  8
0
 62
7
 10
-1.92251026E+02
 20
2.33910044E+02
 11
-1.92251026E+02
 21
2.32088243E+02
  0
LINE
  8
0
 62
7
 10
-1.82251026E+02
 20
2.61999143E+02
 11
-2.05751027E+02
 21
2.61999143E+02
  0
LINE
  8
0
 62
7
 10
-2.05751027E+02
 20
2.61999143E+02
 11
-2.05751027E+02
 21
2.58999145E+02
  0
LINE
  8
0
 62
7
 10
-1.88751025E+02
 20
2.59249149E+02
 11
-2.05751027E+02
 21
2.59249149E+02
  0
LINE
  8
0
 62
7
 10
-1.88751025E+02
 20
1.95749143E+02
 11
-2.05751027E+02
 21
1.95749143E+02
  0
LINE
  8
0
 62
7
 10
-2.05751027E+02
 20
1.92999144E+02
 11
-2.05751027E+02
 21
1.95999147E+02
  0
LINE
  8
0
 62
7
 10
-1.82251026E+02
 20
1.92999144E+02
 11
-2.05751027E+02
 21
1.92999144E+02
  0
LINE
  8
0
 62
7
 10
-1.91251025E+02
 20
2.37749145E+02
 11
-1.91251025E+02
 21
2.39249149E+02
  0
LINE
  8
0
 62
7
 10
-1.88951041E+02
 20
2.36924037E+02
 11
-1.88951041E+02
 21
2.35750581E+02
  0
LINE
  8
0
 62
7
 10
-1.91251025E+02
 20
2.13999145E+02
 11
-1.91251025E+02
 21
2.09999140E+02
  0
LINE
  8
0
 62
7
 10
-1.91251025E+02
 20
2.40999147E+02
 11
-1.91251025E+02
 21
2.44999140E+02
  0
LINE
  8
0
 62
7
 10
-1.91251030E+02
 20
2.13999144E+02
 11
-1.89413349E+02
 21
2.14323177E+02
  0
LINE
  8
0
 62
7
 10
-1.91251000E+02
 20
2.39249141E+02
 11
-1.89364181E+02
 21
2.39581838E+02
  0
LINE
  8
0
 62
7
 10
-1.91251021E+02
 20
2.40999146E+02
 11
-1.89413340E+02
 21
2.40675114E+02
  0
LINE
  8
0
 62
7
 10
-1.88951041E+02
 20
2.24750575E+02
 11
-1.88951041E+02
 21
2.25924041E+02
  0
LINE
  8
0
 62
7
 10
-1.91251047E+02
 20
2.37749147E+02
 11
-1.89364202E+02
 21
2.37416445E+02
  0
LINE
  8
0
 62
7
 10
-1.88751025E+02
 20
2.09999140E+02
 11
-1.91251025E+02
 21
2.09999140E+02
  0
LINE
  8
0
 62
7
 10
-1.88751025E+02
 20
1.94999146E+02
 11
-1.88751025E+02
 21
2.09999140E+02
  0
LINE
  8
0
 62
7
 10
-1.91251025E+02
 20
2.28249143E+02
 11
-1.91251025E+02
 21
2.26749149E+02
  0
LINE
  8
0
 62
7
 10
-1.88751025E+02
 20
2.44999140E+02
 11
-1.91251025E+02
 21
2.44999140E+02
  0
LINE
  8
0
 62
7
 10
-1.88951041E+02
 20
2.30247706E+02
 11
-1.88951041E+02
 21
2.29074251E+02
  0
LINE
  8
0
 62
7
 10
-1.91251031E+02
 20
2.28249142E+02
 11
-1.89364212E+02
 21
2.28581839E+02
  0
LINE
  8
0
 62
7
 10
-1.91424698E+02
 20
2.31103435E+02
 11
-1.89364231E+02
 21
2.30740119E+02
  0
LINE
  8
0
 62
7
 10
-1.88751025E+02
 20
2.44999140E+02
 11
-1.88751025E+02
 21
2.59999140E+02
  0
LINE
  8
0
 62
7
 10
-1.91251052E+02
 20
2.26749132E+02
 11
-1.89364206E+02
 21
2.26416431E+02
  0
LINE
  8
0
 62
7
 10
-1.88951041E+02
 20
2.18074244E+02
 11
-1.88951041E+02
 21
2.19247710E+02
  0
LINE
  8
0
 62
7
 10
-1.91424678E+02
 20
2.23894850E+02
 11
-1.89364201E+02
 21
2.24258167E+02
  0
LINE
  8
0
 62
7
 10
-1.91251017E+02
 20
2.17249139E+02
 11
-1.89364209E+02
 21
2.17581834E+02
  0
LINE
  8
0
 62
7
 10
-1.91251025E+02
 20
2.15749145E+02
 11
-1.89364206E+02
 21
2.15416448E+02
  0
LINE
  8
0
 62
7
 10
-1.91251025E+02
 20
2.17249147E+02
 11
-1.91251025E+02
 21
2.15749143E+02
  0
LINE
  8
0
 62
7
 10
-1.92251026E+02
 20
2.21088236E+02
 11
-1.92251026E+02
 21
2.22910049E+02
  0
LINE
  8
0
 62
7
 10
-1.91424672E+02
 20
2.20103437E+02
 11
-1.89364205E+02
 21
2.19740121E+02
  0
LINE
  8
0
 62
2
 10
-3.26751024E+02
 20
2.11499145E+02
 11
-3.15751023E+02
 21
2.11499145E+02
  0
LINE
  8
0
 62
2
 10
-3.21251021E+02
 20
2.16999143E+02
 11
-3.21251021E+02
 21
2.05999147E+02
  0
LINE
  8
0
  6
CENTER
 62
2
 10
-4.06751024E+02
 20
2.11499145E+02
 11
-3.95751018E+02
 21
2.11499145E+02
  0
LINE
  8
0
  6
CENTER
 62
2
 10
-4.01251027E+02
 20
2.16999143E+02
 11
-4.01251027E+02
 21
2.05999147E+02
  0
LINE
  8
0
 62
2
 10
-3.21251021E+02
 20
2.48999145E+02
 11
-3.21251021E+02
 21
2.37999149E+02
  0
LINE
  8
0
 62
2
 10
-3.26751024E+02
 20
2.43499147E+02
 11
-3.15751023E+02
 21
2.43499147E+02
  0
LINE
  8
0
 62
7
 10
-2.93251023E+02
 20
2.42499140E+02
 11
-2.94251022E+02
 21
2.42499140E+02
  0
LINE
  8
0
 62
7
 10
-4.28251018E+02
 20
2.12499140E+02
 11
-4.28251018E+02
 21
2.10499149E+02
  0
LINE
  8
0
 62
7
 10
-2.94251022E+02
 20
2.10499149E+02
 11
-2.94251022E+02
 21
2.12499140E+02
  0
LINE
  8
0
 62
7
 10
-4.29251024E+02
 20
2.12499140E+02
 11
-4.28251018E+02
 21
2.12499140E+02
  0
LINE
  8
0
 62
7
 10
-2.93251023E+02
 20
2.12499140E+02
 11
-2.94251022E+02
 21
2.12499140E+02
  0
LINE
  8
0
 62
7
 10
-3.01251021E+02
 20
2.37699140E+02
 11
-4.21251027E+02
 21
2.37699140E+02
  0
LINE
  8
0
 62
7
 10
-4.29251024E+02
 20
2.42499140E+02
 11
-4.28251018E+02
 21
2.42499140E+02
  0
LINE
  8
0
 62
7
 10
-2.93251023E+02
 20
2.42499140E+02
 11
-2.93251023E+02
 21
2.12499140E+02
  0
LINE
  8
0
 62
7
 10
-4.28251018E+02
 20
2.44499143E+02
 11
-4.28251018E+02
 21
2.42499140E+02
  0
LINE
  8
0
 62
7
 10
-3.02251022E+02
 20
2.52499140E+02
 11
-4.20251020E+02
 21
2.52499140E+02
  0
LINE
  8
0
 62
7
 10
-3.02251022E+02
 20
2.02499140E+02
 11
-4.20251020E+02
 21
2.02499140E+02
  0
LINE
  8
0
 62
7
 10
-4.29251024E+02
 20
2.42499140E+02
 11
-4.29251024E+02
 21
2.12499140E+02
  0
LINE
  8
0
 62
7
 10
-2.94251022E+02
 20
2.44499143E+02
 11
-2.94251022E+02
 21
2.42499140E+02
  0
LINE
  8
0
 62
7
 10
-3.01251021E+02
 20
2.17299152E+02
 11
-4.21251027E+02
 21
2.17299152E+02
  0
LINE
  8
0
 62
7
 10
-3.00251023E+02
 20
2.18299148E+02
 11
-3.00251023E+02
 21
2.36699144E+02
  0
LINE
  8
0
 62
7
 10
-4.22251022E+02
 20
2.18299148E+02
 11
-4.22251022E+02
 21
2.36699144E+02
  0
LINE
  8
0
  6
CENTER
 62
2
 10
-4.06751024E+02
 20
2.43499147E+02
 11
-3.95751018E+02
 21
2.43499147E+02
  0
LINE
  8
0
  6
CENTER
 62
2
 10
-4.01251027E+02
 20
2.48999145E+02
 11
-4.01251027E+02
 21
2.37999149E+02
  0
LINE
  8
0
  6
CENTER
 62
2
 10
-4.69251014E+02
 20
2.27499140E+02
 11
-1.53251022E+02
 21
2.27499140E+02
  0
LINE
  8
0
 62
7
 10
-4.33751027E+02
 20
1.95999147E+02
 11
-1.88751025E+02
 21
1.95999147E+02
  0
LINE
  8
0
 62
7
 10
-4.33751027E+02
 20
1.98999145E+02
 11
-1.88751025E+02
 21
1.98999145E+02
  0
LINE
  8
0
 62
7
 10
-4.33751027E+02
 20
2.55999147E+02
 11
-1.88751025E+02
 21
2.55999147E+02
  0
LINE
  8
0
  6
CENTER
 62
2
 10
-4.47251022E+02
 20
2.19499143E+02
 11
-4.47251022E+02
 21
2.03499147E+02
  0
LINE
  8
0
 62
7
 10
-4.40251020E+02
 20
2.30249145E+02
 11
-4.64251014E+02
 21
2.30249145E+02
  0
LINE
  8
0
 62
7
 10
-4.40251020E+02
 20
2.24749147E+02
 11
-4.64251014E+02
 21
2.24749147E+02
  0
LINE
  8
0
 62
7
 10
-4.40251020E+02
 20
1.92499146E+02
 11
-4.40251020E+02
 21
2.07626159E+02
  0
LINE
  8
0
 62
7
 10
-4.40251020E+02
 20
2.15372131E+02
 11
-4.40251020E+02
 21
2.39626161E+02
  0
LINE
  8
0
 62
7
 10
-4.40251020E+02
 20
2.47372133E+02
 11
-4.40251020E+02
 21
2.62499140E+02
  0
LINE
  8
0
  6
CENTER
 62
2
 10
-4.55251031E+02
 20
2.11499145E+02
 11
-4.39251024E+02
 21
2.11499145E+02
  0
LINE
  8
0
 62
7
 10
-4.64251014E+02
 20
1.94499143E+02
 11
-4.64251014E+02
 21
2.60499149E+02
  0
LINE
  8
0
 62
7
 10
-4.62251022E+02
 20
2.62499140E+02
 11
-1.60251024E+02
 21
2.62499140E+02
  0
LINE
  8
0
  6
CENTER
 62
2
 10
-4.47251022E+02
 20
2.51499145E+02
 11
-4.47251022E+02
 21
2.35499149E+02
  0
LINE
  8
0
  6
CENTER
 62
2
 10
-1.83251027E+02
 20
2.11499145E+02
 11
-1.67251026E+02
 21
2.11499145E+02
  0
LINE
  8
0
  6
CENTER
 62
2
 10
-1.75251024E+02
 20
2.19499143E+02
 11
-1.75251024E+02
 21
2.03499147E+02
  0
LINE
  8
0
 62
7
 10
-1.82251026E+02
 20
2.30249145E+02
 11
-1.58251022E+02
 21
2.30249145E+02
  0
LINE
  8
0
 62
7
 10
-1.82251026E+02
 20
2.24749147E+02
 11
-1.58251022E+02
 21
2.24749147E+02
  0
LINE
  8
0
 62
7
 10
-1.82251026E+02
 20
1.92499146E+02
 11
-1.82251026E+02
 21
2.07626159E+02
  0
LINE
  8
0
 62
7
 10
-1.82251026E+02
 20
2.15372131E+02
 11
-1.82251026E+02
 21
2.39626161E+02
  0
LINE
  8
0
 62
7
 10
-1.82251026E+02
 20
2.47372133E+02
 11
-1.82251026E+02
 21
2.62499140E+02
  0
LINE
  8
0
  6
CENTER
 62
2
 10
-1.75251024E+02
 20
2.51499145E+02
 11
-1.75251024E+02
 21
2.35499149E+02
  0
LINE
  8
0
  6
CENTER
 62
2
 10
-1.83251027E+02
 20
2.43499147E+02
 11
-1.67251026E+02
 21
2.43499147E+02
  0
LINE
  8
0
 62
7
 10
-1.58251022E+02
 20
1.94499143E+02
 11
-1.58251022E+02
 21
2.60499149E+02
  0
LINE
  8
0
 62
7
 10
-4.62251022E+02
 20
1.92499146E+02
 11
-1.60251024E+02
 21
1.92499146E+02
  0
LINE
  8
0
  6
PHANTOM
 10
-2.59751019E+02
 20
-1.78437555E+02
 11
-2.59751019E+02
 21
-2.86480083E+02
  0
LINE
  8
0
 62
7
 10
-2.93251020E+02
 20
-2.24782460E+02
 11
-4.29251018E+02
 21
-2.24782460E+02
  0
LINE
  8
0
 62
4
 10
-4.64251014E+02
 20
-2.72782470E+02
 11
-4.64251014E+02
 21
-2.01782462E+02
  0
LINE
  8
0
 62
4
 10
-4.40346591E+02
 20
-2.59363670E+02
 11
-4.39877996E+02
 21
-2.72782463E+02
  0
LINE
  8
0
 62
4
 10
-4.52339283E+02
 20
-2.47782469E+02
 11
-4.63251018E+02
 21
-2.47782469E+02
  0
LINE
  8
0
 62
4
 10
-4.64224137E+02
 20
-2.47012768E+02
 11
-4.62643441E+02
 21
-2.01747558E+02
  0
LINE
  8
0
 62
4
 10
-4.61644055E+02
 20
-2.00782461E+02
 11
-4.35253216E+02
 21
-2.00782461E+02
  0
LINE
  8
0
 62
4
 10
-3.96251017E+02
 20
-2.44782472E+02
 11
-4.25096317E+02
 21
-2.44782472E+02
  0
LINE
  8
0
  6
DASHED
 62
6
 10
-4.33597844E+02
 20
-2.21532464E+02
 11
-4.64251014E+02
 21
-2.21532464E+02
  0
LINE
  8
0
  6
DASHED
 62
6
 10
-4.34174032E+02
 20
-2.05032459E+02
 11
-4.64251014E+02
 21
-2.05032459E+02
  0
LINE
  8
0
  6
DASHED
 62
6
 10
-4.34200223E+02
 20
-2.04282462E+02
 11
-4.64251014E+02
 21
-2.04282462E+02
  0
LINE
  8
0
  6
DASHED
 62
6
 10
-4.33571654E+02
 20
-2.22282460E+02
 11
-4.64251014E+02
 21
-2.22282460E+02
  0
LINE
  8
0
 62
4
 10
-3.96251016E+02
 20
-2.44782481E+02
 11
-3.95273235E+02
 21
-2.72782470E+02
  0
LINE
  8
0
 62
4
 10
-4.33186869E+02
 20
-2.32300999E+02
 11
-4.34253818E+02
 21
-2.01747564E+02
  0
LINE
  8
0
 62
4
 10
-4.26828362E+02
 20
-2.43782459E+02
 11
-4.32920137E+02
 21
-2.33231196E+02
  0
LINE
  8
0
 62
4
 10
-4.64251014E+02
 20
-2.01782462E+02
 11
-4.62644666E+02
 21
-2.01782462E+02
  0
LINE
  8
0
  6
CENTER
 62
6
 10
-4.10860761E+02
 20
-2.13282461E+02
 11
-5.03843909E+02
 21
-2.13282461E+02
  0
LINE
  8
0
  6
DASHED
 62
6
 10
-4.33751021E+02
 20
-2.21282469E+02
 11
-4.34751016E+02
 21
-2.22282464E+02
  0
LINE
  8
0
 62
4
 10
-4.97751021E+02
 20
-2.12632459E+02
 11
-4.99251014E+02
 21
-2.12632459E+02
  0
LINE
  8
0
 62
4
 10
-4.99251014E+02
 20
-2.13932464E+02
 11
-4.99251014E+02
 21
-2.21282459E+02
  0
LINE
  8
0
 62
6
 10
-4.98251018E+02
 20
-2.13932464E+02
 11
-4.98251018E+02
 21
-2.22282460E+02
  0
LINE
  8
0
 62
4
 10
-4.97751021E+02
 20
-2.12632459E+02
 11
-4.97751021E+02
 21
-2.13932464E+02
  0
LINE
  8
0
 62
4
 10
-4.97751021E+02
 20
-2.13932464E+02
 11
-4.99251014E+02
 21
-2.13932464E+02
  0
LINE
  8
0
  6
PHANTOM
 62
6
 10
-4.14251015E+02
 20
-2.10782461E+02
 11
-4.29251018E+02
 21
-2.10782461E+02
  0
LINE
  8
0
 62
4
 10
-4.33751021E+02
 20
-2.21282459E+02
 11
-4.29251018E+02
 21
-2.21282459E+02
  0
LINE
  8
0
 62
4
 10
-4.33751020E+02
 20
-2.05282466E+02
 11
-4.34144110E+02
 21
-2.04889377E+02
  0
LINE
  8
0
  6
PHANTOM
 62
6
 10
-4.14251015E+02
 20
-2.15782461E+02
 11
-4.29251018E+02
 21
-2.15782461E+02
  0
LINE
  8
0
 62
4
 10
-4.33751021E+02
 20
-2.05282463E+02
 11
-4.29251018E+02
 21
-2.05282463E+02
  0
LINE
  8
0
 62
4
 10
-4.98251018E+02
 20
-2.04282459E+02
 11
-4.99251021E+02
 21
-2.05282462E+02
  0
LINE
  8
0
 62
6
 10
-4.98251018E+02
 20
-2.04282462E+02
 11
-4.98251018E+02
 21
-2.12632459E+02
  0
LINE
  8
0
 62
4
 10
-4.99251016E+02
 20
-2.21282462E+02
 11
-4.98251017E+02
 21
-2.22282461E+02
  0
LINE
  8
0
 62
4
 10
-4.99251014E+02
 20
-2.05282463E+02
 11
-4.99251014E+02
 21
-2.12632459E+02
  0
LINE
  8
0
 62
4
 10
-4.33751021E+02
 20
-2.05282463E+02
 11
-4.33751021E+02
 21
-2.16146013E+02
  0
LINE
  8
0
  6
DASHED
 62
6
 10
-4.34751016E+02
 20
-2.04282462E+02
 11
-4.34751016E+02
 21
-2.22282460E+02
  0
LINE
  8
0
  6
PHANTOM
 62
6
 10
-4.14251015E+02
 20
-2.10782461E+02
 11
-4.14251015E+02
 21
-2.15782461E+02
  0
LINE
  8
0
 62
4
 10
-4.72251012E+02
 20
-2.01158105E+02
 11
-4.65251020E+02
 21
-2.01158105E+02
  0
LINE
  8
0
 62
4
 10
-4.72251012E+02
 20
-2.01158105E+02
 11
-4.72251012E+02
 21
-2.25406817E+02
  0
LINE
  8
0
 62
4
 10
-4.72251012E+02
 20
-2.19344642E+02
 11
-4.65251020E+02
 21
-2.19344642E+02
  0
LINE
  8
0
 62
4
 10
-4.72251012E+02
 20
-2.07220281E+02
 11
-4.65251020E+02
 21
-2.07220281E+02
  0
LINE
  8
0
 62
4
 10
-4.72251012E+02
 20
-2.25406817E+02
 11
-4.65251020E+02
 21
-2.25406817E+02
  0
LINE
  8
0
 62
4
 10
-4.72251012E+02
 20
-2.22282460E+02
 11
-4.98251018E+02
 21
-2.22282460E+02
  0
LINE
  8
0
 62
6
 10
-4.72251012E+02
 20
-2.21532464E+02
 11
-4.99001021E+02
 21
-2.21532464E+02
  0
LINE
  8
0
 62
6
 10
-4.72251012E+02
 20
-2.05032459E+02
 11
-4.99251014E+02
 21
-2.05032459E+02
  0
LINE
  8
0
 62
4
 10
-4.72251012E+02
 20
-2.04282462E+02
 11
-4.98251018E+02
 21
-2.04282462E+02
  0
LINE
  8
0
  6
DASHED
 62
6
 10
-4.33751021E+02
 20
-2.16146013E+02
 11
-4.33751021E+02
 21
-2.21282459E+02
  0
LINE
  8
0
  6
DASHED
 62
6
 10
-4.34144110E+02
 20
-2.04889377E+02
 11
-4.34751021E+02
 21
-2.04282466E+02
  0
LINE
  8
0
 62
4
 10
-2.94010211E+02
 20
-2.18189939E+02
 11
-2.99751019E+02
 21
-2.18189939E+02
  0
LINE
  8
0
 62
4
 10
-4.28491828E+02
 20
-2.08374984E+02
 11
-4.22751019E+02
 21
-2.08374984E+02
  0
LINE
  8
0
 62
4
 10
-2.94010211E+02
 20
-2.08374984E+02
 11
-2.99751019E+02
 21
-2.08374984E+02
  0
LINE
  8
0
 62
4
 10
-4.28491828E+02
 20
-2.18189939E+02
 11
-4.22751019E+02
 21
-2.18189939E+02
  0
LINE
  8
0
 62
4
 10
-4.22751019E+02
 20
-1.98782464E+02
 11
-2.99751019E+02
 21
-1.98782464E+02
  0
LINE
  8
0
 62
4
 10
-2.99751019E+02
 20
-1.98782464E+02
 11
-2.99751019E+02
 21
-2.24782460E+02
  0
LINE
  8
0
 62
4
 10
-4.22751019E+02
 20
-1.98782464E+02
 11
-4.22751019E+02
 21
-2.24782460E+02
  0
LINE
  8
0
 62
4
 10
-4.28491828E+02
 20
-2.23097421E+02
 11
-4.22751019E+02
 21
-2.23097421E+02
  0
LINE
  8
0
 62
4
 10
-4.29251021E+02
 20
-2.21782466E+02
 11
-4.28491833E+02
 21
-2.23097420E+02
  0
LINE
  8
0
 62
4
 10
-4.29251017E+02
 20
-2.04782467E+02
 11
-4.28491827E+02
 21
-2.03467511E+02
  0
LINE
  8
0
 62
4
 10
-2.94010211E+02
 20
-2.03467512E+02
 11
-2.99751019E+02
 21
-2.03467512E+02
  0
LINE
  8
0
 62
4
 10
-2.93251018E+02
 20
-2.04782471E+02
 11
-2.94010208E+02
 21
-2.03467515E+02
  0
LINE
  8
0
 62
4
 10
-2.94010211E+02
 20
-2.23097421E+02
 11
-2.99751019E+02
 21
-2.23097421E+02
  0
LINE
  8
0
 62
4
 10
-4.28491828E+02
 20
-2.03467512E+02
 11
-4.22751019E+02
 21
-2.03467512E+02
  0
LINE
  8
0
 62
4
 10
-2.93251015E+02
 20
-2.21782465E+02
 11
-2.94010205E+02
 21
-2.23097421E+02
  0
LINE
  8
0
 62
4
 10
-2.93251020E+02
 20
-2.21782463E+02
 11
-2.93251020E+02
 21
-2.04782465E+02
  0
LINE
  8
0
 62
4
 10
-4.29251018E+02
 20
-2.04782465E+02
 11
-4.29251018E+02
 21
-2.21782463E+02
  0
LINE
  8
0
 62
4
 10
-2.99751019E+02
 20
-2.08782464E+02
 11
-4.22751019E+02
 21
-2.08782464E+02
  0
LINE
  8
0
 62
4
 10
-2.99751019E+02
 20
-2.08282467E+02
 11
-4.22751019E+02
 21
-2.08282467E+02
  0
LINE
  8
0
 62
4
 10
-2.99751019E+02
 20
-2.14782460E+02
 11
-4.22751019E+02
 21
-2.14782460E+02
  0
LINE
  8
0
 62
4
 10
-2.99751019E+02
 20
-2.15282463E+02
 11
-4.22751019E+02
 21
-2.15282463E+02
  0
LINE
  8
0
 62
7
 10
-2.05751017E+02
 20
-2.41832468E+02
 11
-4.16751018E+02
 21
-2.41832468E+02
  0
LINE
  8
0
 62
7
 10
-1.93209572E+02
 20
-2.39514511E+02
 11
-4.29292473E+02
 21
-2.39514511E+02
  0
LINE
  8
0
 62
7
 10
-4.30292469E+02
 20
-2.37782464E+02
 11
-1.92209574E+02
 21
-2.37782464E+02
  0
LINE
  8
0
 62
7
 10
-2.05751017E+02
 20
-2.43732471E+02
 11
-4.16751018E+02
 21
-2.43732471E+02
  0
LINE
  8
0
 62
7
 10
-2.26292924E+02
 20
-2.45982466E+02
 11
-3.96209110E+02
 21
-2.45982466E+02
  0
LINE
  8
0
 62
7
 10
-2.26474512E+02
 20
-2.51182477E+02
 11
-3.96027522E+02
 21
-2.51182477E+02
  0
LINE
  8
0
 62
7
 10
-2.26586258E+02
 20
-2.54382474E+02
 11
-3.95915776E+02
 21
-2.54382474E+02
  0
LINE
  8
0
 62
7
 10
-2.26921498E+02
 20
-2.63982475E+02
 11
-3.95580538E+02
 21
-2.63982475E+02
  0
LINE
  8
0
 62
7
 10
-2.27071657E+02
 20
-2.68282468E+02
 11
-3.95430378E+02
 21
-2.68282468E+02
  0
LINE
  8
0
 62
4
 10
-4.40251020E+02
 20
-2.72782470E+02
 11
-3.95273235E+02
 21
-2.72782470E+02
  0
LINE
  8
0
 62
4
 10
-4.40251020E+02
 20
-2.72782470E+02
 11
-4.64251014E+02
 21
-2.72782470E+02
  0
LINE
  8
0
  6
CENTER
 62
6
 10
-4.61751019E+02
 20
-2.59782472E+02
 11
-4.43751021E+02
 21
-2.59782472E+02
  0
LINE
  8
0
  6
CENTER
 62
6
 10
-4.52751020E+02
 20
-2.50782467E+02
 11
-4.52751020E+02
 21
-2.68782465E+02
  0
LINE
  8
0
 62
7
 10
-4.33379584E+02
 20
-2.26782463E+02
 11
-4.30251020E+02
 21
-2.26782463E+02
  0
LINE
  8
0
 62
7
 10
-4.30251020E+02
 20
-2.33282467E+02
 11
-4.30251020E+02
 21
-2.26782463E+02
  0
LINE
  8
0
 62
7
 10
-4.29137771E+02
 20
-2.39782466E+02
 11
-4.16751018E+02
 21
-2.39782466E+02
  0
LINE
  8
0
 62
7
 10
-4.32890545E+02
 20
-2.33282467E+02
 11
-4.30251020E+02
 21
-2.33282467E+02
  0
LINE
  8
0
 62
7
 10
-4.31251021E+02
 20
-2.33282467E+02
 11
-4.31251021E+02
 21
-2.26782463E+02
  0
LINE
  8
0
 62
7
 10
-4.16751018E+02
 20
-2.44782472E+02
 11
-4.16751018E+02
 21
-2.39782466E+02
  0
LINE
  8
0
 62
7
 10
-3.61251017E+02
 20
-2.33282462E+02
 11
-2.93251020E+02
 21
-2.33282462E+02
  0
LINE
  8
0
 62
7
 10
-2.93251020E+02
 20
-2.24782460E+02
 11
-2.93251020E+02
 21
-2.33282462E+02
  0
LINE
  8
0
 62
7
 10
-2.94751019E+02
 20
-2.33832459E+02
 11
-2.94751019E+02
 21
-2.36122700E+02
  0
LINE
  8
0
 62
7
 10
-2.92878854E+02
 20
-2.37163739E+02
 11
-2.94424579E+02
 21
-2.36591610E+02
  0
LINE
  8
0
 62
7
 10
-2.94751019E+02
 20
-2.36470786E+02
 11
-3.61251017E+02
 21
-2.36470786E+02
  0
LINE
  8
0
 62
7
 10
-2.92716669E+02
 20
-2.37782462E+02
 11
-2.92878857E+02
 21
-2.37163739E+02
  0
LINE
  8
0
 62
7
 10
-4.29251018E+02
 20
-2.24782460E+02
 11
-4.29251018E+02
 21
-2.33282462E+02
  0
LINE
  8
0
 62
7
 10
-4.27751019E+02
 20
-2.36470786E+02
 11
-3.61251017E+02
 21
-2.36470786E+02
  0
LINE
  8
0
 62
7
 10
-4.29785374E+02
 20
-2.37782457E+02
 11
-4.29623186E+02
 21
-2.37163735E+02
  0
LINE
  8
0
 62
7
 10
-4.27401010E+02
 20
-2.33482461E+02
 11
-3.61251017E+02
 21
-2.33482461E+02
  0
LINE
  8
0
 62
7
 10
-3.61251017E+02
 20
-2.33282462E+02
 11
-4.29251018E+02
 21
-2.33282462E+02
  0
LINE
  8
0
 62
7
 10
-4.27751019E+02
 20
-2.33832459E+02
 11
-4.27751019E+02
 21
-2.36122700E+02
  0
LINE
  8
0
 62
7
 10
-4.29623179E+02
 20
-2.37163748E+02
 11
-4.28077454E+02
 21
-2.36591619E+02
  0
LINE
  8
0
 62
7
 10
-2.95101023E+02
 20
-2.33482461E+02
 11
-3.61251017E+02
 21
-2.33482461E+02
  0
ARC
  8
0
 62
4
 10
-4.63251018E+02
 20
-2.46782463E+02
 40
1.00000000E+00
 50
1.80000000E+02
 51
2.70000000E+02
  0
ARC
  8
0
 62
4
 10
-4.25096317E+02
 20
-2.42782469E+02
 40
2.00000000E+00
 50
2.10000001E+02
 51
2.70000000E+02
  0
ARC
  8
0
 62
4
 10
-4.52339283E+02
 20
-2.59782472E+02
 40
1.19999997E+01
 50
1.99999732E+00
 51
9.00000002E+01
  0
ARC
  8
0
 62
4
 10
-4.31188094E+02
 20
-2.32231202E+02
 40
2.00000000E+00
 50
1.82000000E+02
 51
2.10000001E+02
  0
ARC
  8
0
 62
4
 10
-4.35253216E+02
 20
-2.01782462E+02
 40
1.00000000E+00
 50
1.99999732E+00
 51
9.00000002E+01
  0
ARC
  8
0
 62
4
 10
-4.61644055E+02
 20
-2.01782462E+02
 40
1.00000000E+00
 50
9.00000002E+01
 51
1.78000000E+02
  0
ARC
  8
0
 62
4
 10
-4.69234828E+02
 20
-2.04189198E+02
 40
5.00582159E+00
 50
3.22734250E+02
 51
3.72657530E+01
  0
ARC
  8
0
 62
4
 10
-4.83126016E+02
 20
-2.13282461E+02
 40
1.88749998E+01
 50
3.41266002E+02
 51
1.87340018E+01
  0
ARC
  8
0
 62
4
 10
-4.69234828E+02
 20
-2.22375724E+02
 40
5.00582159E+00
 50
3.22734250E+02
 51
3.72657530E+01
  0
ARC
  8
0
 62
4
 10
-2.97595923E+02
 20
-2.05921251E+02
 40
4.34489871E+00
 50
3.25615757E+02
 51
8.65142189E-06
  0
ARC
  8
0
 62
4
 10
-4.24906122E+02
 20
-2.20643677E+02
 40
4.34489871E+00
 50
1.45615752E+02
 51
1.80000000E+02
  0
ARC
  8
0
 62
4
 10
-4.13010206E+02
 20
-2.13282461E+02
 40
1.62408109E+01
 50
1.80000000E+02
 51
1.97587954E+02
  0
ARC
  8
0
 62
4
 10
-4.24906122E+02
 20
-2.05921251E+02
 40
4.34489871E+00
 50
1.80000000E+02
 51
2.14384248E+02
  0
ARC
  8
0
 62
4
 10
-2.97595923E+02
 20
-2.20643677E+02
 40
4.34489871E+00
 50
3.59999995E+02
 51
3.43842464E+01
  0
ARC
  8
0
 62
4
 10
-4.13010206E+02
 20
-2.13282461E+02
 40
1.62408109E+01
 50
1.62412046E+02
 51
1.80000000E+02
  0
CIRCLE
  8
0
 62
4
 10
-4.52751020E+02
 20
-2.59782472E+02
 40
8.00000000E+00
  0
CIRCLE
  8
0
 62
6
 10
-4.52751020E+02
 20
-2.59782472E+02
 40
6.49999970E+00
  0
CIRCLE
  8
0
 62
4
 10
-4.52751020E+02
 20
-2.59782472E+02
 40
5.49999996E+00
  0
ARC
  8
0
 62
7
 10
-2.96401012E+02
 20
-2.33632460E+02
 40
3.49999991E-01
 50
2.53771394E+01
 51
9.00000002E+01
  0
ARC
  8
0
 62
7
 10
-2.95101023E+02
 20
-2.33832459E+02
 40
3.49999991E-01
 50
3.59999995E+02
 51
9.00000002E+01
  0
ARC
  8
0
 62
7
 10
-2.94251022E+02
 20
-2.36122700E+02
 40
5.00000000E-01
 50
1.80000000E+02
 51
2.49688666E+02
  0
ARC
  8
0
 62
7
 10
-4.26101027E+02
 20
-2.33632460E+02
 40
3.49999991E-01
 50
9.00000002E+01
 51
1.54622859E+02
  0
ARC
  8
0
 62
7
 10
-4.27401010E+02
 20
-2.33832459E+02
 40
3.49999991E-01
 50
9.00000002E+01
 51
1.80000005E+02
  0
ARC
  8
0
 62
7
 10
-4.28251017E+02
 20
-2.36122700E+02
 40
5.00000000E-01
 50
2.90311343E+02
 51
8.65142138E-06
  0
LINE
  8
0
 62
7
 10
-3.95273235E+02
 20
-2.72782470E+02
 11
-2.27228800E+02
 21
-2.72782470E+02
  0
LINE
  8
0
 62
4
 10
-1.60857981E+02
 20
-2.00782461E+02
 11
-1.87248820E+02
 21
-2.00782461E+02
  0
LINE
  8
0
  6
DASHED
 62
6
 10
-1.88904191E+02
 20
-2.21532464E+02
 11
-1.58251022E+02
 21
-2.21532464E+02
  0
LINE
  8
0
  6
DASHED
 62
6
 10
-1.88328003E+02
 20
-2.05032459E+02
 11
-1.58251022E+02
 21
-2.05032459E+02
  0
LINE
  8
0
  6
DASHED
 62
6
 10
-1.88301812E+02
 20
-2.04282462E+02
 11
-1.58251022E+02
 21
-2.04282462E+02
  0
LINE
  8
0
  6
DASHED
 62
6
 10
-1.88930382E+02
 20
-2.22282460E+02
 11
-1.58251022E+02
 21
-2.22282460E+02
  0
LINE
  8
0
  6
CENTER
 62
6
 10
-2.11641274E+02
 20
-2.13282461E+02
 11
-1.18658127E+02
 21
-2.13282461E+02
  0
LINE
  8
0
 62
4
 10
-1.82251016E+02
 20
-2.72782470E+02
 11
-1.58251022E+02
 21
-2.72782470E+02
  0
ARC
  8
0
 62
4
 10
-1.70162752E+02
 20
-2.59782472E+02
 40
1.19999997E+01
 50
9.00000002E+01
 51
1.78000003E+02
  0
CIRCLE
  8
0
 62
4
 10
-1.69751016E+02
 20
-2.59782472E+02
 40
5.49999996E+00
  0
CIRCLE
  8
0
 62
6
 10
-1.69751016E+02
 20
-2.59782472E+02
 40
6.49999970E+00
  0
CIRCLE
  8
0
 62
4
 10
-1.69751016E+02
 20
-2.59782472E+02
 40
8.00000000E+00
  0
ARC
  8
0
 62
4
 10
-1.53267207E+02
 20
-2.22375724E+02
 40
5.00582159E+00
 50
1.42734247E+02
 51
2.17265749E+02
  0
ARC
  8
0
 62
4
 10
-1.39376019E+02
 20
-2.13282461E+02
 40
1.88749998E+01
 50
1.61265998E+02
 51
1.98733998E+02
  0
ARC
  8
0
 62
4
 10
-1.53267207E+02
 20
-2.04189198E+02
 40
5.00582159E+00
 50
1.42734247E+02
 51
2.17265749E+02
  0
ARC
  8
0
 62
4
 10
-1.60857981E+02
 20
-2.01782462E+02
 40
1.00000000E+00
 50
1.99999999E+00
 51
9.00000002E+01
  0
ARC
  8
0
 62
4
 10
-1.59251018E+02
 20
-2.46782463E+02
 40
1.00000000E+00
 50
2.70000000E+02
 51
0.00000000E+00
  0
LINE
  8
0
  6
CENTER
 62
6
 10
-1.69751016E+02
 20
-2.50782467E+02
 11
-1.69751016E+02
 21
-2.68782465E+02
  0
LINE
  8
0
  6
CENTER
 62
6
 10
-1.60751017E+02
 20
-2.59782472E+02
 11
-1.78751015E+02
 21
-2.59782472E+02
  0
LINE
  8
0
 62
4
 10
-1.50251024E+02
 20
-2.04282462E+02
 11
-1.24251017E+02
 21
-2.04282462E+02
  0
LINE
  8
0
 62
6
 10
-1.50251024E+02
 20
-2.05032459E+02
 11
-1.23251021E+02
 21
-2.05032459E+02
  0
LINE
  8
0
 62
6
 10
-1.50251024E+02
 20
-2.21532464E+02
 11
-1.23501015E+02
 21
-2.21532464E+02
  0
LINE
  8
0
 62
4
 10
-1.50251024E+02
 20
-2.22282460E+02
 11
-1.24251017E+02
 21
-2.22282460E+02
  0
LINE
  8
0
 62
4
 10
-1.50251024E+02
 20
-2.25406817E+02
 11
-1.57251015E+02
 21
-2.25406817E+02
  0
LINE
  8
0
 62
4
 10
-1.50251024E+02
 20
-2.07220281E+02
 11
-1.57251015E+02
 21
-2.07220281E+02
  0
LINE
  8
0
 62
4
 10
-1.50251024E+02
 20
-2.19344642E+02
 11
-1.57251015E+02
 21
-2.19344642E+02
  0
LINE
  8
0
 62
4
 10
-1.50251024E+02
 20
-2.01158105E+02
 11
-1.50251024E+02
 21
-2.25406817E+02
  0
LINE
  8
0
 62
4
 10
-1.50251024E+02
 20
-2.01158105E+02
 11
-1.57251015E+02
 21
-2.01158105E+02
  0
LINE
  8
0
 62
4
 10
-1.23251021E+02
 20
-2.05282463E+02
 11
-1.23251021E+02
 21
-2.12632459E+02
  0
LINE
  8
0
 62
4
 10
-1.23251019E+02
 20
-2.21282462E+02
 11
-1.24251018E+02
 21
-2.22282461E+02
  0
LINE
  8
0
 62
6
 10
-1.24251017E+02
 20
-2.04282462E+02
 11
-1.24251017E+02
 21
-2.12632459E+02
  0
LINE
  8
0
 62
4
 10
-1.24251017E+02
 20
-2.04282459E+02
 11
-1.23251015E+02
 21
-2.05282462E+02
  0
LINE
  8
0
 62
4
 10
-1.24751015E+02
 20
-2.13932464E+02
 11
-1.23251021E+02
 21
-2.13932464E+02
  0
LINE
  8
0
 62
4
 10
-1.24751015E+02
 20
-2.12632459E+02
 11
-1.24751015E+02
 21
-2.13932464E+02
  0
LINE
  8
0
 62
6
 10
-1.24251017E+02
 20
-2.13932464E+02
 11
-1.24251017E+02
 21
-2.22282460E+02
  0
LINE
  8
0
 62
4
 10
-1.23251021E+02
 20
-2.13932464E+02
 11
-1.23251021E+02
 21
-2.21282459E+02
  0
LINE
  8
0
 62
4
 10
-1.24751015E+02
 20
-2.12632459E+02
 11
-1.23251021E+02
 21
-2.12632459E+02
  0
LINE
  8
0
 62
4
 10
-1.58251022E+02
 20
-2.01782462E+02
 11
-1.59857369E+02
 21
-2.01782462E+02
  0
LINE
  8
0
 62
4
 10
-1.58277898E+02
 20
-2.47012768E+02
 11
-1.59858594E+02
 21
-2.01747558E+02
  0
LINE
  8
0
 62
4
 10
-1.70162752E+02
 20
-2.47782469E+02
 11
-1.59251018E+02
 21
-2.47782469E+02
  0
LINE
  8
0
 62
4
 10
-1.58251022E+02
 20
-2.72782470E+02
 11
-1.58251022E+02
 21
-2.01782462E+02
  0
LINE
  8
0
 62
4
 10
-2.26251018E+02
 20
-2.44782472E+02
 11
-1.97405718E+02
 21
-2.44782472E+02
  0
LINE
  8
0
 62
4
 10
-1.95673673E+02
 20
-2.43782459E+02
 11
-1.89581898E+02
 21
-2.33231196E+02
  0
ARC
  8
0
 62
4
 10
-1.97405718E+02
 20
-2.42782469E+02
 40
2.00000000E+00
 50
2.70000000E+02
 51
3.29999999E+02
  0
LINE
  8
0
 62
4
 10
-2.26251019E+02
 20
-2.44782481E+02
 11
-2.27228800E+02
 21
-2.72782470E+02
  0
LINE
  8
0
 62
4
 10
-1.82251016E+02
 20
-2.72782470E+02
 11
-2.27228800E+02
 21
-2.72782470E+02
  0
LINE
  8
0
 62
4
 10
-1.82155445E+02
 20
-2.59363670E+02
 11
-1.82624039E+02
 21
-2.72782463E+02
  0
LINE
  8
0
 62
4
 10
-1.89315167E+02
 20
-2.32300999E+02
 11
-1.88248217E+02
 21
-2.01747564E+02
  0
LINE
  8
0
 62
4
 10
-1.88751015E+02
 20
-2.21282459E+02
 11
-1.93251017E+02
 21
-2.21282459E+02
  0
LINE
  8
0
 62
4
 10
-1.88751015E+02
 20
-2.05282463E+02
 11
-1.93251017E+02
 21
-2.05282463E+02
  0
ARC
  8
0
 62
4
 10
-1.87248820E+02
 20
-2.01782462E+02
 40
1.00000000E+00
 50
9.00000002E+01
 51
1.78000003E+02
  0
LINE
  8
0
  6
DASHED
 62
6
 10
-1.88357926E+02
 20
-2.04889377E+02
 11
-1.87751015E+02
 21
-2.04282466E+02
  0
LINE
  8
0
  6
DASHED
 62
6
 10
-1.88751015E+02
 20
-2.16146013E+02
 11
-1.88751015E+02
 21
-2.21282459E+02
  0
LINE
  8
0
  6
DASHED
 62
6
 10
-1.87751019E+02
 20
-2.04282462E+02
 11
-1.87751019E+02
 21
-2.22282460E+02
  0
LINE
  8
0
 62
4
 10
-1.88751015E+02
 20
-2.05282463E+02
 11
-1.88751015E+02
 21
-2.16146013E+02
  0
LINE
  8
0
 62
4
 10
-1.88751015E+02
 20
-2.05282466E+02
 11
-1.88357926E+02
 21
-2.04889377E+02
  0
LINE
  8
0
  6
DASHED
 62
6
 10
-1.88751014E+02
 20
-2.21282469E+02
 11
-1.87751019E+02
 21
-2.22282464E+02
  0
ARC
  8
0
 62
4
 10
-1.91313941E+02
 20
-2.32231202E+02
 40
2.00000000E+00
 50
3.29999999E+02
 51
3.58000000E+02
  0
LINE
  8
0
 62
7
 10
-1.91251015E+02
 20
-2.33282467E+02
 11
-1.91251015E+02
 21
-2.26782463E+02
  0
LINE
  8
0
 62
7
 10
-1.89611491E+02
 20
-2.33282467E+02
 11
-1.92251016E+02
 21
-2.33282467E+02
  0
LINE
  8
0
 62
7
 10
-1.92251016E+02
 20
-2.33282467E+02
 11
-1.92251016E+02
 21
-2.26782463E+02
  0
LINE
  8
0
 62
7
 10
-1.89122452E+02
 20
-2.26782463E+02
 11
-1.92251016E+02
 21
-2.26782463E+02
  0
LINE
  8
0
 62
4
 10
-2.08251020E+02
 20
-2.10782461E+02
 11
-1.93251017E+02
 21
-2.10782461E+02
  0
LINE
  8
0
 62
4
 10
-2.08251020E+02
 20
-2.10782461E+02
 11
-2.08251020E+02
 21
-2.15782461E+02
  0
LINE
  8
0
 62
4
 10
-2.08251020E+02
 20
-2.15782461E+02
 11
-1.93251017E+02
 21
-2.15782461E+02
  0
LINE
  8
0
 62
4
 10
-1.93251017E+02
 20
-2.21282459E+02
 11
-1.93251017E+02
 21
-2.05282463E+02
  0
LINE
  8
0
 62
7
 10
-1.93364265E+02
 20
-2.39782466E+02
 11
-2.05751017E+02
 21
-2.39782466E+02
  0
LINE
  8
0
 62
7
 10
-2.05751017E+02
 20
-2.44782472E+02
 11
-2.05751017E+02
 21
-2.39782466E+02
  0
ARC
  8
0
 62
4
 10
-3.09491833E+02
 20
-2.13282461E+02
 40
1.62408109E+01
 50
3.42412053E+02
 51
1.75879507E+01
  0
LINE
  8
0
  6
CENTER
 62
6
 10
-3.01081653E+01
 20
-1.93806031E+02
 11
-3.01081653E+01
 21
-2.77330181E+02
  0
LINE
  8
0
 62
4
 10
-5.10816487E+00
 20
-1.98782475E+02
 11
-5.10816487E+00
 21
-2.08282478E+02
  0
LINE
  8
0
 62
4
 10
-5.51081603E+01
 20
-1.98782475E+02
 11
-5.51081603E+01
 21
-2.08282478E+02
  0
LINE
  8
0
 62
4
 10
-5.51081603E+01
 20
-1.98782475E+02
 11
-3.91081589E+01
 21
-1.98782475E+02
  0
LINE
  8
0
 62
4
 10
-2.11081717E+01
 20
-1.98782475E+02
 11
-5.10816487E+00
 21
-1.98782475E+02
  0
LINE
  8
0
 62
4
 10
-3.86081611E+01
 20
-1.99282473E+02
 11
-2.16081695E+01
 21
-1.99282473E+02
  0
LINE
  8
0
 62
4
 10
-2.16081702E+01
 20
-1.99282476E+02
 11
-2.11081650E+01
 21
-1.98782471E+02
  0
LINE
  8
0
 62
4
 10
-3.86081550E+01
 20
-1.99282467E+02
 11
-3.91081563E+01
 21
-1.98782465E+02
  0
LINE
  8
0
 62
4
 10
-5.46081624E+01
 20
-2.08782475E+02
 11
-5.46081624E+01
 21
-2.13595663E+02
  0
LINE
  8
0
 62
4
 10
-5.60816270E+00
 20
-2.08782475E+02
 11
-5.60816270E+00
 21
-2.13595676E+02
  0
LINE
  8
0
 62
4
 10
-5.60815912E+00
 20
-2.08782467E+02
 11
-5.10816166E+00
 21
-2.08282469E+02
  0
LINE
  8
0
 62
4
 10
-5.46081488E+01
 20
-2.08782474E+02
 11
-5.51081501E+01
 21
-2.08282473E+02
  0
LINE
  8
0
 62
4
 10
-7.81081694E+01
 20
-2.41782474E+02
 11
-7.81081694E+01
 21
-2.72782470E+02
  0
LINE
  8
0
 62
4
 10
1.78918279E+01
 20
-2.41782474E+02
 11
1.78918279E+01
 21
-2.72782470E+02
  0
LINE
  8
0
  6
DASHED
 62
6
 10
-6.62478503E+01
 20
-2.44782461E+02
 11
-7.81081694E+01
 21
-2.44782461E+02
  0
LINE
  8
0
  6
CENTER
 62
6
 10
1.18918322E+01
 20
-2.38287906E+02
 11
1.18918322E+01
 21
-2.75323276E+02
  0
LINE
  8
0
  6
DASHED
 62
6
 10
5.89183641E+00
 20
-2.44782461E+02
 11
1.78918279E+01
 21
-2.44782461E+02
  0
LINE
  8
0
  6
DASHED
 62
6
 10
1.51918396E+01
 20
-2.55782478E+02
 11
8.59183558E+00
 21
-2.55782478E+02
  0
LINE
  8
0
  6
CENTER
 62
6
 10
-7.21081736E+01
 20
-2.38287906E+02
 11
-7.21081736E+01
 21
-2.75323276E+02
  0
LINE
  8
0
 62
4
 10
-6.61081654E+01
 20
-2.41782475E+02
 11
-6.71907092E+01
 21
-2.72782475E+02
  0
LINE
  8
0
 62
4
 10
-5.01081656E+01
 20
-2.25782478E+02
 11
-1.01081704E+01
 21
-2.25782478E+02
  0
LINE
  8
0
 62
4
 10
1.78918279E+01
 20
-2.72782470E+02
 11
6.97437122E+00
 21
-2.72782470E+02
  0
LINE
  8
0
 62
4
 10
-6.71907073E+01
 20
-2.72782470E+02
 11
-7.81081694E+01
 21
-2.72782470E+02
  0
LINE
  8
0
 62
4
 10
1.68918322E+01
 20
-2.47782469E+02
 11
6.10135049E+00
 21
-2.47782469E+02
  0
LINE
  8
0
 62
4
 10
-7.71081683E+01
 20
-2.47782469E+02
 11
-6.63176920E+01
 21
-2.47782469E+02
  0
LINE
  8
0
  6
CENTER
 62
6
 10
-4.41081699E+01
 20
-2.13282478E+02
 11
-1.61081716E+01
 21
-2.13282478E+02
  0
LINE
  8
0
 62
4
 10
-6.89383898E+01
 20
-2.51195225E+02
 11
-6.96891864E+01
 21
-2.72695226E+02
  0
LINE
  8
0
 62
4
 10
8.72205710E+00
 20
-2.51195242E+02
 11
9.47285287E+00
 21
-2.72695221E+02
  0
LINE
  8
0
 62
4
 10
6.22357339E+00
 20
-2.48782465E+02
 11
6.13627132E+00
 21
-2.48782465E+02
  0
LINE
  8
0
 62
4
 10
5.89183269E+00
 20
-2.41782492E+02
 11
6.97437573E+00
 21
-2.72782470E+02
  0
LINE
  8
0
  6
DASHED
 62
6
 10
1.51918448E+01
 20
-2.55782453E+02
 11
1.60827774E+01
 21
-2.72782460E+02
  0
LINE
  8
0
  6
DASHED
 62
6
 10
8.59184219E+00
 20
-2.55782455E+02
 11
8.01535745E+00
 21
-2.44782471E+02
  0
LINE
  8
0
  6
DASHED
 62
6
 10
1.51918342E+01
 20
-2.55782493E+02
 11
1.57683201E+01
 21
-2.44782487E+02
  0
LINE
  8
0
  6
DASHED
 62
6
 10
8.59183160E+00
 20
-2.55782491E+02
 11
7.70089898E+00
 21
-2.72782498E+02
  0
LINE
  8
0
  6
DASHED
 62
6
 10
-6.88081771E+01
 20
-2.55782478E+02
 11
-7.54081729E+01
 21
-2.55782478E+02
  0
LINE
  8
0
  6
DASHED
 62
6
 10
-6.88081717E+01
 20
-2.55782464E+02
 11
-6.79172391E+01
 21
-2.72782472E+02
  0
LINE
  8
0
  6
DASHED
 62
6
 10
-7.54081756E+01
 20
-2.55782466E+02
 11
-7.59846615E+01
 21
-2.44782461E+02
  0
LINE
  8
0
  6
DASHED
 62
6
 10
-6.88081714E+01
 20
-2.55782482E+02
 11
-6.82316855E+01
 21
-2.44782476E+02
  0
LINE
  8
0
  6
DASHED
 62
6
 10
-7.54081740E+01
 20
-2.55782480E+02
 11
-7.62991066E+01
 21
-2.72782487E+02
  0
LINE
  8
0
 62
4
 10
-1.96081673E+01
 20
-2.07220302E+02
 11
-1.96081673E+01
 21
-2.19344653E+02
  0
LINE
  8
0
 62
4
 10
-4.06081633E+01
 20
-2.07220302E+02
 11
-4.06081633E+01
 21
-2.19344653E+02
  0
LINE
  8
0
 62
4
 10
-3.01081614E+01
 20
-2.01158124E+02
 11
-1.96081659E+01
 21
-2.07220300E+02
  0
LINE
  8
0
 62
4
 10
-4.06081594E+01
 20
-2.19344654E+02
 11
-3.01081639E+01
 21
-2.25406829E+02
  0
LINE
  8
0
 62
4
 10
-4.06081657E+01
 20
-2.07220292E+02
 11
-3.01081703E+01
 21
-2.01158116E+02
  0
LINE
  8
0
 62
4
 10
-3.01081623E+01
 20
-2.25406831E+02
 11
-1.96081668E+01
 21
-2.19344656E+02
  0
LINE
  8
0
 62
7
 10
1.69182195E+00
 20
-2.49982460E+02
 11
4.89182985E+00
 21
-2.49982460E+02
  0
LINE
  8
0
 62
7
 10
-3.16081642E+01
 20
-2.71782474E+02
 11
-3.16081642E+01
 21
-2.72782470E+02
  0
LINE
  8
0
  6
CENTER
 62
2
 10
3.89183420E+00
 20
-2.42782469E+02
 11
-9.10817474E+00
 21
-2.42782469E+02
  0
LINE
  8
0
 62
7
 10
4.89182985E+00
 20
-2.60782478E+02
 11
4.89182985E+00
 21
-2.72782470E+02
  0
LINE
  8
0
 62
7
 10
4.89182985E+00
 20
-2.41782474E+02
 11
4.89182985E+00
 21
-2.49982460E+02
  0
LINE
  8
0
 62
7
 10
-2.86081718E+01
 20
-2.72782470E+02
 11
4.89182985E+00
 21
-2.72782470E+02
  0
LINE
  8
0
 62
7
 10
-2.86081718E+01
 20
-2.71782474E+02
 11
-2.86081718E+01
 21
-2.72782470E+02
  0
LINE
  8
0
 62
7
 10
-6.51081659E+01
 20
-2.72782470E+02
 11
-3.16081642E+01
 21
-2.72782470E+02
  0
LINE
  8
0
 62
7
 10
-3.08180263E-01
 20
-2.51982473E+02
 11
-3.08180263E-01
 21
-2.58782465E+02
  0
LINE
  8
0
 62
7
 10
-5.60816815E+00
 20
-2.71392242E+02
 11
-5.60816815E+00
 21
-2.72782470E+02
  0
LINE
  8
0
 62
7
 10
-5.01081656E+01
 20
-2.26782473E+02
 11
-3.28581643E+01
 21
-2.26782473E+02
  0
LINE
  8
0
 62
7
 10
-6.51081659E+01
 20
-2.72782470E+02
 11
-6.51081659E+01
 21
-2.41782474E+02
  0
LINE
  8
0
  6
CENTER
 62
2
 10
-2.60817027E+00
 20
-2.60282470E+02
 11
-2.60817027E+00
 21
-2.73282479E+02
  0
LINE
  8
0
 62
7
 10
-2.86081718E+01
 20
-2.71782474E+02
 11
-3.16081642E+01
 21
-2.71782474E+02
  0
LINE
  8
0
  6
CENTER
 62
2
 10
-5.11081667E+01
 20
-2.42782469E+02
 11
-6.41081648E+01
 21
-2.42782469E+02
  0
LINE
  8
0
  6
CENTER
 62
2
 10
-5.76081658E+01
 20
-2.49282474E+02
 11
-5.76081658E+01
 21
-2.36282465E+02
  0
LINE
  8
0
 62
7
 10
1.69182195E+00
 20
-2.60782478E+02
 11
4.89182985E+00
 21
-2.60782478E+02
  0
LINE
  8
0
  6
CENTER
 62
2
 10
-2.60817027E+00
 20
-2.36282465E+02
 11
-2.60817027E+00
 21
-2.49282474E+02
  0
LINE
  8
0
  6
CENTER
 62
2
 10
3.89183420E+00
 20
-2.66782474E+02
 11
-9.10817474E+00
 21
-2.66782474E+02
  0
LINE
  8
0
 62
7
 10
-3.81081632E+01
 20
-2.34782461E+02
 11
-3.28581643E+01
 21
-2.34782461E+02
  0
LINE
  8
0
 62
7
 10
-2.21081673E+01
 20
-2.34782461E+02
 11
-2.73581718E+01
 21
-2.34782461E+02
  0
LINE
  8
0
 62
7
 10
-3.81081632E+01
 20
-2.49782461E+02
 11
-2.21081673E+01
 21
-2.49782461E+02
  0
LINE
  8
0
 62
7
 10
-2.21081673E+01
 20
-2.34782461E+02
 11
-2.21081673E+01
 21
-2.49782461E+02
  0
LINE
  8
0
 62
7
 10
-2.73581718E+01
 20
-2.26782473E+02
 11
-2.73581718E+01
 21
-2.34782461E+02
  0
LINE
  8
0
 62
7
 10
-3.28581643E+01
 20
-2.26782473E+02
 11
-3.28581643E+01
 21
-2.34782461E+02
  0
LINE
  8
0
 62
7
 10
-3.81081632E+01
 20
-2.34782461E+02
 11
-3.81081632E+01
 21
-2.49782461E+02
  0
LINE
  8
0
 62
7
 10
-2.73581718E+01
 20
-2.26782473E+02
 11
-1.01081704E+01
 21
-2.26782473E+02
  0
LINE
  8
0
 62
7
 10
3.91827597E-01
 20
-2.71392242E+02
 11
3.91827597E-01
 21
-2.72782470E+02
  0
LINE
  8
0
 62
7
 10
-3.28581643E+01
 20
-2.26982473E+02
 11
-2.73581718E+01
 21
-2.26982473E+02
  0
LINE
  8
0
 62
7
 10
-1.16479780E+00
 20
-2.45282469E+02
 11
-4.05154275E+00
 21
-2.45282469E+02
  0
LINE
  8
0
 62
7
 10
2.78576192E-01
 20
-2.42782471E+02
 11
-1.16480174E+00
 21
-2.45282475E+02
  0
LINE
  8
0
 62
7
 10
-4.05155082E+00
 20
-2.40282471E+02
 11
-5.49492875E+00
 21
-2.42782475E+02
  0
LINE
  8
0
 62
7
 10
-5.49491561E+00
 20
-2.42782492E+02
 11
-4.05154313E+00
 21
-2.45282487E+02
  0
LINE
  8
0
 62
7
 10
-1.16478859E+00
 20
-2.40282492E+02
 11
2.78583888E-01
 21
-2.42782487E+02
  0
LINE
  8
0
 62
7
 10
-5.61647933E+01
 20
-2.45282469E+02
 11
-5.90515437E+01
 21
-2.45282469E+02
  0
LINE
  8
0
 62
7
 10
-1.16479780E+00
 20
-2.40282469E+02
 11
-4.05154275E+00
 21
-2.40282469E+02
  0
LINE
  8
0
 62
7
 10
-5.47214075E+01
 20
-2.42782480E+02
 11
-5.61647854E+01
 21
-2.45282484E+02
  0
LINE
  8
0
 62
7
 10
-5.90515345E+01
 20
-2.40282480E+02
 11
-6.04949125E+01
 21
-2.42782484E+02
  0
LINE
  8
0
 62
7
 10
-6.04949111E+01
 20
-2.42782490E+02
 11
-5.90515386E+01
 21
-2.45282484E+02
  0
LINE
  8
0
 62
7
 10
-5.61647841E+01
 20
-2.40282490E+02
 11
-5.47214116E+01
 21
-2.42782484E+02
  0
LINE
  8
0
 62
7
 10
-5.61647933E+01
 20
-2.40282469E+02
 11
-5.90515437E+01
 21
-2.40282469E+02
  0
LINE
  8
0
 62
7
 10
-1.16479780E+00
 20
-2.69282474E+02
 11
-4.05154275E+00
 21
-2.69282474E+02
  0
LINE
  8
0
 62
7
 10
2.78588711E-01
 20
-2.66782475E+02
 11
-1.16478922E+00
 21
-2.69282479E+02
  0
LINE
  8
0
 62
7
 10
-4.05153830E+00
 20
-2.64282475E+02
 11
-5.49491623E+00
 21
-2.66782479E+02
  0
LINE
  8
0
 62
7
 10
-5.49491633E+00
 20
-2.66782490E+02
 11
-4.05154385E+00
 21
-2.69282484E+02
  0
LINE
  8
0
 62
7
 10
-1.16478931E+00
 20
-2.64282490E+02
 11
2.78583168E-01
 21
-2.66782484E+02
  0
LINE
  8
0
 62
7
 10
-1.16479780E+00
 20
-2.64282474E+02
 11
-4.05154275E+00
 21
-2.64282474E+02
  0
LINE
  8
0
 62
7
 10
-5.51081657E+01
 20
-2.27640344E+02
 11
-5.51081657E+01
 21
-2.26583804E+02
  0
LINE
  8
0
 62
7
 10
-5.10817032E+00
 20
-2.27640344E+02
 11
-5.10817032E+00
 21
-2.26583804E+02
  0
ARC
  8
0
 62
4
 10
-3.01081653E+01
 20
-2.28782465E+02
 40
2.80000010E+01
 50
3.86838376E+01
 51
1.41316159E+02
  0
ARC
  8
0
 62
4
 10
-4.45116998E-01
 20
-2.05031625E+02
 40
1.00000002E+01
 50
2.18683839E+02
 51
2.55268426E+02
  0
ARC
  8
0
 62
4
 10
-5.97712299E+01
 20
-2.05031625E+02
 40
1.00000002E+01
 50
2.84731574E+02
 51
3.21316160E+02
  0
ARC
  8
0
 62
4
 10
-5.01081656E+01
 20
-2.41782474E+02
 40
2.80000010E+01
 50
1.04731579E+02
 51
1.79999998E+02
  0
ARC
  8
0
 62
4
 10
-1.01081704E+01
 20
-2.41782474E+02
 40
2.80000010E+01
 50
2.50447809E-06
 51
7.52684210E+01
  0
ARC
  8
0
 62
4
 10
-5.01081656E+01
 20
-2.41782474E+02
 40
1.60000000E+01
 50
9.00000002E+01
 51
1.80000001E+02
  0
ARC
  8
0
 62
4
 10
-7.71081683E+01
 20
-2.46782474E+02
 40
1.00000000E+00
 50
1.79999998E+02
 51
2.70000000E+02
  0
ARC
  8
0
 62
4
 10
1.68918322E+01
 20
-2.46782474E+02
 40
1.00000000E+00
 50
2.70000000E+02
 51
2.50447847E-06
  0
ARC
  8
0
 62
4
 10
-1.01081704E+01
 20
-2.41782474E+02
 40
1.60000000E+01
 50
2.50447807E-06
 51
9.00000002E+01
  0
ARC
  8
0
 62
4
 10
6.22357339E+00
 20
-2.51282465E+02
 40
2.50000004E+00
 50
1.99999800E+00
 51
9.00000002E+01
  0
ARC
  8
0
 62
4
 10
-6.64399094E+01
 20
-2.51282465E+02
 40
2.50000004E+00
 50
9.00000002E+01
 51
1.78000012E+02
  0
CIRCLE
  8
0
 62
4
 10
-3.01081653E+01
 20
-2.13282478E+02
 40
8.99999974E+00
  0
CIRCLE
  8
0
 62
6
 10
-3.01081653E+01
 20
-2.13282478E+02
 40
8.25000028E+00
  0
CIRCLE
  8
0
 62
7
 10
-2.60817027E+00
 20
-2.42782469E+02
 40
5.49999996E+00
  0
ARC
  8
0
 62
7
 10
-2.60817027E+00
 20
-2.66782474E+02
 40
5.49999996E+00
 50
3.03055739E+02
 51
2.36944271E+02
  0
CIRCLE
  8
0
 62
7
 10
-5.76081658E+01
 20
-2.42782469E+02
 40
2.88675143E+00
  0
ARC
  8
0
 62
7
 10
1.69182195E+00
 20
-2.58782465E+02
 40
2.00000000E+00
 50
1.79999998E+02
 51
2.70000000E+02
  0
ARC
  8
0
 62
7
 10
-1.01081704E+01
 20
-2.41782474E+02
 40
1.50000003E+01
 50
9.33466724E-06
 51
9.00000002E+01
  0
ARC
  8
0
 62
7
 10
-5.01081656E+01
 20
-2.41782474E+02
 40
1.50000003E+01
 50
9.00000002E+01
 51
1.80000001E+02
  0
CIRCLE
  8
0
 62
7
 10
-5.76081658E+01
 20
-2.42782469E+02
 40
5.49999996E+00
  0
ARC
  8
0
 62
7
 10
1.69182195E+00
 20
-2.51982473E+02
 40
2.00000000E+00
 50
9.00000002E+01
 51
1.80000001E+02
  0
CIRCLE
  8
0
 62
7
 10
-2.60817027E+00
 20
-2.42782469E+02
 40
2.88675143E+00
  0
CIRCLE
  8
0
 62
7
 10
-2.60817027E+00
 20
-2.42782469E+02
 40
5.00000009E+00
  0
CIRCLE
  8
0
 62
7
 10
-5.76081658E+01
 20
-2.42782469E+02
 40
5.00000009E+00
  0
CIRCLE
  8
0
 62
7
 10
-2.60817027E+00
 20
-2.66782474E+02
 40
2.88675143E+00
  0
CIRCLE
  8
0
 62
7
 10
-2.60817027E+00
 20
-2.66782474E+02
 40
5.00000009E+00
  0
LINE
  8
0
  6
PHANTOM
 10
-2.59751019E+02
 20
-5.32824657E+01
 11
-2.59751019E+02
 21
-1.78437555E+02
  0
LINE
  8
0
  6
CENTER
 62
6
 10
-1.18658127E+02
 20
-1.01282459E+02
 11
-5.03843909E+02
 21
-1.01282459E+02
  0
LINE
  8
0
  6
CENTER
 62
6
 10
-3.61251014E+02
 20
-1.48282462E+02
 11
-3.61251014E+02
 21
-5.42824614E+01
  0
LINE
  8
0
 62
4
 10
-4.36729564E+02
 20
-7.74763879E+01
 11
-4.60526561E+02
 21
-7.74763879E+01
  0
LINE
  8
0
 62
4
 10
-3.96251017E+02
 20
-5.32824657E+01
 11
-4.64251014E+02
 21
-5.32824657E+01
  0
LINE
  8
0
 62
4
 10
-4.36729564E+02
 20
-1.25088541E+02
 11
-4.60526561E+02
 21
-1.25088541E+02
  0
LINE
  8
0
 62
4
 10
-3.96251017E+02
 20
-1.49282463E+02
 11
-4.64251014E+02
 21
-1.49282463E+02
  0
LINE
  8
0
 62
4
 10
-4.64251014E+02
 20
-1.49282463E+02
 11
-4.64251014E+02
 21
-5.32824657E+01
  0
LINE
  8
0
  6
DASHED
 62
6
 10
-4.32751009E+02
 20
-1.09532461E+02
 11
-4.64251014E+02
 21
-1.09532461E+02
  0
LINE
  8
0
  6
DASHED
 62
6
 10
-4.32751009E+02
 20
-9.30324675E+01
 11
-4.64251014E+02
 21
-9.30324675E+01
  0
LINE
  8
0
 62
4
 10
-3.96251017E+02
 20
-6.52824681E+01
 11
-4.32751009E+02
 21
-6.52824681E+01
  0
LINE
  8
0
 62
4
 10
-3.96251017E+02
 20
-5.32824657E+01
 11
-3.96251017E+02
 21
-6.52824681E+01
  0
LINE
  8
0
  6
CENTER
 62
6
 10
-3.96251017E+02
 20
-5.92824615E+01
 11
-4.27251016E+02
 21
-5.92824615E+01
  0
LINE
  8
0
  6
CENTER
 62
6
 10
-4.04251010E+02
 20
-5.12824635E+01
 11
-4.04251010E+02
 21
-6.72824703E+01
  0
LINE
  8
0
  6
CENTER
 62
6
 10
-4.18251017E+02
 20
-5.12824635E+01
 11
-4.18251017E+02
 21
-6.72824703E+01
  0
LINE
  8
0
  6
CENTER
 62
6
 10
-4.18251017E+02
 20
-1.51282462E+02
 11
-4.18251017E+02
 21
-1.35282464E+02
  0
LINE
  8
0
  6
CENTER
 62
6
 10
-3.96251017E+02
 20
-1.43282467E+02
 11
-4.27251016E+02
 21
-1.43282467E+02
  0
LINE
  8
0
  6
CENTER
 62
6
 10
-4.04251010E+02
 20
-1.51282462E+02
 11
-4.04251010E+02
 21
-1.35282464E+02
  0
LINE
  8
0
 62
4
 10
-4.32751009E+02
 20
-5.32824657E+01
 11
-4.32751009E+02
 21
-1.49282463E+02
  0
LINE
  8
0
  6
DASHED
 62
6
 10
-4.32751009E+02
 20
-9.22824653E+01
 11
-4.64251014E+02
 21
-9.22824653E+01
  0
LINE
  8
0
  6
DASHED
 62
6
 10
-4.32751009E+02
 20
-1.10282469E+02
 11
-4.64251014E+02
 21
-1.10282469E+02
  0
LINE
  8
0
 62
4
 10
-3.96251017E+02
 20
-1.49282463E+02
 11
-3.96251017E+02
 21
-1.37282466E+02
  0
LINE
  8
0
 62
4
 10
-3.96251017E+02
 20
-1.37282466E+02
 11
-4.32751009E+02
 21
-1.37282466E+02
  0
LINE
  8
0
 62
4
 10
-2.94010020E+02
 20
-1.01282459E+02
 11
-2.99751019E+02
 21
-1.01282459E+02
  0
LINE
  8
0
 62
4
 10
-3.24137771E+02
 20
-8.52824587E+01
 11
-3.22694396E+02
 21
-8.77824578E+01
  0
LINE
  8
0
 62
4
 10
-3.99807641E+02
 20
-1.19782460E+02
 11
-3.98364263E+02
 21
-1.17282456E+02
  0
LINE
  8
0
 62
4
 10
-4.04137769E+02
 20
-1.17282462E+02
 11
-4.02694394E+02
 21
-1.19782461E+02
  0
LINE
  8
0
 62
4
 10
-4.02694393E+02
 20
-1.19782460E+02
 11
-3.99807642E+02
 21
-1.19782460E+02
  0
LINE
  8
0
 62
4
 10
-3.98364268E+02
 20
-1.17282462E+02
 11
-3.99807643E+02
 21
-1.14782463E+02
  0
LINE
  8
0
  6
CENTER
 62
6
 10
-4.01251017E+02
 20
-7.72824596E+01
 11
-4.01251017E+02
 21
-9.32824609E+01
  0
LINE
  8
0
 62
4
 10
-3.19807639E+02
 20
-1.19782459E+02
 11
-3.18364266E+02
 21
-1.17282464E+02
  0
LINE
  8
0
 62
4
 10
-4.04137771E+02
 20
-8.52824635E+01
 11
-4.02694396E+02
 21
-8.27824643E+01
  0
LINE
  8
0
 62
4
 10
-3.22694397E+02
 20
-1.14782460E+02
 11
-3.19807646E+02
 21
-1.14782460E+02
  0
LINE
  8
0
  6
CENTER
 62
6
 10
-4.01251017E+02
 20
-1.25282458E+02
 11
-4.01251017E+02
 21
-1.09282457E+02
  0
LINE
  8
0
  6
CENTER
 62
6
 10
-3.33751016E+02
 20
-1.13282461E+02
 11
-3.33751016E+02
 21
-1.21282459E+02
  0
LINE
  8
0
 62
4
 10
-3.24137765E+02
 20
-8.52824551E+01
 11
-3.22694392E+02
 21
-8.27824606E+01
  0
LINE
  8
0
  6
CENTER
 62
6
 10
-3.21251019E+02
 20
-1.25282458E+02
 11
-3.21251019E+02
 21
-1.09282457E+02
  0
LINE
  8
0
  6
CENTER
 62
6
 10
-3.88751019E+02
 20
-1.13282461E+02
 11
-3.88751019E+02
 21
-1.21282459E+02
  0
LINE
  8
0
  6
CENTER
 62
6
 10
-3.13251021E+02
 20
-1.17282460E+02
 11
-3.37751018E+02
 21
-1.17282460E+02
  0
LINE
  8
0
  6
CENTER
 62
6
 10
-4.09251018E+02
 20
-1.17282460E+02
 11
-3.84751018E+02
 21
-1.17282460E+02
  0
LINE
  8
0
  6
CENTER
 62
6
 10
-3.88751019E+02
 20
-8.92824565E+01
 11
-3.88751019E+02
 21
-8.12824640E+01
  0
LINE
  8
0
 62
4
 10
-3.19807638E+02
 20
-8.77824548E+01
 11
-3.18364266E+02
 21
-8.52824604E+01
  0
LINE
  8
0
  6
CENTER
 62
6
 10
-4.09251018E+02
 20
-8.52824684E+01
 11
-3.84751018E+02
 21
-8.52824684E+01
  0
LINE
  8
0
 62
4
 10
-4.22751019E+02
 20
-7.62824639E+01
 11
-4.22751019E+02
 21
-1.26282465E+02
  0
LINE
  8
0
 62
4
 10
-2.99751019E+02
 20
-7.62824639E+01
 11
-2.99751019E+02
 21
-1.26282465E+02
  0
LINE
  8
0
  6
CENTER
 62
6
 10
-3.33751016E+02
 20
-8.92824565E+01
 11
-3.33751016E+02
 21
-8.12824640E+01
  0
LINE
  8
0
  6
CENTER
 62
6
 10
-3.21251019E+02
 20
-7.72824596E+01
 11
-3.21251019E+02
 21
-9.32824609E+01
  0
LINE
  8
0
 62
4
 10
-2.99751019E+02
 20
-7.62824639E+01
 11
-4.22751019E+02
 21
-7.62824639E+01
  0
LINE
  8
0
 62
4
 10
-2.99751019E+02
 20
-1.26282465E+02
 11
-4.22751019E+02
 21
-1.26282465E+02
  0
LINE
  8
0
  6
CENTER
 62
6
 10
-3.13251021E+02
 20
-8.52824684E+01
 11
-3.37751018E+02
 21
-8.52824684E+01
  0
LINE
  8
0
 62
4
 10
-3.99807644E+02
 20
-8.77824635E+01
 11
-3.98364269E+02
 21
-8.52824644E+01
  0
LINE
  8
0
 62
4
 10
-3.22694397E+02
 20
-8.27824684E+01
 11
-3.19807646E+02
 21
-8.27824684E+01
  0
LINE
  8
0
 62
4
 10
-3.22694397E+02
 20
-1.19782460E+02
 11
-3.19807646E+02
 21
-1.19782460E+02
  0
LINE
  8
0
 62
4
 10
-3.24137766E+02
 20
-1.17282458E+02
 11
-3.22694394E+02
 21
-1.14782464E+02
  0
LINE
  8
0
 62
4
 10
-3.18364269E+02
 20
-8.52824578E+01
 11
-3.19807644E+02
 21
-8.27824586E+01
  0
LINE
  8
0
 62
4
 10
-4.02694393E+02
 20
-8.27824684E+01
 11
-3.99807642E+02
 21
-8.27824684E+01
  0
LINE
  8
0
 62
4
 10
-4.02694393E+02
 20
-8.77824630E+01
 11
-3.99807642E+02
 21
-8.77824630E+01
  0
LINE
  8
0
 62
4
 10
-3.24137772E+02
 20
-1.17282460E+02
 11
-3.22694395E+02
 21
-1.19782462E+02
  0
LINE
  8
0
 62
4
 10
-3.98364267E+02
 20
-8.52824568E+01
 11
-3.99807639E+02
 21
-8.27824623E+01
  0
LINE
  8
0
 62
4
 10
-4.04137769E+02
 20
-8.52824637E+01
 11
-4.02694396E+02
 21
-8.77824582E+01
  0
LINE
  8
0
 62
4
 10
-3.18364273E+02
 20
-1.17282464E+02
 11
-3.19807649E+02
 21
-1.14782463E+02
  0
LINE
  8
0
 62
4
 10
-3.22694397E+02
 20
-8.77824630E+01
 11
-3.19807646E+02
 21
-8.77824630E+01
  0
LINE
  8
0
 62
4
 10
-2.99751019E+02
 20
-9.27824631E+01
 11
-2.93251020E+02
 21
-9.27824631E+01
  0
LINE
  8
0
 62
4
 10
-4.28492019E+02
 20
-1.01282459E+02
 11
-4.22751019E+02
 21
-1.01282459E+02
  0
LINE
  8
0
 62
4
 10
-4.29251018E+02
 20
-9.27824631E+01
 11
-4.29251018E+02
 21
-1.09782460E+02
  0
LINE
  8
0
 62
4
 10
-2.99751019E+02
 20
-1.09782460E+02
 11
-2.93251020E+02
 21
-1.09782460E+02
  0
LINE
  8
0
 62
4
 10
-2.93251020E+02
 20
-9.27824631E+01
 11
-2.93251020E+02
 21
-1.09782460E+02
  0
LINE
  8
0
 62
4
 10
-4.22751019E+02
 20
-9.27824631E+01
 11
-4.29251018E+02
 21
-9.27824631E+01
  0
LINE
  8
0
 62
4
 10
-4.22751019E+02
 20
-1.09782460E+02
 11
-4.29251018E+02
 21
-1.09782460E+02
  0
LINE
  8
0
 62
4
 10
-2.99751019E+02
 20
-9.22824653E+01
 11
-4.22751019E+02
 21
-9.22824653E+01
  0
LINE
  8
0
 62
4
 10
-2.99751019E+02
 20
-1.10282458E+02
 11
-4.22751019E+02
 21
-1.10282458E+02
  0
LINE
  8
0
 62
4
 10
-2.99751019E+02
 20
-9.17824566E+01
 11
-4.22751019E+02
 21
-9.17824566E+01
  0
LINE
  8
0
 62
4
 10
-2.99751019E+02
 20
-1.10782461E+02
 11
-4.22751019E+02
 21
-1.10782461E+02
  0
LINE
  8
0
 62
4
 10
-4.04137768E+02
 20
-1.17282460E+02
 11
-4.02694390E+02
 21
-1.14782456E+02
  0
LINE
  8
0
 62
4
 10
-4.02694393E+02
 20
-1.14782460E+02
 11
-3.99807642E+02
 21
-1.14782460E+02
  0
LINE
  8
0
  6
DASHED
 62
6
 10
-4.33751017E+02
 20
-1.09282460E+02
 11
-4.34751016E+02
 21
-1.10282459E+02
  0
LINE
  8
0
 62
4
 10
-4.97751021E+02
 20
-1.00632456E+02
 11
-4.99251014E+02
 21
-1.00632456E+02
  0
LINE
  8
0
 62
4
 10
-4.99251014E+02
 20
-1.01932462E+02
 11
-4.99251014E+02
 21
-1.09282457E+02
  0
LINE
  8
0
 62
6
 10
-4.98251018E+02
 20
-1.01932462E+02
 11
-4.98251018E+02
 21
-1.10282458E+02
  0
LINE
  8
0
 62
4
 10
-4.97751021E+02
 20
-1.00632456E+02
 11
-4.97751021E+02
 21
-1.01932462E+02
  0
LINE
  8
0
 62
4
 10
-4.97751021E+02
 20
-1.01932462E+02
 11
-4.99251014E+02
 21
-1.01932462E+02
  0
LINE
  8
0
  6
PHANTOM
 62
6
 10
-4.14251015E+02
 20
-9.87824589E+01
 11
-4.29251018E+02
 21
-9.87824589E+01
  0
LINE
  8
0
  6
DASHED
 62
6
 10
-4.33751021E+02
 20
-1.09282457E+02
 11
-4.32751009E+02
 21
-1.09282457E+02
  0
LINE
  8
0
  6
DASHED
 62
6
 10
-4.33751014E+02
 20
-9.32824600E+01
 11
-4.34751017E+02
 21
-9.22824573E+01
  0
LINE
  8
0
  6
PHANTOM
 62
6
 10
-4.14251015E+02
 20
-1.03782459E+02
 11
-4.29251018E+02
 21
-1.03782459E+02
  0
LINE
  8
0
  6
DASHED
 62
6
 10
-4.33751021E+02
 20
-9.32824609E+01
 11
-4.32751009E+02
 21
-9.32824609E+01
  0
LINE
  8
0
 62
4
 10
-4.98251022E+02
 20
-9.22824542E+01
 11
-4.99251023E+02
 21
-9.32824550E+01
  0
LINE
  8
0
 62
6
 10
-4.98251018E+02
 20
-9.22824653E+01
 11
-4.98251018E+02
 21
-1.00632456E+02
  0
LINE
  8
0
 62
4
 10
-4.99251014E+02
 20
-1.09282459E+02
 11
-4.98251019E+02
 21
-1.10282454E+02
  0
LINE
  8
0
 62
4
 10
-4.99251014E+02
 20
-9.32824609E+01
 11
-4.99251014E+02
 21
-1.00632456E+02
  0
LINE
  8
0
  6
DASHED
 62
6
 10
-4.33751021E+02
 20
-9.32824609E+01
 11
-4.33751021E+02
 21
-1.09282457E+02
  0
LINE
  8
0
  6
DASHED
 62
6
 10
-4.34751016E+02
 20
-9.22824653E+01
 11
-4.34751016E+02
 21
-1.10282458E+02
  0
LINE
  8
0
  6
PHANTOM
 62
6
 10
-4.14251015E+02
 20
-9.87824589E+01
 11
-4.14251015E+02
 21
-1.03782459E+02
  0
LINE
  8
0
 62
4
 10
-4.72251012E+02
 20
-9.07824609E+01
 11
-4.72251012E+02
 21
-1.11782457E+02
  0
LINE
  8
0
 62
4
 10
-4.72251012E+02
 20
-1.10282458E+02
 11
-4.98251018E+02
 21
-1.10282458E+02
  0
LINE
  8
0
 62
6
 10
-4.72251012E+02
 20
-1.09532461E+02
 11
-4.99001021E+02
 21
-1.09532461E+02
  0
LINE
  8
0
 62
6
 10
-4.72251012E+02
 20
-9.30324566E+01
 11
-4.99001021E+02
 21
-9.30324566E+01
  0
LINE
  8
0
 62
4
 10
-4.72251012E+02
 20
-9.22824653E+01
 11
-4.98251018E+02
 21
-9.22824653E+01
  0
LINE
  8
0
 62
4
 10
-4.32751009E+02
 20
-9.32824609E+01
 11
-4.29251018E+02
 21
-9.32824609E+01
  0
LINE
  8
0
 62
4
 10
-4.32751009E+02
 20
-1.09282457E+02
 11
-4.29251018E+02
 21
-1.09282457E+02
  0
LINE
  8
0
 62
7
 10
-2.94251022E+02
 20
-8.42824619E+01
 11
-2.94251022E+02
 21
-8.62824586E+01
  0
LINE
  8
0
 62
7
 10
-4.29251018E+02
 20
-8.62824586E+01
 11
-4.29251018E+02
 21
-9.27824631E+01
  0
LINE
  8
0
 62
7
 10
-4.28251017E+02
 20
-8.42824619E+01
 11
-4.28251017E+02
 21
-8.62824586E+01
  0
LINE
  8
0
 62
7
 10
-2.93251020E+02
 20
-8.62824586E+01
 11
-2.93251020E+02
 21
-9.27824631E+01
  0
LINE
  8
0
 62
7
 10
-4.29251018E+02
 20
-8.62824586E+01
 11
-4.28251017E+02
 21
-8.62824586E+01
  0
LINE
  8
0
 62
7
 10
-2.93251020E+02
 20
-1.16282459E+02
 11
-2.94251022E+02
 21
-1.16282459E+02
  0
LINE
  8
0
 62
7
 10
-4.29251018E+02
 20
-1.16282459E+02
 11
-4.28251017E+02
 21
-1.16282459E+02
  0
LINE
  8
0
 62
7
 10
-2.94251022E+02
 20
-1.18282461E+02
 11
-2.94251022E+02
 21
-1.16282459E+02
  0
LINE
  8
0
 62
7
 10
-4.28251017E+02
 20
-1.16282459E+02
 11
-4.28251017E+02
 21
-1.18282461E+02
  0
LINE
  8
0
 62
7
 10
-2.93251020E+02
 20
-8.62824586E+01
 11
-2.94251022E+02
 21
-8.62824586E+01
  0
LINE
  8
0
 62
7
 10
-2.93251020E+02
 20
-1.09782460E+02
 11
-2.93251020E+02
 21
-1.16282459E+02
  0
LINE
  8
0
 62
7
 10
-4.29251018E+02
 20
-1.09782460E+02
 11
-4.29251018E+02
 21
-1.16282459E+02
  0
LINE
  8
0
 62
7
 10
-1.89751027E+02
 20
-1.36282459E+02
 11
-4.32751009E+02
 21
-1.36282459E+02
  0
LINE
  8
0
 62
7
 10
-4.32751009E+02
 20
-6.62824637E+01
 11
-1.89751027E+02
 21
-6.62824637E+01
  0
LINE
  8
0
 62
7
 10
-1.89751027E+02
 20
-7.27824682E+01
 11
-4.32751009E+02
 21
-7.27824682E+01
  0
LINE
  8
0
 62
7
 10
-1.89751027E+02
 20
-6.97824594E+01
 11
-4.32751009E+02
 21
-6.97824594E+01
  0
LINE
  8
0
 62
7
 10
-1.89751027E+02
 20
-1.29782460E+02
 11
-4.32751009E+02
 21
-1.29782460E+02
  0
LINE
  8
0
 62
7
 10
-1.89751027E+02
 20
-1.32782458E+02
 11
-4.32751009E+02
 21
-1.32782458E+02
  0
LINE
  8
0
 62
7
 10
-4.32751009E+02
 20
-6.67824616E+01
 11
-4.16751018E+02
 21
-6.67824616E+01
  0
LINE
  8
0
 62
7
 10
-4.16751018E+02
 20
-6.67824616E+01
 11
-4.16751018E+02
 21
-6.97824594E+01
  0
LINE
  8
0
 62
7
 10
-4.31251021E+02
 20
-1.11532458E+02
 11
-4.31251021E+02
 21
-1.13032457E+02
  0
LINE
  8
0
 62
7
 10
-4.32751009E+02
 20
-8.37824640E+01
 11
-4.31251021E+02
 21
-8.37824640E+01
  0
LINE
  8
0
 62
7
 10
-4.31251029E+02
 20
-8.77824615E+01
 11
-4.32751005E+02
 21
-8.80469479E+01
  0
LINE
  8
0
 62
7
 10
-4.32751009E+02
 20
-1.18782459E+02
 11
-4.31251021E+02
 21
-1.18782459E+02
  0
LINE
  8
0
 62
7
 10
-4.31251018E+02
 20
-9.10324636E+01
 11
-4.32751003E+02
 21
-9.12969513E+01
  0
LINE
  8
0
 62
7
 10
-4.31251032E+02
 20
-8.95324619E+01
 11
-4.32751009E+02
 21
-8.92679756E+01
  0
LINE
  8
0
 62
7
 10
-4.31251016E+02
 20
-1.11532469E+02
 11
-4.32751008E+02
 21
-1.11267980E+02
  0
LINE
  8
0
 62
7
 10
-4.31251026E+02
 20
-1.14782466E+02
 11
-4.32751007E+02
 21
-1.14517978E+02
  0
LINE
  8
0
 62
7
 10
-4.16751018E+02
 20
-1.35782462E+02
 11
-4.16751018E+02
 21
-1.32782458E+02
  0
LINE
  8
0
 62
7
 10
-4.32751009E+02
 20
-6.95324660E+01
 11
-4.16751018E+02
 21
-6.95324660E+01
  0
LINE
  8
0
 62
7
 10
-4.32751009E+02
 20
-1.33032463E+02
 11
-4.16751018E+02
 21
-1.33032463E+02
  0
LINE
  8
0
 62
7
 10
-4.31251028E+02
 20
-1.13032458E+02
 11
-4.32751005E+02
 21
-1.13296945E+02
  0
LINE
  8
0
 62
7
 10
-4.32751009E+02
 20
-1.35782462E+02
 11
-4.16751018E+02
 21
-1.35782462E+02
  0
LINE
  8
0
 62
7
 10
-4.31251021E+02
 20
-8.77824630E+01
 11
-4.31251021E+02
 21
-8.37824640E+01
  0
LINE
  8
0
 62
7
 10
-4.31251021E+02
 20
-1.14782460E+02
 11
-4.31251021E+02
 21
-1.18782459E+02
  0
LINE
  8
0
 62
7
 10
-4.31251021E+02
 20
-9.10324653E+01
 11
-4.31251021E+02
 21
-8.95324609E+01
  0
LINE
  8
0
 62
4
 10
-4.72251012E+02
 20
-9.07824609E+01
 11
-4.64251014E+02
 21
-9.07824609E+01
  0
LINE
  8
0
 62
4
 10
-4.72251012E+02
 20
-1.11782457E+02
 11
-4.64251014E+02
 21
-1.11782457E+02
  0
LINE
  8
0
 62
4
 10
-4.65251020E+02
 20
-1.01282459E+02
 11
-4.72251012E+02
 21
-1.01282459E+02
  0
LINE
  8
0
 62
7
 10
-1.89751027E+02
 20
-9.27824631E+01
 11
-2.93251020E+02
 21
-9.27824631E+01
  0
LINE
  8
0
 62
7
 10
-1.89751027E+02
 20
-1.09782460E+02
 11
-2.93251020E+02
 21
-1.09782460E+02
  0
CIRCLE
  8
0
 62
4
 10
-4.18251017E+02
 20
-1.43282467E+02
 40
3.29999997E+00
  0
CIRCLE
  8
0
 62
4
 10
-4.04251010E+02
 20
-1.43282467E+02
 40
3.29999997E+00
  0
CIRCLE
  8
0
 62
4
 10
-4.18251017E+02
 20
-5.92824615E+01
 40
3.29999997E+00
  0
CIRCLE
  8
0
 62
4
 10
-4.04251010E+02
 20
-5.92824615E+01
 40
3.29999997E+00
  0
ARC
  8
0
 62
4
 10
-3.05529403E+02
 20
-1.05532457E+02
 40
1.22783799E+01
 50
3.39748785E+02
 51
2.02512054E+01
  0
ARC
  8
0
 62
4
 10
-3.05529403E+02
 20
-9.70324610E+01
 40
1.22783799E+01
 50
3.39748785E+02
 51
2.02512054E+01
  0
CIRCLE
  8
0
 62
4
 10
-3.88751019E+02
 20
-1.17282460E+02
 40
2.34999984E+00
  0
CIRCLE
  8
0
 62
4
 10
-3.33751016E+02
 20
-1.17282460E+02
 40
2.34999984E+00
  0
CIRCLE
  8
0
 62
4
 10
-4.01251017E+02
 20
-1.17282460E+02
 40
5.49999996E+00
  0
CIRCLE
  8
0
 62
6
 10
-3.33751016E+02
 20
-1.17282460E+02
 40
2.99999991E+00
  0
CIRCLE
  8
0
 62
4
 10
-3.88751019E+02
 20
-8.52824684E+01
 40
2.34999984E+00
  0
CIRCLE
  8
0
 62
6
 10
-3.88751019E+02
 20
-8.52824684E+01
 40
2.99999991E+00
  0
CIRCLE
  8
0
 62
4
 10
-4.01251017E+02
 20
-8.52824684E+01
 40
5.49999996E+00
  0
CIRCLE
  8
0
 62
4
 10
-3.21251019E+02
 20
-1.17282460E+02
 40
5.49999996E+00
  0
CIRCLE
  8
0
 62
6
 10
-3.88751019E+02
 20
-1.17282460E+02
 40
2.99999991E+00
  0
CIRCLE
  8
0
 62
6
 10
-3.33751016E+02
 20
-8.52824684E+01
 40
2.99999991E+00
  0
CIRCLE
  8
0
 62
4
 10
-3.21251019E+02
 20
-8.52824684E+01
 40
5.00000009E+00
  0
CIRCLE
  8
0
 62
4
 10
-3.33751016E+02
 20
-8.52824684E+01
 40
2.34999984E+00
  0
CIRCLE
  8
0
 62
4
 10
-3.21251019E+02
 20
-8.52824684E+01
 40
5.49999996E+00
  0
ARC
  8
0
 62
4
 10
-4.16972641E+02
 20
-9.70324610E+01
 40
1.22783799E+01
 50
1.59748790E+02
 51
2.00251210E+02
  0
ARC
  8
0
 62
4
 10
-4.16972641E+02
 20
-1.05532457E+02
 40
1.22783799E+01
 50
1.59748790E+02
 51
2.00251210E+02
  0
CIRCLE
  8
0
 62
4
 10
-4.01251017E+02
 20
-1.17282460E+02
 40
5.00000009E+00
  0
CIRCLE
  8
0
 62
4
 10
-4.01251017E+02
 20
-8.52824684E+01
 40
5.00000009E+00
  0
CIRCLE
  8
0
 62
4
 10
-3.21251019E+02
 20
-1.17282460E+02
 40
5.00000009E+00
  0
ARC
  8
0
 62
7
 10
-3.02251020E+02
 20
-8.42824619E+01
 40
8.00000000E+00
 50
3.59999995E+02
 51
7.17900435E+01
  0
ARC
  8
0
 62
7
 10
-4.20251019E+02
 20
-8.42824619E+01
 40
8.00000000E+00
 50
1.08209958E+02
 51
1.80000000E+02
  0
ARC
  8
0
 62
7
 10
-3.02251020E+02
 20
-1.18282461E+02
 40
8.00000000E+00
 50
2.88209967E+02
 51
8.65142201E-06
  0
ARC
  8
0
 62
7
 10
-4.20251019E+02
 20
-1.18282461E+02
 40
8.00000000E+00
 50
1.80000000E+02
 51
2.51790042E+02
  0
ARC
  8
0
 62
4
 10
-4.78532238E+02
 20
-9.60324653E+01
 40
1.42812227E+01
 50
3.38431364E+02
 51
2.15686395E+01
  0
ARC
  8
0
 62
4
 10
-4.78532238E+02
 20
-1.06532458E+02
 40
1.42812227E+01
 50
3.38431364E+02
 51
2.15686395E+01
  0
LINE
  8
0
 62
4
 10
-1.58251022E+02
 20
-1.49282463E+02
 11
-1.58251022E+02
 21
-5.32824657E+01
  0
LINE
  8
0
 62
4
 10
-2.26251018E+02
 20
-5.32824657E+01
 11
-2.26251018E+02
 21
-6.52824681E+01
  0
LINE
  8
0
  6
CENTER
 62
6
 10
-2.18251026E+02
 20
-5.12824635E+01
 11
-2.18251026E+02
 21
-6.72824703E+01
  0
LINE
  8
0
  6
CENTER
 62
6
 10
-2.04251018E+02
 20
-5.12824635E+01
 11
-2.04251018E+02
 21
-6.72824703E+01
  0
LINE
  8
0
 62
4
 10
-1.89751027E+02
 20
-5.32824657E+01
 11
-1.89751027E+02
 21
-1.49282463E+02
  0
CIRCLE
  8
0
 62
4
 10
-2.18251026E+02
 20
-5.92824615E+01
 40
3.29999997E+00
  0
CIRCLE
  8
0
 62
4
 10
-2.04251018E+02
 20
-5.92824615E+01
 40
3.29999997E+00
  0
LINE
  8
0
  6
CENTER
 62
6
 10
-2.26251018E+02
 20
-5.92824615E+01
 11
-1.95251019E+02
 21
-5.92824615E+01
  0
LINE
  8
0
 62
4
 10
-2.26251018E+02
 20
-5.32824657E+01
 11
-1.58251022E+02
 21
-5.32824657E+01
  0
LINE
  8
0
 62
4
 10
-2.26251018E+02
 20
-6.52824681E+01
 11
-1.89751027E+02
 21
-6.52824681E+01
  0
LINE
  8
0
 62
4
 10
-1.85772472E+02
 20
-7.74763879E+01
 11
-1.61975474E+02
 21
-7.74763879E+01
  0
LINE
  8
0
 62
4
 10
-1.85772472E+02
 20
-1.25088541E+02
 11
-1.61975474E+02
 21
-1.25088541E+02
  0
LINE
  8
0
 62
4
 10
-2.26251018E+02
 20
-1.49282463E+02
 11
-1.58251022E+02
 21
-1.49282463E+02
  0
LINE
  8
0
  6
DASHED
 62
6
 10
-1.89751027E+02
 20
-1.09532461E+02
 11
-1.58251022E+02
 21
-1.09532461E+02
  0
LINE
  8
0
  6
DASHED
 62
6
 10
-1.89751027E+02
 20
-9.30324675E+01
 11
-1.58251022E+02
 21
-9.30324675E+01
  0
LINE
  8
0
  6
DASHED
 62
6
 10
-1.89751027E+02
 20
-9.22824653E+01
 11
-1.58251022E+02
 21
-9.22824653E+01
  0
LINE
  8
0
  6
DASHED
 62
6
 10
-1.89751027E+02
 20
-1.10282469E+02
 11
-1.58251022E+02
 21
-1.10282469E+02
  0
ARC
  8
0
 62
4
 10
-1.43969798E+02
 20
-1.06532458E+02
 40
1.42812227E+01
 50
1.58431361E+02
 51
2.01568636E+02
  0
ARC
  8
0
 62
4
 10
-1.43969798E+02
 20
-9.60324653E+01
 40
1.42812227E+01
 50
1.58431361E+02
 51
2.01568636E+02
  0
LINE
  8
0
 62
4
 10
-1.57251015E+02
 20
-1.01282459E+02
 11
-1.50251024E+02
 21
-1.01282459E+02
  0
LINE
  8
0
 62
4
 10
-1.50251024E+02
 20
-1.11782457E+02
 11
-1.58251022E+02
 21
-1.11782457E+02
  0
LINE
  8
0
 62
4
 10
-1.50251024E+02
 20
-9.07824609E+01
 11
-1.58251022E+02
 21
-9.07824609E+01
  0
LINE
  8
0
 62
4
 10
-1.50251024E+02
 20
-9.22824653E+01
 11
-1.24251017E+02
 21
-9.22824653E+01
  0
LINE
  8
0
 62
6
 10
-1.50251024E+02
 20
-9.30324566E+01
 11
-1.23501015E+02
 21
-9.30324566E+01
  0
LINE
  8
0
 62
6
 10
-1.50251024E+02
 20
-1.09532461E+02
 11
-1.23501015E+02
 21
-1.09532461E+02
  0
LINE
  8
0
 62
4
 10
-1.50251024E+02
 20
-1.10282458E+02
 11
-1.24251017E+02
 21
-1.10282458E+02
  0
LINE
  8
0
 62
4
 10
-1.50251024E+02
 20
-9.07824609E+01
 11
-1.50251024E+02
 21
-1.11782457E+02
  0
LINE
  8
0
 62
4
 10
-1.23251021E+02
 20
-9.32824609E+01
 11
-1.23251021E+02
 21
-1.00632456E+02
  0
LINE
  8
0
 62
4
 10
-1.23251021E+02
 20
-1.09282459E+02
 11
-1.24251016E+02
 21
-1.10282454E+02
  0
LINE
  8
0
 62
6
 10
-1.24251017E+02
 20
-9.22824653E+01
 11
-1.24251017E+02
 21
-1.00632456E+02
  0
LINE
  8
0
 62
4
 10
-1.24251013E+02
 20
-9.22824542E+01
 11
-1.23251013E+02
 21
-9.32824550E+01
  0
LINE
  8
0
 62
4
 10
-1.24751015E+02
 20
-1.01932462E+02
 11
-1.23251021E+02
 21
-1.01932462E+02
  0
LINE
  8
0
 62
4
 10
-1.24751015E+02
 20
-1.00632456E+02
 11
-1.24751015E+02
 21
-1.01932462E+02
  0
LINE
  8
0
 62
6
 10
-1.24251017E+02
 20
-1.01932462E+02
 11
-1.24251017E+02
 21
-1.10282458E+02
  0
LINE
  8
0
 62
4
 10
-1.23251021E+02
 20
-1.01932462E+02
 11
-1.23251021E+02
 21
-1.09282457E+02
  0
LINE
  8
0
 62
4
 10
-1.24751015E+02
 20
-1.00632456E+02
 11
-1.23251021E+02
 21
-1.00632456E+02
  0
LINE
  8
0
  6
DASHED
 62
6
 10
-1.88751015E+02
 20
-9.32824609E+01
 11
-1.88751015E+02
 21
-1.09282457E+02
  0
LINE
  8
0
  6
DASHED
 62
6
 10
-1.87751019E+02
 20
-9.22824653E+01
 11
-1.87751019E+02
 21
-1.10282458E+02
  0
LINE
  8
0
  6
DASHED
 62
6
 10
-1.88751021E+02
 20
-9.32824600E+01
 11
-1.87751019E+02
 21
-9.22824573E+01
  0
LINE
  8
0
 62
4
 10
-1.89751027E+02
 20
-9.32824609E+01
 11
-1.93251017E+02
 21
-9.32824609E+01
  0
LINE
  8
0
 62
4
 10
-1.89751027E+02
 20
-1.09282457E+02
 11
-1.93251017E+02
 21
-1.09282457E+02
  0
LINE
  8
0
 62
7
 10
-1.89751027E+02
 20
-1.18782459E+02
 11
-1.91251015E+02
 21
-1.18782459E+02
  0
LINE
  8
0
 62
7
 10
-1.91251020E+02
 20
-1.11532469E+02
 11
-1.89751027E+02
 21
-1.11267980E+02
  0
LINE
  8
0
 62
7
 10
-1.91251010E+02
 20
-1.14782466E+02
 11
-1.89751028E+02
 21
-1.14517978E+02
  0
LINE
  8
0
 62
7
 10
-1.91251007E+02
 20
-1.13032458E+02
 11
-1.89751031E+02
 21
-1.13296945E+02
  0
LINE
  8
0
  6
DASHED
 62
6
 10
-1.88751015E+02
 20
-9.32824609E+01
 11
-1.89751027E+02
 21
-9.32824609E+01
  0
LINE
  8
0
  6
DASHED
 62
6
 10
-1.88751015E+02
 20
-1.09282457E+02
 11
-1.89751027E+02
 21
-1.09282457E+02
  0
LINE
  8
0
  6
DASHED
 62
6
 10
-1.88751019E+02
 20
-1.09282460E+02
 11
-1.87751020E+02
 21
-1.10282459E+02
  0
LINE
  8
0
 62
7
 10
-1.91251015E+02
 20
-9.10324653E+01
 11
-1.91251015E+02
 21
-8.95324609E+01
  0
LINE
  8
0
 62
7
 10
-1.91251015E+02
 20
-1.14782460E+02
 11
-1.91251015E+02
 21
-1.18782459E+02
  0
LINE
  8
0
 62
7
 10
-1.91251015E+02
 20
-8.77824630E+01
 11
-1.91251015E+02
 21
-8.37824640E+01
  0
LINE
  8
0
 62
7
 10
-1.91251003E+02
 20
-8.95324619E+01
 11
-1.89751027E+02
 21
-8.92679756E+01
  0
LINE
  8
0
 62
7
 10
-1.91251017E+02
 20
-9.10324636E+01
 11
-1.89751033E+02
 21
-9.12969513E+01
  0
LINE
  8
0
 62
7
 10
-1.91251007E+02
 20
-8.77824615E+01
 11
-1.89751030E+02
 21
-8.80469479E+01
  0
LINE
  8
0
 62
7
 10
-1.89751027E+02
 20
-8.37824640E+01
 11
-1.91251015E+02
 21
-8.37824640E+01
  0
LINE
  8
0
 62
7
 10
-1.91251015E+02
 20
-1.11532458E+02
 11
-1.91251015E+02
 21
-1.13032457E+02
  0
LINE
  8
0
 62
4
 10
-2.08251020E+02
 20
-1.03782459E+02
 11
-1.93251017E+02
 21
-1.03782459E+02
  0
LINE
  8
0
 62
4
 10
-2.08251020E+02
 20
-9.87824589E+01
 11
-2.08251020E+02
 21
-1.03782459E+02
  0
LINE
  8
0
 62
4
 10
-2.08251020E+02
 20
-9.87824589E+01
 11
-1.93251017E+02
 21
-9.87824589E+01
  0
LINE
  8
0
  6
CENTER
 62
6
 10
-2.04251018E+02
 20
-1.51282462E+02
 11
-2.04251018E+02
 21
-1.35282464E+02
  0
LINE
  8
0
  6
CENTER
 62
6
 10
-2.18251026E+02
 20
-1.51282462E+02
 11
-2.18251026E+02
 21
-1.35282464E+02
  0
LINE
  8
0
 62
4
 10
-2.26251018E+02
 20
-1.49282463E+02
 11
-2.26251018E+02
 21
-1.37282466E+02
  0
CIRCLE
  8
0
 62
4
 10
-2.18251026E+02
 20
-1.43282467E+02
 40
3.29999997E+00
  0
CIRCLE
  8
0
 62
4
 10
-2.04251018E+02
 20
-1.43282467E+02
 40
3.29999997E+00
  0
LINE
  8
0
  6
CENTER
 62
6
 10
-2.26251018E+02
 20
-1.43282467E+02
 11
-1.95251019E+02
 21
-1.43282467E+02
  0
LINE
  8
0
 62
4
 10
-2.26251018E+02
 20
-1.37282466E+02
 11
-1.89751027E+02
 21
-1.37282466E+02
  0
LINE
  8
0
 62
4
 10
-1.93251017E+02
 20
-9.32824609E+01
 11
-1.93251017E+02
 21
-1.09282457E+02
  0
LINE
  8
0
 62
7
 10
-2.05751017E+02
 20
-6.67824616E+01
 11
-2.05751017E+02
 21
-6.97824594E+01
  0
LINE
  8
0
 62
7
 10
-1.89751027E+02
 20
-6.95324660E+01
 11
-2.05751017E+02
 21
-6.95324660E+01
  0
LINE
  8
0
 62
7
 10
-1.89751027E+02
 20
-6.67824616E+01
 11
-2.05751017E+02
 21
-6.67824616E+01
  0
LINE
  8
0
 62
7
 10
-1.89751027E+02
 20
-1.33032463E+02
 11
-2.05751017E+02
 21
-1.33032463E+02
  0
LINE
  8
0
 62
7
 10
-2.05751017E+02
 20
-1.35782462E+02
 11
-2.05751017E+02
 21
-1.32782458E+02
  0
LINE
  8
0
 62
7
 10
-1.89751027E+02
 20
-1.35782462E+02
 11
-2.05751017E+02
 21
-1.35782462E+02
  0
LINE
  8
0
 62
7
 10
1.87497467E+02
 20
1.41750001E+02
 11
2.18493793E+02
 21
1.41750001E+02
  0
LINE
  8
0
 62
4
 10
2.18497484E+02
 20
2.11749998E+02
 11
2.23062239E+02
 21
2.11749998E+02
  0
LINE
  8
0
  6
CENTER
 62
2
 10
3.32497472E+02
 20
1.92749999E+02
 11
3.24497469E+02
 21
1.92749999E+02
  0
LINE
  8
0
  6
CENTER
 62
2
 10
3.28497473E+02
 20
1.96749998E+02
 11
3.28497473E+02
 21
1.88749999E+02
  0
LINE
  8
0
 62
7
 10
3.49497475E+02
 20
1.67050003E+02
 11
3.49497475E+02
 21
1.86449995E+02
  0
LINE
  8
0
 62
7
 10
2.27497467E+02
 20
1.67050003E+02
 11
2.27497467E+02
 21
1.86449995E+02
  0
LINE
  8
0
 62
7
 10
2.27997476E+02
 20
1.66550003E+02
 11
3.48997471E+02
 21
1.66550003E+02
  0
LINE
  8
0
 62
7
 10
2.21497471E+02
 20
1.93749997E+02
 11
2.21497471E+02
 21
1.91749998E+02
  0
LINE
  8
0
 62
7
 10
2.29497480E+02
 20
1.51750001E+02
 11
3.47497472E+02
 21
1.51750001E+02
  0
LINE
  8
0
 62
7
 10
2.29497480E+02
 20
2.01749998E+02
 11
3.47497472E+02
 21
2.01749998E+02
  0
LINE
  8
0
 62
7
 10
3.55497470E+02
 20
1.93749997E+02
 11
3.55497470E+02
 21
1.91749998E+02
  0
LINE
  8
0
 62
7
 10
3.56497471E+02
 20
1.91749998E+02
 11
3.55497470E+02
 21
1.91749998E+02
  0
LINE
  8
0
 62
7
 10
2.27997476E+02
 20
1.86949996E+02
 11
3.48997471E+02
 21
1.86949996E+02
  0
LINE
  8
0
 62
7
 10
2.20497476E+02
 20
1.61750000E+02
 11
2.21497471E+02
 21
1.61750000E+02
  0
LINE
  8
0
 62
7
 10
3.56497471E+02
 20
1.61750000E+02
 11
3.55497470E+02
 21
1.61750000E+02
  0
LINE
  8
0
 62
7
 10
2.21497471E+02
 20
1.59750001E+02
 11
2.21497471E+02
 21
1.61750000E+02
  0
LINE
  8
0
 62
7
 10
3.55497470E+02
 20
1.61750000E+02
 11
3.55497470E+02
 21
1.59750001E+02
  0
LINE
  8
0
 62
7
 10
2.20497476E+02
 20
1.91749998E+02
 11
2.21497471E+02
 21
1.91749998E+02
  0
LINE
  8
0
  6
CENTER
 62
2
 10
2.48497473E+02
 20
1.96749998E+02
 11
2.48497473E+02
 21
1.88749999E+02
  0
LINE
  8
0
  6
CENTER
 62
2
 10
2.44497480E+02
 20
1.92749999E+02
 11
2.52497478E+02
 21
1.92749999E+02
  0
LINE
  8
0
  6
CENTER
 62
2
 10
3.28497473E+02
 20
1.56750001E+02
 11
3.28497473E+02
 21
1.64750000E+02
  0
LINE
  8
0
  6
CENTER
 62
2
 10
3.32497472E+02
 20
1.60750000E+02
 11
3.24497469E+02
 21
1.60750000E+02
  0
LINE
  8
0
  6
CENTER
 62
2
 10
2.48497473E+02
 20
1.56750001E+02
 11
2.48497473E+02
 21
1.64750000E+02
  0
LINE
  8
0
  6
CENTER
 62
2
 10
2.44497480E+02
 20
1.60750000E+02
 11
2.52497478E+02
 21
1.60750000E+02
  0
LINE
  8
0
 62
4
 10
3.63497473E+02
 20
2.08250000E+02
 11
3.63497473E+02
 21
1.96992643E+02
  0
LINE
  8
0
 62
4
 10
2.27697466E+02
 20
2.03250000E+02
 11
3.48497473E+02
 21
2.03250000E+02
  0
LINE
  8
0
 62
4
 10
2.19697479E+02
 20
1.95249999E+02
 11
2.19697479E+02
 21
1.92749999E+02
  0
LINE
  8
0
  6
CENTER
 62
6
 10
3.61497471E+02
 20
2.05750000E+02
 11
3.53497473E+02
 21
2.05750000E+02
  0
LINE
  8
0
 62
4
 10
2.13497484E+02
 20
2.06749998E+02
 11
2.13497484E+02
 21
1.96992643E+02
  0
LINE
  8
0
 62
4
 10
2.27697466E+02
 20
1.50250000E+02
 11
3.48497473E+02
 21
1.50250000E+02
  0
LINE
  8
0
  6
CENTER
 62
6
 10
3.61497471E+02
 20
1.47749999E+02
 11
3.53497473E+02
 21
1.47749999E+02
  0
LINE
  8
0
 62
4
 10
2.19697479E+02
 20
1.60750000E+02
 11
2.19697479E+02
 21
1.58250000E+02
  0
LINE
  8
0
  6
CENTER
 62
6
 10
3.57497472E+02
 20
2.09749999E+02
 11
3.57497472E+02
 21
2.01749998E+02
  0
LINE
  8
0
 62
4
 10
3.56497471E+02
 20
1.95249999E+02
 11
3.56497471E+02
 21
1.58250000E+02
  0
LINE
  8
0
  6
CENTER
 62
6
 10
2.19497480E+02
 20
2.09749999E+02
 11
2.19497480E+02
 21
2.01749998E+02
  0
LINE
  8
0
  6
CENTER
 62
6
 10
2.15497476E+02
 20
2.05750000E+02
 11
2.23497484E+02
 21
2.05750000E+02
  0
LINE
  8
0
  6
CENTER
 62
6
 10
3.57497472E+02
 20
1.43750000E+02
 11
3.57497472E+02
 21
1.51750001E+02
  0
LINE
  8
0
  6
CENTER
 62
6
 10
2.19497480E+02
 20
1.43750000E+02
 11
2.19497480E+02
 21
1.51750001E+02
  0
LINE
  8
0
  6
CENTER
 62
6
 10
2.15497476E+02
 20
1.47749999E+02
 11
2.23497484E+02
 21
1.47749999E+02
  0
LINE
  8
0
 62
4
 10
2.13497484E+02
 20
1.88507361E+02
 11
2.13497484E+02
 21
1.64992638E+02
  0
LINE
  8
0
 62
4
 10
2.13497484E+02
 20
1.56507363E+02
 11
2.13497484E+02
 21
1.46749999E+02
  0
LINE
  8
0
 62
4
 10
2.20497476E+02
 20
1.92749999E+02
 11
2.20497476E+02
 21
1.60750000E+02
  0
LINE
  8
0
 62
4
 10
3.63497473E+02
 20
1.56507363E+02
 11
3.63497473E+02
 21
1.46749999E+02
  0
LINE
  8
0
 62
4
 10
3.63497473E+02
 20
1.88507361E+02
 11
3.63497473E+02
 21
1.64992638E+02
  0
LINE
  8
0
 62
4
 10
2.19697479E+02
 20
1.92749999E+02
 11
2.20497476E+02
 21
1.92749999E+02
  0
LINE
  8
0
 62
4
 10
2.19697479E+02
 20
1.60750000E+02
 11
2.20497476E+02
 21
1.60750000E+02
  0
LINE
  8
0
  6
CENTER
 62
2
 10
2.08997471E+02
 20
1.92749999E+02
 11
1.95997484E+02
 21
1.92749999E+02
  0
LINE
  8
0
 62
7
 10
1.85497476E+02
 20
1.43750000E+02
 11
1.85497476E+02
 21
2.09749999E+02
  0
LINE
  8
0
  6
CENTER
 62
2
 10
2.02497467E+02
 20
1.99249998E+02
 11
2.02497467E+02
 21
1.86249999E+02
  0
LINE
  8
0
 62
7
 10
2.09497480E+02
 20
1.96622985E+02
 11
2.09497480E+02
 21
2.11749998E+02
  0
LINE
  8
0
 62
7
 10
2.09497480E+02
 20
1.64622986E+02
 11
2.09497480E+02
 21
1.88877013E+02
  0
LINE
  8
0
 62
7
 10
2.09497480E+02
 20
1.41750001E+02
 11
2.09497480E+02
 21
1.56877014E+02
  0
LINE
  8
0
  6
CENTER
 62
2
 10
2.08997471E+02
 20
1.60750000E+02
 11
1.95997484E+02
 21
1.60750000E+02
  0
LINE
  8
0
  6
CENTER
 62
2
 10
2.02497467E+02
 20
1.67250000E+02
 11
2.02497467E+02
 21
1.54250001E+02
  0
LINE
  8
0
 62
7
 10
2.09497480E+02
 20
2.05249999E+02
 11
2.13497484E+02
 21
2.05249999E+02
  0
LINE
  8
0
 62
7
 10
2.09497480E+02
 20
2.08250000E+02
 11
2.13727783E+02
 21
2.08250000E+02
  0
LINE
  8
0
 62
7
 10
2.09497480E+02
 20
1.48250001E+02
 11
2.13497484E+02
 21
1.48250001E+02
  0
LINE
  8
0
 62
7
 10
2.09497480E+02
 20
1.45249999E+02
 11
2.13727783E+02
 21
1.45249999E+02
  0
LINE
  8
0
 62
7
 10
2.09497480E+02
 20
1.68250000E+02
 11
2.13497484E+02
 21
1.68250000E+02
  0
LINE
  8
0
 62
7
 10
2.09497480E+02
 20
1.85249999E+02
 11
2.13497484E+02
 21
1.85249999E+02
  0
LINE
  8
0
 62
7
 10
2.09497480E+02
 20
1.45000000E+02
 11
2.13813734E+02
 21
1.45000000E+02
  0
LINE
  8
0
 62
7
 10
2.09497480E+02
 20
2.08499999E+02
 11
2.13813734E+02
 21
2.08499999E+02
  0
LINE
  8
0
 62
7
 10
3.63497473E+02
 20
2.08250000E+02
 11
3.68100766E+02
 21
2.08250000E+02
  0
LINE
  8
0
 62
7
 10
3.63497473E+02
 20
2.05249999E+02
 11
3.68629747E+02
 21
2.05249999E+02
  0
LINE
  8
0
 62
7
 10
3.63497473E+02
 20
1.85249999E+02
 11
3.72156287E+02
 21
1.85249999E+02
  0
LINE
  8
0
 62
7
 10
3.63497473E+02
 20
1.68250000E+02
 11
3.75153845E+02
 21
1.68250000E+02
  0
LINE
  8
0
 62
7
 10
3.63497473E+02
 20
1.48250001E+02
 11
3.78680385E+02
 21
1.48250001E+02
  0
LINE
  8
0
 62
7
 10
3.63497473E+02
 20
1.45249999E+02
 11
3.79209366E+02
 21
1.45249999E+02
  0
LINE
  8
0
 62
7
 10
2.18497484E+02
 20
2.11749998E+02
 11
1.87497467E+02
 21
2.11749998E+02
  0
CIRCLE
  8
0
 62
2
 10
3.28497473E+02
 20
1.92749999E+02
 40
2.99999986E+00
  0
CIRCLE
  8
0
 62
7
 10
3.28497473E+02
 20
1.92749999E+02
 40
2.34999980E+00
  0
ARC
  8
0
 62
7
 10
2.29497480E+02
 20
1.93749997E+02
 40
7.99999986E+00
 50
9.00000002E+01
 51
1.80000005E+02
  0
ARC
  8
0
 62
7
 10
3.47497472E+02
 20
1.93749997E+02
 40
7.99999986E+00
 50
0.00000000E+00
 51
9.00000002E+01
  0
ARC
  8
0
 62
7
 10
2.29497480E+02
 20
1.59750001E+02
 40
7.99999986E+00
 50
1.79999991E+02
 51
2.70000000E+02
  0
ARC
  8
0
 62
7
 10
3.47497472E+02
 20
1.59750001E+02
 40
7.99999986E+00
 50
2.70000000E+02
 51
0.00000000E+00
  0
CIRCLE
  8
0
 62
2
 10
2.48497473E+02
 20
1.92749999E+02
 40
2.99999986E+00
  0
CIRCLE
  8
0
 62
7
 10
2.48497473E+02
 20
1.92749999E+02
 40
2.34999980E+00
  0
CIRCLE
  8
0
 62
2
 10
3.28497473E+02
 20
1.60750000E+02
 40
2.99999986E+00
  0
CIRCLE
  8
0
 62
7
 10
3.28497473E+02
 20
1.60750000E+02
 40
2.34999980E+00
  0
CIRCLE
  8
0
 62
2
 10
2.48497473E+02
 20
1.60750000E+02
 40
2.99999986E+00
  0
CIRCLE
  8
0
 62
7
 10
2.48497473E+02
 20
1.60750000E+02
 40
2.34999980E+00
  0
ARC
  8
0
 62
7
 10
3.48997471E+02
 20
1.67050003E+02
 40
4.99999991E-01
 50
2.70000000E+02
 51
0.00000000E+00
  0
ARC
  8
0
 62
7
 10
2.27997476E+02
 20
1.67050003E+02
 40
4.99999991E-01
 50
1.79999991E+02
 51
2.70000000E+02
  0
ARC
  8
0
 62
7
 10
3.48997471E+02
 20
1.86449995E+02
 40
4.99999991E-01
 50
0.00000000E+00
 51
9.00000002E+01
  0
ARC
  8
0
 62
7
 10
2.27997476E+02
 20
1.86449995E+02
 40
4.99999991E-01
 50
9.00000002E+01
 51
1.80000005E+02
  0
CIRCLE
  8
0
 62
4
 10
3.57497472E+02
 20
2.05750000E+02
 40
2.34999980E+00
  0
ARC
  8
0
 62
4
 10
2.27697466E+02
 20
1.95249999E+02
 40
7.99999986E+00
 50
9.00000002E+01
 51
1.80000005E+02
  0
ARC
  8
0
 62
4
 10
3.48497473E+02
 20
1.95249999E+02
 40
7.99999986E+00
 50
0.00000000E+00
 51
9.00000002E+01
  0
ARC
  8
0
 62
4
 10
2.27697466E+02
 20
1.58250000E+02
 40
7.99999986E+00
 50
1.79999991E+02
 51
2.70000000E+02
  0
ARC
  8
0
 62
4
 10
3.58497473E+02
 20
2.06749998E+02
 40
5.00000000E+00
 50
0.00000000E+00
 51
9.00000002E+01
  0
ARC
  8
0
 62
4
 10
2.18497484E+02
 20
2.06749998E+02
 40
5.00000000E+00
 50
9.00000002E+01
 51
1.80000005E+02
  0
ARC
  8
0
 62
4
 10
3.48497473E+02
 20
1.58250000E+02
 40
7.99999986E+00
 50
2.70000000E+02
 51
0.00000000E+00
  0
CIRCLE
  8
0
 62
4
 10
3.57497472E+02
 20
1.47749999E+02
 40
2.34999980E+00
  0
ARC
  8
0
 62
4
 10
3.58497473E+02
 20
1.46749999E+02
 40
5.00000000E+00
 50
2.70000000E+02
 51
0.00000000E+00
  0
ARC
  8
0
 62
4
 10
2.18497484E+02
 20
1.46749999E+02
 40
5.00000000E+00
 50
1.79999991E+02
 51
2.70000000E+02
  0
CIRCLE
  8
0
 62
6
 10
2.19497480E+02
 20
2.05750000E+02
 40
2.99999986E+00
  0
CIRCLE
  8
0
 62
6
 10
3.57497472E+02
 20
2.05750000E+02
 40
2.99999986E+00
  0
CIRCLE
  8
0
 62
4
 10
2.19497480E+02
 20
2.05750000E+02
 40
2.34999980E+00
  0
CIRCLE
  8
0
 62
6
 10
2.19497480E+02
 20
1.47749999E+02
 40
2.99999986E+00
  0
CIRCLE
  8
0
 62
6
 10
3.57497472E+02
 20
1.47749999E+02
 40
2.99999986E+00
  0
CIRCLE
  8
0
 62
4
 10
2.19497480E+02
 20
1.47749999E+02
 40
2.34999980E+00
  0
ARC
  8
0
 62
4
 10
2.04997467E+02
 20
1.92749999E+02
 40
9.50000014E+00
 50
3.33474648E+02
 51
2.65253521E+01
  0
ARC
  8
0
 62
4
 10
2.04997467E+02
 20
1.60750000E+02
 40
9.50000014E+00
 50
3.33474648E+02
 51
2.65253521E+01
  0
ARC
  8
0
 62
4
 10
3.71997475E+02
 20
1.60750000E+02
 40
9.50000014E+00
 50
1.53474651E+02
 51
2.06525359E+02
  0
ARC
  8
0
 62
4
 10
3.71997475E+02
 20
1.92749999E+02
 40
9.50000014E+00
 50
1.53474651E+02
 51
2.06525359E+02
  0
CIRCLE
  8
0
 62
7
 10
2.02497467E+02
 20
1.60750000E+02
 40
3.50000007E+00
  0
CIRCLE
  8
0
 62
7
 10
2.02497467E+02
 20
1.60750000E+02
 40
5.49999986E+00
  0
CIRCLE
  8
0
 62
7
 10
2.02497467E+02
 20
1.92749999E+02
 40
3.50000007E+00
  0
CIRCLE
  8
0
 62
7
 10
2.02497467E+02
 20
1.92749999E+02
 40
5.49999986E+00
  0
ARC
  8
0
 62
7
 10
2.02497467E+02
 20
1.60750000E+02
 40
7.99999986E+00
 50
3.31044980E+02
 51
2.89550263E+01
  0
ARC
  8
0
 62
7
 10
2.02497467E+02
 20
1.92749999E+02
 40
7.99999986E+00
 50
3.31044980E+02
 51
2.89550263E+01
  0
ARC
  8
0
 62
7
 10
1.87497467E+02
 20
1.43750000E+02
 40
1.99999997E+00
 50
1.79999991E+02
 51
2.70000000E+02
  0
ARC
  8
0
 62
7
 10
1.87497467E+02
 20
2.09749999E+02
 40
1.99999997E+00
 50
9.00000002E+01
 51
1.80000005E+02
  0
LINE
  8
0
  6
CENTER
 62
2
 10
1.79527147E+02
 20
1.76750000E+02
 11
3.86940085E+02
 21
1.76750000E+02
  0
LINE
  8
0
 62
4
 10
2.23062239E+02
 20
2.11749998E+02
 11
3.58497473E+02
 21
2.11749998E+02
  0
LINE
  8
0
 62
4
 10
2.18497484E+02
 20
1.41750001E+02
 11
3.58497473E+02
 21
1.41750001E+02
  0
LINE
  8
0
 62
7
 10
3.58497473E+02
 20
2.11749998E+02
 11
3.67483622E+02
 21
2.11749998E+02
  0
LINE
  8
0
 62
7
 10
3.58501165E+02
 20
1.41750001E+02
 11
3.79826510E+02
 21
1.41750001E+02
  0
LINE
  8
0
  6
PHANTOM
 10
3.80432977E+02
 20
1.38310557E+02
 11
3.66877155E+02
 21
2.15189443E+02
  0
LINE
  8
0
 62
4
 10
4.27543134E+02
 20
2.11749998E+02
 11
4.27543134E+02
 21
1.41750001E+02
  0
LINE
  8
0
 62
4
 10
4.38543130E+02
 20
2.11749998E+02
 11
4.38543130E+02
 21
2.10016499E+02
  0
LINE
  8
0
 62
4
 10
4.27543134E+02
 20
2.11749998E+02
 11
4.38543130E+02
 21
2.11749998E+02
  0
LINE
  8
0
 62
4
 10
4.27543134E+02
 20
1.41750001E+02
 11
4.38543130E+02
 21
1.41750001E+02
  0
LINE
  8
0
  6
CENTER
 62
2
 10
4.23989747E+02
 20
1.76750000E+02
 11
4.80551733E+02
 21
1.76750000E+02
  0
LINE
  8
0
  6
CENTER
 62
2
 10
4.54543132E+02
 20
1.49250000E+02
 11
4.38543132E+02
 21
1.49250000E+02
  0
LINE
  8
0
  6
CENTER
 62
2
 10
4.46543132E+02
 20
1.57250000E+02
 11
4.46543132E+02
 21
1.41250000E+02
  0
LINE
  8
0
 62
7
 10
4.75543132E+02
 20
1.78250004E+02
 11
4.75543132E+02
 21
1.75249996E+02
  0
LINE
  8
0
  6
CENTER
 62
2
 10
4.62543132E+02
 20
2.04250000E+02
 11
4.78543132E+02
 21
2.04250000E+02
  0
LINE
  8
0
 62
7
 10
4.76543132E+02
 20
1.41750000E+02
 11
4.45543131E+02
 21
1.41750000E+02
  0
LINE
  8
0
 62
7
 10
4.75152904E+02
 20
2.01249991E+02
 11
4.76543132E+02
 21
2.01249991E+02
  0
LINE
  8
0
 62
7
 10
4.55743129E+02
 20
2.06549979E+02
 11
4.62543132E+02
 21
2.06549979E+02
  0
LINE
  8
0
 62
7
 10
4.76543132E+02
 20
1.41750000E+02
 11
4.76543132E+02
 21
1.75249996E+02
  0
LINE
  8
0
 62
7
 10
4.75543132E+02
 20
1.78250004E+02
 11
4.76543132E+02
 21
1.78250004E+02
  0
LINE
  8
0
 62
7
 10
4.76543132E+02
 20
1.78250004E+02
 11
4.76543132E+02
 21
2.11750000E+02
  0
LINE
  8
0
 62
7
 10
4.45543131E+02
 20
2.11750000E+02
 11
4.53743129E+02
 21
2.11750000E+02
  0
LINE
  8
0
 62
7
 10
4.64543132E+02
 20
2.11750000E+02
 11
4.76543132E+02
 21
2.11750000E+02
  0
LINE
  8
0
  6
CENTER
 62
2
 10
4.46543132E+02
 20
2.12250000E+02
 11
4.46543132E+02
 21
1.96250000E+02
  0
LINE
  8
0
  6
CENTER
 62
2
 10
4.70543132E+02
 20
1.96250000E+02
 11
4.70543132E+02
 21
2.12250000E+02
  0
LINE
  8
0
  6
CENTER
 62
2
 10
4.38543132E+02
 20
2.04250000E+02
 11
4.54543132E+02
 21
2.04250000E+02
  0
LINE
  8
0
 62
7
 10
4.64543132E+02
 20
2.08549992E+02
 11
4.64543132E+02
 21
2.11750000E+02
  0
LINE
  8
0
 62
7
 10
4.75543132E+02
 20
1.75249996E+02
 11
4.76543132E+02
 21
1.75249996E+02
  0
LINE
  8
0
 62
7
 10
4.53743129E+02
 20
2.08549992E+02
 11
4.53743129E+02
 21
2.11750000E+02
  0
LINE
  8
0
 62
7
 10
4.53543132E+02
 20
1.68749991E+02
 11
4.53543132E+02
 21
1.84750009E+02
  0
LINE
  8
0
 62
7
 10
4.75152904E+02
 20
2.07250009E+02
 11
4.76543132E+02
 21
2.07250009E+02
  0
LINE
  8
0
 62
7
 10
4.44043132E+02
 20
2.05693372E+02
 11
4.44043132E+02
 21
2.02806628E+02
  0
LINE
  8
0
 62
7
 10
4.44043138E+02
 20
2.05693366E+02
 11
4.46543132E+02
 21
2.07136738E+02
  0
LINE
  8
0
 62
7
 10
4.46543138E+02
 20
2.01363239E+02
 11
4.49043132E+02
 21
2.02806611E+02
  0
LINE
  8
0
 62
7
 10
4.44043132E+02
 20
2.02806612E+02
 11
4.46543127E+02
 21
2.01363239E+02
  0
LINE
  8
0
 62
7
 10
4.46543132E+02
 20
2.07136739E+02
 11
4.49043127E+02
 21
2.05693366E+02
  0
LINE
  8
0
 62
7
 10
4.49043132E+02
 20
2.05693372E+02
 11
4.49043132E+02
 21
2.02806628E+02
  0
LINE
  8
0
 62
7
 10
4.49043132E+02
 20
1.50693372E+02
 11
4.49043132E+02
 21
1.47806628E+02
  0
LINE
  8
0
 62
7
 10
4.46543136E+02
 20
1.52136746E+02
 11
4.49043130E+02
 21
1.50693374E+02
  0
LINE
  8
0
 62
7
 10
4.44043136E+02
 20
1.47806619E+02
 11
4.46543130E+02
 21
1.46363247E+02
  0
LINE
  8
0
 62
7
 10
4.46543134E+02
 20
1.46363246E+02
 11
4.49043133E+02
 21
1.47806622E+02
  0
LINE
  8
0
 62
7
 10
4.44043134E+02
 20
1.50693373E+02
 11
4.46543133E+02
 21
1.52136749E+02
  0
LINE
  8
0
 62
7
 10
4.44043132E+02
 20
1.50693372E+02
 11
4.44043132E+02
 21
1.47806628E+02
  0
LINE
  8
0
 62
7
 10
4.73043132E+02
 20
2.05693372E+02
 11
4.73043132E+02
 21
2.02806628E+02
  0
LINE
  8
0
 62
7
 10
4.70543136E+02
 20
2.07136751E+02
 11
4.73043131E+02
 21
2.05693379E+02
  0
LINE
  8
0
 62
7
 10
4.68043136E+02
 20
2.02806624E+02
 11
4.70543131E+02
 21
2.01363252E+02
  0
LINE
  8
0
 62
7
 10
4.70543131E+02
 20
2.01363245E+02
 11
4.73043135E+02
 21
2.02806623E+02
  0
LINE
  8
0
 62
7
 10
4.68043131E+02
 20
2.05693372E+02
 11
4.70543135E+02
 21
2.07136750E+02
  0
LINE
  8
0
 62
7
 10
4.68043132E+02
 20
2.05693372E+02
 11
4.68043132E+02
 21
2.02806628E+02
  0
CIRCLE
  8
0
 62
7
 10
4.46543132E+02
 20
2.04250000E+02
 40
5.49999986E+00
  0
ARC
  8
0
 62
7
 10
4.70543132E+02
 20
2.04250000E+02
 40
5.49999986E+00
 50
3.30557396E+01
 51
3.26944262E+02
  0
ARC
  8
0
 62
7
 10
4.62543132E+02
 20
2.08549992E+02
 40
1.99999997E+00
 50
2.70000000E+02
 51
6.83245444E-07
  0
ARC
  8
0
 62
7
 10
4.45543131E+02
 20
1.96750000E+02
 40
1.50000000E+01
 50
9.00000002E+01
 51
1.80000000E+02
  0
CIRCLE
  8
0
 62
7
 10
4.46543132E+02
 20
1.49250000E+02
 40
5.49999986E+00
  0
ARC
  8
0
 62
7
 10
4.55743129E+02
 20
2.08549992E+02
 40
1.99999997E+00
 50
1.79999989E+02
 51
2.70000000E+02
  0
CIRCLE
  8
0
 62
7
 10
4.46543132E+02
 20
2.04250000E+02
 40
5.00000000E+00
  0
CIRCLE
  8
0
 62
7
 10
4.46543132E+02
 20
1.49250000E+02
 40
5.00000000E+00
  0
CIRCLE
  8
0
 62
7
 10
4.70543132E+02
 20
2.04250000E+02
 40
5.00000000E+00
  0
ARC
  8
0
 62
7
 10
4.45543131E+02
 20
1.56750000E+02
 40
1.50000000E+01
 50
1.79999989E+02
 51
2.70000000E+02
  0
LINE
  8
0
 62
7
 10
4.30543131E+02
 20
1.56750000E+02
 11
4.30543131E+02
 21
1.73999996E+02
  0
LINE
  8
0
 62
4
 10
4.38543130E+02
 20
1.43483501E+02
 11
4.38543130E+02
 21
1.41750001E+02
  0
LINE
  8
0
 62
7
 10
4.30743133E+02
 20
1.73999996E+02
 11
4.30743133E+02
 21
1.79500004E+02
  0
LINE
  8
0
 62
7
 10
4.38543132E+02
 20
1.68749991E+02
 11
4.53543132E+02
 21
1.68749991E+02
  0
LINE
  8
0
 62
7
 10
4.38543132E+02
 20
1.68749991E+02
 11
4.38543132E+02
 21
1.73999996E+02
  0
LINE
  8
0
 62
7
 10
4.30543131E+02
 20
1.73999996E+02
 11
4.38543132E+02
 21
1.73999996E+02
  0
LINE
  8
0
 62
7
 10
4.38543132E+02
 20
1.84750009E+02
 11
4.53543132E+02
 21
1.84750009E+02
  0
LINE
  8
0
 62
7
 10
4.38543132E+02
 20
1.84750009E+02
 11
4.38543132E+02
 21
1.79500004E+02
  0
LINE
  8
0
 62
7
 10
4.30543131E+02
 20
1.79500004E+02
 11
4.38543132E+02
 21
1.79500004E+02
  0
LINE
  8
0
 62
7
 10
4.30543131E+02
 20
1.79500004E+02
 11
4.30543131E+02
 21
1.96750000E+02
  0
LINE
  8
0
  6
CENTER
 62
6
 10
2.68468663E+02
 20
-2.17103865E+02
 11
2.68468663E+02
 21
-1.99406652E+02
  0
LINE
  8
0
 62
4
 10
2.35968652E+02
 20
-2.12527881E+02
 11
3.00968663E+02
 21
-2.12527881E+02
  0
LINE
  8
0
 62
4
 10
2.35968652E+02
 20
-2.04527882E+02
 11
3.00968663E+02
 21
-2.04527882E+02
  0
LINE
  8
0
 62
4
 10
2.35968652E+02
 20
-2.12527881E+02
 11
2.35968652E+02
 21
-2.04527882E+02
  0
LINE
  8
0
 62
4
 10
3.00968663E+02
 20
-2.12527881E+02
 11
3.00968663E+02
 21
-2.04527882E+02
  0
LINE
  8
0
  6
CENTER
 62
6
 10
2.45968652E+02
 20
-2.14108159E+02
 11
2.45968652E+02
 21
-2.02643001E+02
  0
LINE
  8
0
  6
CENTER
 62
6
 10
2.90968663E+02
 20
-2.14985274E+02
 11
2.90968663E+02
 21
-2.02267094E+02
  0
LINE
  8
0
  6
DASHED
 62
6
 10
2.42668655E+02
 20
-2.12527887E+02
 11
2.42668655E+02
 21
-2.04527887E+02
  0
LINE
  8
0
  6
DASHED
 62
6
 10
2.49268670E+02
 20
-2.12527887E+02
 11
2.49268670E+02
 21
-2.04527887E+02
  0
LINE
  8
0
  6
DASHED
 62
6
 10
2.87668655E+02
 20
-2.12527887E+02
 11
2.87668655E+02
 21
-2.04527887E+02
  0
LINE
  8
0
  6
DASHED
 62
6
 10
2.94268659E+02
 20
-2.12527887E+02
 11
2.94268659E+02
 21
-2.04527887E+02
  0
LINE
  8
0
 62
4
 10
4.94468678E+02
 20
-2.05527881E+02
 11
4.94468678E+02
 21
-2.12527881E+02
  0
LINE
  8
0
  6
CENTER
 62
6
 10
4.89468678E+02
 20
-2.02246600E+02
 11
4.89468678E+02
 21
-2.17595479E+02
  0
LINE
  8
0
 62
4
 10
4.82468678E+02
 20
-2.12527881E+02
 11
4.94468678E+02
 21
-2.12527881E+02
  0
LINE
  8
0
  6
DASHED
 62
6
 10
4.86168678E+02
 20
-2.04527882E+02
 11
4.86168678E+02
 21
-2.12527881E+02
  0
LINE
  8
0
  6
DASHED
 62
6
 10
4.92768677E+02
 20
-2.04527882E+02
 11
4.92768677E+02
 21
-2.12527881E+02
  0
LINE
  8
0
 62
4
 10
4.93468678E+02
 20
-2.04527882E+02
 11
4.82468678E+02
 21
-2.04527882E+02
  0
LINE
  8
0
  6
DASHED
 62
6
 10
4.08768683E+02
 20
-2.04527882E+02
 11
4.08768683E+02
 21
-2.12527881E+02
  0
LINE
  8
0
  6
DASHED
 62
6
 10
4.02168679E+02
 20
-2.04527882E+02
 11
4.02168679E+02
 21
-2.12527881E+02
  0
LINE
  8
0
 62
4
 10
4.01468683E+02
 20
-2.04527882E+02
 11
4.12468678E+02
 21
-2.04527882E+02
  0
LINE
  8
0
 62
4
 10
4.00468676E+02
 20
-2.05527881E+02
 11
4.00468676E+02
 21
-2.12527881E+02
  0
LINE
  8
0
  6
CENTER
 62
6
 10
4.05468676E+02
 20
-2.02246600E+02
 11
4.05468676E+02
 21
-2.17595479E+02
  0
LINE
  8
0
 62
4
 10
4.12468678E+02
 20
-2.12527881E+02
 11
4.00468676E+02
 21
-2.12527881E+02
  0
ARC
  8
0
 62
4
 10
4.93468678E+02
 20
-2.05527881E+02
 40
9.99999983E-01
 50
0.00000000E+00
 51
9.00000002E+01
  0
ARC
  8
0
 62
4
 10
4.01468683E+02
 20
-2.05527881E+02
 40
9.99999983E-01
 50
9.00000002E+01
 51
1.80000005E+02
  0
TEXT
  8
0
 62
7
 10
-5.43483017E+02
 20
1.03829486E+01
 40
1.25000000E+01
  1
MODEL:ORV32*ST(100)-K2
 41
1.00000015E+00
  7
MONOTXT
  0
TEXT
  8
0
 62
7
 10
-2.67146873E+01
 20
-3.72500000E+02
 40
9.00000000E+00
  1
1100
 41
1.00000000E+00
  7
MONOTXT
  0
TEXT
  8
0
 62
7
 10
-2.67146873E+01
 20
-3.87500000E+02
 40
9.00000000E+00
  1
1000
 41
1.00000000E+00
  7
MONOTXT
  0
LINE
  8
0
 62
7
 10
-3.25000000E+01
 20
-3.60500000E+02
 11
-3.25000000E+01
 21
-3.90500000E+02
  0
TEXT
  8
0
 62
7
 10
1.82853127E+01
 20
-3.72500000E+02
 40
9.00000000E+00
  1
1200
 41
1.00000000E+00
  7
MONOTXT
  0
TEXT
  8
0
 62
7
 10
1.82853127E+01
 20
-3.87500000E+02
 40
9.00000000E+00
  1
1100
 41
1.00000000E+00
  7
MONOTXT
  0
LINE
  8
0
 62
7
 10
1.25000000E+01
 20
-3.60500000E+02
 11
1.25000000E+01
 21
-3.90500000E+02
  0
LINE
  8
0
 62
7
 10
5.75000000E+01
 20
-3.60500000E+02
 11
5.75000000E+01
 21
-3.90500000E+02
  0
TEXT
  8
0
 62
7
 10
-4.63214687E+02
 20
-3.87500000E+02
 40
9.00000000E+00
  1
0
 41
1.00000000E+00
  7
MONOTXT
  0
TEXT
  8
0
 62
7
 10
-5.48714687E+02
 20
-3.87500000E+02
 40
9.00000000E+00
  1
STRETCH
 41
1.00000000E+00
  7
MONOTXT
  0
TEXT
  8
0
 62
7
 10
-4.72214687E+02
 20
-3.72500000E+02
 40
9.00000000E+00
  1
100
 41
1.00000000E+00
  7
MONOTXT
  0
TEXT
  8
0
 62
7
 10
-5.44214687E+02
 20
-3.72500000E+02
 40
9.00000000E+00
  1
STROKE
 41
1.00000000E+00
  7
MONOTXT
  0
LINE
  8
0
 62
7
 10
-4.82500000E+02
 20
-3.60500000E+02
 11
-4.82500000E+02
 21
-3.90500000E+02
  0
LINE
  8
0
 62
7
 10
-5.54500000E+02
 20
-3.60500000E+02
 11
-5.54500000E+02
 21
-3.90500000E+02
  0
TEXT
  8
0
 62
7
 10
-4.27214687E+02
 20
-3.72500000E+02
 40
9.00000000E+00
  1
200
 41
1.00000000E+00
  7
MONOTXT
  0
TEXT
  8
0
 62
7
 10
-3.82214687E+02
 20
-3.72500000E+02
 40
9.00000000E+00
  1
300
 41
1.00000000E+00
  7
MONOTXT
  0
TEXT
  8
0
 62
7
 10
-3.37214687E+02
 20
-3.72500000E+02
 40
9.00000000E+00
  1
400
 41
1.00000000E+00
  7
MONOTXT
  0
TEXT
  8
0
 62
7
 10
-2.92214687E+02
 20
-3.72500000E+02
 40
9.00000000E+00
  1
500
 41
1.00000000E+00
  7
MONOTXT
  0
TEXT
  8
0
 62
7
 10
-2.47214687E+02
 20
-3.72500000E+02
 40
9.00000000E+00
  1
600
 41
1.00000000E+00
  7
MONOTXT
  0
TEXT
  8
0
 62
7
 10
-2.02214687E+02
 20
-3.72500000E+02
 40
9.00000000E+00
  1
700
 41
1.00000000E+00
  7
MONOTXT
  0
TEXT
  8
0
 62
7
 10
-1.57214687E+02
 20
-3.72500000E+02
 40
9.00000000E+00
  1
800
 41
1.00000000E+00
  7
MONOTXT
  0
TEXT
  8
0
 62
7
 10
-1.12214687E+02
 20
-3.72500000E+02
 40
9.00000000E+00
  1
900
 41
1.00000000E+00
  7
MONOTXT
  0
TEXT
  8
0
 62
7
 10
-4.27214687E+02
 20
-3.87500000E+02
 40
9.00000000E+00
  1
100
 41
1.00000000E+00
  7
MONOTXT
  0
LINE
  8
0
 62
7
 10
-4.37500000E+02
 20
-3.60500000E+02
 11
-4.37500000E+02
 21
-3.90500000E+02
  0
TEXT
  8
0
 62
7
 10
-3.82214687E+02
 20
-3.87500000E+02
 40
9.00000000E+00
  1
200
 41
1.00000000E+00
  7
MONOTXT
  0
LINE
  8
0
 62
7
 10
-3.92500000E+02
 20
-3.60500000E+02
 11
-3.92500000E+02
 21
-3.90500000E+02
  0
TEXT
  8
0
 62
7
 10
-3.37214687E+02
 20
-3.87500000E+02
 40
9.00000000E+00
  1
300
 41
1.00000000E+00
  7
MONOTXT
  0
LINE
  8
0
 62
7
 10
-3.47500000E+02
 20
-3.60500000E+02
 11
-3.47500000E+02
 21
-3.90500000E+02
  0
TEXT
  8
0
 62
7
 10
-2.92214687E+02
 20
-3.87500000E+02
 40
9.00000000E+00
  1
400
 41
1.00000000E+00
  7
MONOTXT
  0
LINE
  8
0
 62
7
 10
-3.02500000E+02
 20
-3.60500000E+02
 11
-3.02500000E+02
 21
-3.90500000E+02
  0
TEXT
  8
0
 62
7
 10
-2.47214687E+02
 20
-3.87500000E+02
 40
9.00000000E+00
  1
500
 41
1.00000000E+00
  7
MONOTXT
  0
LINE
  8
0
 62
7
 10
-2.57500000E+02
 20
-3.60500000E+02
 11
-2.57500000E+02
 21
-3.90500000E+02
  0
TEXT
  8
0
 62
7
 10
-2.02214687E+02
 20
-3.87500000E+02
 40
9.00000000E+00
  1
600
 41
1.00000000E+00
  7
MONOTXT
  0
LINE
  8
0
 62
7
 10
-2.12500000E+02
 20
-3.60500000E+02
 11
-2.12500000E+02
 21
-3.90500000E+02
  0
TEXT
  8
0
 62
7
 10
-1.57214687E+02
 20
-3.87500000E+02
 40
9.00000000E+00
  1
700
 41
1.00000000E+00
  7
MONOTXT
  0
LINE
  8
0
 62
7
 10
-1.67500000E+02
 20
-3.60500000E+02
 11
-1.67500000E+02
 21
-3.90500000E+02
  0
TEXT
  8
0
 62
7
 10
-1.12214687E+02
 20
-3.87500000E+02
 40
9.00000000E+00
  1
800
 41
1.00000000E+00
  7
MONOTXT
  0
LINE
  8
0
 62
7
 10
-1.22500000E+02
 20
-3.60500000E+02
 11
-1.22500000E+02
 21
-3.90500000E+02
  0
TEXT
  8
0
 62
7
 10
-6.72146873E+01
 20
-3.87500000E+02
 40
9.00000000E+00
  1
900
 41
1.00000000E+00
  7
MONOTXT
  0
LINE
  8
0
 62
7
 10
-7.75000000E+01
 20
-3.60500000E+02
 11
-7.75000000E+01
 21
-3.90500000E+02
  0
LINE
  8
0
 62
7
 10
-5.54500000E+02
 20
-3.90500000E+02
 11
5.75000000E+01
 21
-3.90500000E+02
  0
TEXT
  8
0
 62
7
 10
-7.17146873E+01
 20
-3.72500000E+02
 40
9.00000000E+00
  1
1000
 41
1.00000000E+00
  7
MONOTXT
  0
LINE
  8
0
 62
7
 10
-5.54500000E+02
 20
-3.75500000E+02
 11
5.75000000E+01
 21
-3.75500000E+02
  0
LINE
  8
0
 62
7
 10
-5.54500000E+02
 20
-3.60500000E+02
 11
5.75000000E+01
 21
-3.60500000E+02
  0
TEXT
  8
0
 62
7
 10
2.94851416E+01
 20
-3.56255112E+02
 40
9.00000000E+00
  1
(mm)
 41
1.00000000E+00
  7
MONOTXT
  0
TEXT
  8
0
 62
7
 10
-3.01214687E+02
 20
-3.55000000E+02
 40
9.00000000E+00
  1
STRETCH LIST
 41
1.05263158E+00
  7
MONOTXT
  0
TEXT
  8
0
 62
7
 10
2.59614663E+02
 20
-1.47500000E+01
 40
1.25000000E+01
  1
F-SUPPORT(-F)
 41
1.00000000E+00
  7
MONOTXT
  0
LINE
  8
0
 62
7
 10
1.04494949E+02
 20
0.00000000E+00
 11
5.74500000E+02
 21
0.00000000E+00
  0
LINE
  8
0
 62
7
 10
1.04494949E+02
 20
-1.70000000E+01
 11
5.74500000E+02
 21
-1.70000000E+01
  0
LINE
  8
0
 62
7
 10
1.04494949E+02
 20
-4.00500000E+02
 11
1.04494949E+02
 21
3.70500000E+02
  0
TEXT
  8
0
 62
7
 10
2.72114663E+02
 20
3.55750000E+02
 40
1.25000000E+01
  1
M-MOUNT(-M)
 41
1.00000000E+00
  7
MONOTXT
  0
LINE
  8
0
 62
7
 10
1.04494949E+02
 20
3.70500000E+02
 11
5.74500000E+02
 21
3.70500000E+02
  0
LINE
  8
0
 62
7
 10
1.04494949E+02
 20
3.53500000E+02
 11
5.74500000E+02
 21
3.53500000E+02
  0
TEXT
  8
0
 62
7
 10
-5.37179687E+02
 20
3.16250000E+02
 40
1.25000000E+01
  1
(WITH SENSOR SWITCH)
 41
1.06382995E+00
  7
MONOTXT
  0
LINE
  8
0
  6
PHANTOM
 62
2
 10
2.28648821E+02
 20
-2.03727874E+02
 11
3.13648832E+02
 21
-2.03727874E+02
  0
LINE
  8
0
  6
PHANTOM
 62
2
 10
2.29407028E+02
 20
-2.08027878E+02
 11
2.35968652E+02
 21
-2.08027878E+02
  0
LINE
  8
0
  6
PHANTOM
 62
2
 10
3.00968663E+02
 20
-2.08027878E+02
 11
3.14407038E+02
 21
-2.08027878E+02
  0
LINE
  8
0
  6
PHANTOM
 62
2
 10
3.00968663E+02
 20
-2.12527881E+02
 11
3.15200510E+02
 21
-2.12527881E+02
  0
LINE
  8
0
  6
PHANTOM
 62
2
 10
2.35968652E+02
 20
-2.12527881E+02
 11
2.30200500E+02
 21
-2.12527881E+02
  0
LINE
  8
0
  6
PHANTOM
 62
2
 10
4.48968683E+02
 20
-2.11527882E+02
 11
4.45968674E+02
 21
-2.11527882E+02
  0
LINE
  8
0
  6
PHANTOM
 62
2
 10
4.12468678E+02
 20
-2.12527881E+02
 11
4.12468678E+02
 21
-1.81527880E+02
  0
LINE
  8
0
  6
PHANTOM
 62
2
 10
4.27468678E+02
 20
-1.66527880E+02
 11
4.44718674E+02
 21
-1.66527880E+02
  0
LINE
  8
0
  6
PHANTOM
 62
2
 10
4.77268657E+02
 20
-1.91727878E+02
 11
4.77268657E+02
 21
-1.98527881E+02
  0
LINE
  8
0
  6
PHANTOM
 62
2
 10
4.12468678E+02
 20
-2.12527881E+02
 11
4.45968674E+02
 21
-2.12527881E+02
  0
LINE
  8
0
  6
PHANTOM
 62
2
 10
4.48968683E+02
 20
-2.11527882E+02
 11
4.48968683E+02
 21
-2.12527881E+02
  0
LINE
  8
0
  6
PHANTOM
 62
2
 10
4.48968683E+02
 20
-2.12527881E+02
 11
4.82468678E+02
 21
-2.12527881E+02
  0
LINE
  8
0
  6
PHANTOM
 62
2
 10
4.82468678E+02
 20
-1.81527880E+02
 11
4.82468678E+02
 21
-1.89727879E+02
  0
LINE
  8
0
  6
PHANTOM
 62
2
 10
4.82468678E+02
 20
-2.00527881E+02
 11
4.82468678E+02
 21
-2.12527881E+02
  0
LINE
  8
0
  6
PHANTOM
 62
2
 10
4.79268670E+02
 20
-2.00527881E+02
 11
4.82468678E+02
 21
-2.00527881E+02
  0
LINE
  8
0
  6
PHANTOM
 62
2
 10
4.45968674E+02
 20
-2.11527882E+02
 11
4.45968674E+02
 21
-2.12527881E+02
  0
LINE
  8
0
  6
PHANTOM
 62
2
 10
4.79268670E+02
 20
-1.89727879E+02
 11
4.82468678E+02
 21
-1.89727879E+02
  0
LINE
  8
0
  6
PHANTOM
 62
2
 10
4.50218683E+02
 20
-1.66527880E+02
 11
4.67468678E+02
 21
-1.66527880E+02
  0
LINE
  8
0
  6
PHANTOM
 62
2
 10
4.44718674E+02
 20
-1.66727882E+02
 11
4.50218683E+02
 21
-1.66727882E+02
  0
LINE
  8
0
  6
PHANTOM
 62
2
 10
4.22468678E+02
 20
-1.64527881E+02
 11
4.72468678E+02
 21
-1.64527881E+02
  0
LINE
  8
0
  6
PHANTOM
 62
2
 10
4.22468678E+02
 20
-1.67385746E+02
 11
4.22468678E+02
 21
-1.64527881E+02
  0
LINE
  8
0
  6
PHANTOM
 62
2
 10
4.72468678E+02
 20
-1.67385746E+02
 11
4.72468678E+02
 21
-1.64527881E+02
  0
ARC
  8
0
  6
PHANTOM
 62
2
 10
4.79268670E+02
 20
-1.98527881E+02
 40
1.99999997E+00
 50
1.79999991E+02
 51
2.70000000E+02
  0
ARC
  8
0
  6
PHANTOM
 62
2
 10
4.67468678E+02
 20
-1.81527880E+02
 40
1.50000000E+01
 50
9.33466765E-06
 51
9.00000002E+01
  0
ARC
  8
0
  6
PHANTOM
 62
2
 10
4.27468678E+02
 20
-1.81527880E+02
 40
1.50000000E+01
 50
9.00000002E+01
 51
1.80000005E+02
  0
ARC
  8
0
  6
PHANTOM
 62
2
 10
4.79268670E+02
 20
-1.91727878E+02
 40
1.99999997E+00
 50
9.00000002E+01
 51
1.80000005E+02
  0
LINE
  8
0
  6
PHANTOM
 62
2
 10
2.21736804E+02
 20
-1.64527881E+02
 11
3.06736815E+02
 21
-1.64527881E+02
  0
LINE
  8
0
  6
PHANTOM
 62
2
 10
2.22089458E+02
 20
-1.66527880E+02
 11
3.07089469E+02
 21
-1.66527880E+02
  0
LINE
  8
0
  6
PHANTOM
 10
3.16612229E+02
 20
-2.20534133E+02
 11
3.05325097E+02
 21
-1.56521629E+02
  0
LINE
  8
0
  6
PHANTOM
 10
2.31612218E+02
 20
-2.20534133E+02
 11
2.20325086E+02
 21
-1.56521629E+02
  0
LINE
  8
0
  6
CENTER
 62
2
 10
4.47468678E+02
 20
-1.56842508E+02
 11
4.47468678E+02
 21
-2.19676742E+02
  0
TEXT
  8
0
 10
-2.98965714E+02
 20
2.72999140E+02
 40
9.00000000E+00
  1
STRETCH LINE
 41
1.05263158E+00
  7
MONOTXT
  0
TEXT
  8
0
 10
-3.12465706E+02
 20
-4.77824657E+01
 40
9.00000000E+00
  1
STRETCH LINE
 41
1.05263158E+00
  7
MONOTXT
  0
LINE
  8
0
 62
7
 10
5.74500000E+02
 20
4.00500000E+02
 11
5.74500000E+02
 21
-4.00500000E+02
  0
LINE
  8
0
 62
7
 10
-5.64500000E+02
 20
4.00500000E+02
 11
5.74500000E+02
 21
4.00500000E+02
  0
LINE
  8
0
 62
7
 10
-5.64500000E+02
 20
-4.00500000E+02
 11
5.74500000E+02
 21
-4.00500000E+02
  0
LINE
  8
0
 62
7
 10
-5.64500000E+02
 20
4.00500000E+02
 11
-5.64500000E+02
 21
-4.00500000E+02
  0
LINE
  8
0
 62
7
 10
-5.64500000E+02
 20
3.70500000E+02
 11
-3.34500000E+02
 21
3.70500000E+02
  0
LINE
  8
0
 62
7
 10
3.44500000E+02
 20
-3.70500000E+02
 11
5.74500000E+02
 21
-3.70500000E+02
  0
LINE
  8
0
 62
7
 10
3.44500000E+02
 20
-3.70500000E+02
 11
3.44500000E+02
 21
-4.00500000E+02
  0
LINE
  8
0
 62
7
 10
3.44500000E+02
 20
4.00500000E+02
 11
3.44500000E+02
 21
3.70500000E+02
  0
LINE
  8
0
 62
7
 10
-3.34500000E+02
 20
4.00500000E+02
 11
-3.34500000E+02
 21
3.70500000E+02
  0
TEXT
  8
0
 62
7
 10
-5.37179687E+02
 20
3.34250000E+02
 40
1.25000000E+01
  1
MODEL:ORV32*ST(100)
 41
1.00000015E+00
  7
MONOTXT
  0
TEXT
  8
0
 62
7
 10
4.11285149E+02
 20
3.79250000E+02
 40
1.25000000E+01
  1
Ver. 1.0
 41
1.08108125E+00
  7
MONOTXT
  0
TEXT
  8
0
 62
7
 10
3.50070624E+02
 20
-3.94500000E+02
 40
1.80000000E+01
  1
KOGANEI CORP.
 41
1.04838710E+00
  7
MONOTXT
  0
TEXT
  8
0
 62
7
 10
-5.47714858E+02
 20
3.79250000E+02
 40
1.25000000E+01
  1
RODLESS CYLINDER
 41
1.03896120E+00
  7
MONOTXT
  0
ENDSEC
  0
EOF
