  0
SECTION
  2
HEADER
  0
ENDSEC
  0
SECTION
  2
TABLES
  0
TABLE
  2
LTYPE
 70
     4
  0
LTYPE
  2
CONTINUOUS
 70
    64
  3
Solid line
 72
    65
 73
     0
 40
0.000000
  0
LTYPE
  2
DASHED
 70
    64
  3
__ __ __ __ __ __ __ __ __ __ __ __ __ __ __
 72
    65
 73
     2
 40
3.500000
 49
2.000000
 49
-1.500000
  0
LTYPE
  2
CENTER
 70
    64
  3
____ _ ____ _ ____ _ ____ _ ____ _ ____ _ ____
 72
    65
 73
     4
 40
17.500000
 49
13.000000
 49
-1.500000
 49
1.500000
 49
-1.500000
  0
LTYPE
  2
PHANTOM
 70
    64
  3
_____ _ _ _____ _ _ _____ _ _ _____ _ _ ____  
 72
    65
 73
     6
 40
15.500000
 49
8.000000
 49
-1.500000
 49
1.500000
 49
-1.500000
 49
1.500000
 49
-1.500000
  0
LTYPE
  2
DASHED1
 70
    64
  3
__ __ __ __ __ __ __ __ __ __ __ __ __ __ __
 72
    65
 73
     2
 40
1.500000
 49
1.000000
 49
-0.500000
  0
LTYPE
  2
DASHED2
 70
    64
  3
__ __ __ __ __ __ __ __ __ __ __ __ __ __ __
 72
    65
 73
     2
 40
3.500000
 49
2.500000
 49
-1.000000
  0
LTYPE
  2
DASHED3
 70
    64
  3
__ __ __ __ __ __ __ __ __ __ __ __ __ __ __
 72
    65
 73
     2
 40
6.000000
 49
4.000000
 49
-2.000000
  0
LTYPE
  2
DASHED4
 70
    64
  3
__ __ __ __ __ __ __ __ __ __ __ __ __ __ __
 72
    65
 73
     2
 40
12.000000
 49
10.000000
 49
-2.000000
  0
LTYPE
  2
DASHED5
 70
    64
  3
__ __ __ __ __ __ __ __ __ __ __ __ __ __ __
 72
    65
 73
     2
 40
17.000000
 49
15.000000
 49
-2.000000
  0
LTYPE
  2
DASHED6
 70
    64
  3
__ __ __ __ __ __ __ __ __ __ __ __ __ __ __
 72
    65
 73
     2
 40
29.000000
 49
27.000000
 49
-2.000000
  0
LTYPE
  2
PHANTOM1
 70
    64
  3
_____ _ _ _____ _ _ _____ _ _ _____ _ _ ____  
 72
    65
 73
     6
 40
31.000000
 49
25.000000
 49
-1.500000
 49
1.000000
 49
-1.000000
 49
1.000000
 49
-1.500000
  0
LTYPE
  2
PHANTOM2
 70
    64
  3
_____ _ _ _____ _ _ _____ _ _ _____ _ _ ____  
 72
    65
 73
     6
 40
36.000000
 49
27.000000
 49
-1.500000
 49
2.500000
 49
-1.000000
 49
2.500000
 49
-1.500000
  0
LTYPE
  2
PHANTOM3
 70
    64
  3
_____ _ _ _____ _ _ _____ _ _ _____ _ _ ____  
 72
    65
 73
     6
 40
78.000000
 49
64.000000
 49
-2.000000
 49
4.000000
 49
-2.000000
 49
4.000000
 49
-2.000000
  0
LTYPE
  2
CENTER1
 70
    64
  3
____ _ ____ _ ____ _ ____ _ ____ _ ____ _ ____
 72
    65
 73
     4
 40
19.000000
 49
14.000000
 49
-1.000000
 49
3.000000
 49
-1.000000
  0
LTYPE
  2
CENTER2
 70
    64
  3
____ _ ____ _ ____ _ ____ _ ____ _ ____ _ ____
 72
    65
 73
     4
 40
28.500000
 49
25.000000
 49
-1.000000
 49
1.500000
 49
-1.000000
  0
LTYPE
  2
CENTER3
 70
    64
  3
____ _ ____ _ ____ _ ____ _ ____ _ ____ _ ____
 72
    65
 73
     4
 40
31.500000
 49
27.000000
 49
-1.000000
 49
2.500000
 49
-1.000000
  0
LTYPE
  2
CENTER4
 70
    64
  3
____ _ ____ _ ____ _ ____ _ ____ _ ____ _ ____
 72
    65
 73
     4
 40
50.000000
 49
45.000000
 49
-1.000000
 49
3.000000
 49
-1.000000
  0
LTYPE
  2
CENTER5
 70
    64
  3
____ _ ____ _ ____ _ ____ _ ____ _ ____ _ ____
 72
    65
 73
     4
 40
100.000000
 49
92.000000
 49
-2.000000
 49
4.000000
 49
-2.000000
  0
LTYPE
  2
SBK1
 70
    64
  3
______ _ _ _ ______ _ _ _ ______ _ _ _ _____  
 72
    65
 73
     8
 40
60.500000
 49
45.000000
 49
-2.000000
 49
2.500000
 49
-2.000000
 49
2.500000
 49
-2.000000
 49
2.500000
 49
-2.000000
  0
LTYPE
  2
SBK2
 70
    64
  3
______ _ _ _ ______ _ _ _ ______ _ _ _ _____  
 72
    65
 73
     8
 40
84.000000
 49
64.000000
 49
-2.000000
 49
4.000000
 49
-2.000000
 49
4.000000
 49
-2.000000
 49
4.000000
 49
-2.000000
  0
LTYPE
  2
STCH
 70
    64
  3
__ __ __ __ __ __ __ __ __ __ __ __ __ __ __
 72
    65
 73
     2
 40
3.000000
 49
1.000000
 49
-2.000000
  0
LTYPE
  2
MTCH
 70
    64
  3
_____ _ _ _____ _ _ _____ _ _ _____ _ _ ____  
 72
    65
 73
     6
 40
80.000000
 49
66.000000
 49
-2.000000
 49
4.000000
 49
-2.000000
 49
4.000000
 49
-2.000000
  0
ENDTAB
  0
TABLE
  2
LAYER
 70
     1
  0
LAYER
  2
0
 70
     0
 62
     7
  6
CONTINUOUS
  0
ENDTAB
  0
TABLE
  2
STYLE
 70
     1
  0
STYLE
  2
STANDARD
 70
     0
 40
0.000000
 41
1.000000
 50
0.000000
 71
     0
 42
0.200000
  3
txt
  4
BIGFONT
  0
ENDTAB
  0
TABLE
  2
VIEW
 70
     0
  0
ENDTAB
  0
ENDSEC
  0
SECTION
  2
BLOCKS
  0
ENDSEC
  0
SECTION
  2
ENTITIES
  0
LINE
  8
0
 62
     1
 10
103.334625
 20
-106.695908
 11
104.708717
 21
-104.315910
  0
LINE
  8
0
 62
     1
 10
-86.648346
 20
-100.695961
 11
-85.274254
 21
-98.315956
  0
LINE
  8
0
  6
CENTER
 62
     2
 10
-256.500000
 20
-143.000000
 11
-256.500000
 21
-133.000000
  0
LINE
  8
0
 62
     4
 10
-114.497070
 20
-101.105972
 11
-114.497070
 21
-97.905960
  0
LINE
  8
0
 62
     4
 10
-108.497070
 20
-101.105972
 11
-108.497070
 21
-97.905960
  0
LINE
  8
0
 62
     4
 10
-93.497070
 20
-101.105972
 11
-93.497070
 21
-97.905960
  0
LINE
  8
0
 62
     4
 10
-91.997070
 20
-100.695969
 11
-91.997070
 21
-98.315964
  0
LINE
  8
0
 62
     4
 10
-93.497078
 20
-101.105965
 11
-91.997063
 21
-100.695961
  0
LINE
  8
0
 62
     4
 10
-93.497063
 20
-97.905968
 11
-91.997063
 21
-98.315964
  0
LINE
  8
0
 62
     4
 10
-91.997070
 20
-100.695969
 11
-86.648346
 21
-100.695969
  0
LINE
  8
0
 62
     4
 10
-91.997070
 20
-98.315964
 11
-85.274246
 21
-98.315964
  0
LINE
  8
0
 62
     4
 10
-112.277077
 20
-100.275955
 11
-110.727074
 21
-98.735962
  0
LINE
  8
0
 62
     4
 10
-112.277077
 20
-98.735962
 11
-110.727081
 21
-100.275963
  0
LINE
  8
0
 62
     4
 10
75.502930
 20
-107.105972
 11
75.502930
 21
-103.905960
  0
LINE
  8
0
 62
     4
 10
81.502930
 20
-107.105972
 11
81.502930
 21
-103.905960
  0
LINE
  8
0
 62
     4
 10
96.502930
 20
-107.105972
 11
96.502930
 21
-103.905960
  0
LINE
  8
0
 62
     4
 10
98.002930
 20
-106.695969
 11
98.002930
 21
-104.315964
  0
LINE
  8
0
 62
     4
 10
96.502823
 20
-107.105988
 11
98.002724
 21
-106.696014
  0
LINE
  8
0
 62
     4
 10
96.502907
 20
-103.905960
 11
98.002823
 21
-104.315933
  0
LINE
  8
0
 62
     4
 10
98.002930
 20
-106.695969
 11
103.334473
 21
-106.695969
  0
LINE
  8
0
 62
     4
 10
98.002930
 20
-104.315964
 11
104.708740
 21
-104.315964
  0
LINE
  8
0
 62
     4
 10
77.722839
 20
-106.276031
 11
79.272903
 21
-104.735970
  0
LINE
  8
0
 62
     4
 10
77.722855
 20
-104.736038
 11
79.272858
 21
-106.276031
  0
LINE
  8
0
 10
-21.500000
 20
-84.500000
 11
183.500000
 21
-84.500000
  0
LINE
  8
0
 10
-212.500000
 20
-84.500000
 11
-207.500000
 21
-84.500000
  0
LINE
  8
0
 10
-207.500000
 20
-78.000000
 11
-207.500000
 21
-94.000000
  0
LINE
  8
0
 10
183.500000
 20
-83.500000
 11
183.500000
 21
-95.000000
  0
LINE
  8
0
 10
218.500000
 20
-79.000000
 11
235.500000
 21
-79.000000
  0
LINE
  8
0
 10
-264.500000
 20
-79.000000
 11
-247.500000
 21
-79.000000
  0
LINE
  8
0
 10
218.500000
 20
-114.000000
 11
235.500000
 21
-114.000000
  0
LINE
  8
0
 10
-247.500000
 20
-114.000000
 11
-264.500000
 21
-114.000000
  0
LINE
  8
0
 10
-247.500000
 20
-97.900009
 11
218.500000
 21
-97.900009
  0
LINE
  8
0
  6
CENTER
 62
     2
 10
-251.910004
 20
-99.500000
 11
222.119873
 21
-99.500000
  0
LINE
  8
0
 10
-247.500000
 20
-101.100006
 11
218.500000
 21
-101.100006
  0
LINE
  8
0
 10
146.000000
 20
-92.750000
 11
141.500000
 21
-92.750000
  0
LINE
  8
0
 10
141.500000
 20
-92.750000
 11
141.500000
 21
-95.000000
  0
LINE
  8
0
 10
146.750000
 20
-92.000000
 11
146.750000
 21
-95.000000
  0
LINE
  8
0
 10
146.000000
 20
-92.750000
 11
146.000000
 21
-95.000000
  0
LINE
  8
0
 10
145.999908
 20
-92.750092
 11
146.749832
 21
-92.000175
  0
LINE
  8
0
 62
     1
 10
183.500000
 20
-92.750000
 11
146.000000
 21
-92.750000
  0
LINE
  8
0
 10
183.500000
 20
-92.000000
 11
146.750000
 21
-92.000000
  0
LINE
  8
0
 10
183.500000
 20
-83.500000
 11
218.500000
 21
-83.500000
  0
LINE
  8
0
 62
     2
 10
-212.500000
 20
-92.750000
 11
-207.500000
 21
-92.750000
  0
LINE
  8
0
 10
-212.500000
 20
-92.000000
 11
-207.500000
 21
-92.000000
  0
LINE
  8
0
 10
-212.500000
 20
-83.500000
 11
-212.500000
 21
-95.000000
  0
LINE
  8
0
 10
-247.500000
 20
-83.500000
 11
-212.500000
 21
-83.500000
  0
LINE
  8
0
 10
-24.500000
 20
-94.000000
 11
-24.500000
 21
-95.000000
  0
LINE
  8
0
 10
-107.500000
 20
-94.000000
 11
-107.500000
 21
-95.000000
  0
LINE
  8
0
 10
-204.500000
 20
-94.000000
 11
-204.500000
 21
-95.000000
  0
LINE
  8
0
 10
-121.500000
 20
-94.000000
 11
-121.500000
 21
-95.000000
  0
LINE
  8
0
 10
-247.500000
 20
-97.000000
 11
-264.500000
 21
-97.000000
  0
LINE
  8
0
 10
218.500000
 20
-97.000000
 11
235.500000
 21
-97.000000
  0
LINE
  8
0
 10
-247.500000
 20
-107.100006
 11
218.500000
 21
-107.100006
  0
LINE
  8
0
 10
-247.500000
 20
-103.900009
 11
218.500000
 21
-103.900009
  0
LINE
  8
0
  6
CENTER
 62
     2
 10
-251.910004
 20
-105.500000
 11
222.119873
 21
-105.500000
  0
LINE
  8
0
 10
-21.500000
 20
-94.000000
 11
-207.500000
 21
-94.000000
  0
LINE
  8
0
 10
-21.500000
 20
-78.000000
 11
-21.500000
 21
-94.000000
  0
LINE
  8
0
 10
-207.500000
 20
-78.000000
 11
-21.500000
 21
-78.000000
  0
LINE
  8
0
  6
CENTER
 62
     2
 10
-114.500000
 20
-143.820007
 11
-114.500000
 21
-73.920013
  0
LINE
  8
0
 10
-247.500000
 20
-95.000000
 11
218.500000
 21
-95.000000
  0
LINE
  8
0
 10
218.500000
 20
-79.000000
 11
218.500000
 21
-138.000000
  0
LINE
  8
0
 10
235.500000
 20
-138.000000
 11
235.500000
 21
-79.000000
  0
LINE
  8
0
 10
-247.500000
 20
-79.000000
 11
-247.500000
 21
-138.000000
  0
LINE
  8
0
 10
-264.500000
 20
-138.000000
 11
235.500000
 21
-138.000000
  0
LINE
  8
0
 10
-264.500000
 20
-138.000000
 11
-264.500000
 21
-79.000000
  0
LINE
  8
0
  6
PHANTOM
 62
     3
 10
-2.869644
 20
-150.108673
 11
-2.869644
 21
-45.253998
  0
LINE
  8
0
  6
CENTER
 62
     2
 10
325.500000
 20
146.000000
 11
335.500000
 21
146.000000
  0
LINE
  8
0
 10
270.500000
 20
96.000000
 11
270.500000
 21
-6.000000
  0
LINE
  8
0
 10
330.500000
 20
-6.000000
 11
299.600006
 21
-6.000000
  0
LINE
  8
0
 10
330.500000
 20
158.000000
 11
330.500000
 21
-6.000000
  0
LINE
  8
0
 10
270.500000
 20
96.000000
 11
271.500000
 21
96.000000
  0
LINE
  8
0
  6
CENTER
 62
     2
 10
301.000000
 20
138.600006
 11
301.000000
 21
112.400009
  0
LINE
  8
0
 10
296.400024
 20
-5.500000
 11
296.400024
 21
-6.000000
  0
LINE
  8
0
 10
295.899994
 20
-4.999991
 11
296.399994
 21
-5.499992
  0
LINE
  8
0
 10
295.900024
 20
-5.000000
 11
295.900024
 21
-3.399994
  0
LINE
  8
0
 10
300.100006
 20
-4.999996
 11
299.600006
 21
-5.499997
  0
LINE
  8
0
 10
299.600006
 20
-5.500000
 11
299.600006
 21
-6.000000
  0
LINE
  8
0
 10
289.500000
 20
-0.500000
 11
289.500000
 21
-6.000000
  0
LINE
  8
0
  6
CENTER
 62
     2
 10
320.500000
 20
70.000000
 11
303.500000
 21
70.000000
  0
LINE
  8
0
 10
289.900024
 20
-5.000000
 11
289.900024
 21
-3.399994
  0
LINE
  8
0
 10
289.899994
 20
-4.999989
 11
290.399994
 21
-5.499990
  0
LINE
  8
0
 10
290.400024
 20
-5.500000
 11
290.400024
 21
-6.000000
  0
LINE
  8
0
 10
293.600006
 20
-5.500000
 11
293.600006
 21
-6.000000
  0
LINE
  8
0
 10
294.100006
 20
-4.999985
 11
293.600006
 21
-5.499980
  0
LINE
  8
0
 10
294.100006
 20
-5.000000
 11
294.100006
 21
-3.399994
  0
LINE
  8
0
 10
300.100006
 20
-5.000000
 11
301.600006
 21
-5.000000
  0
LINE
  8
0
 10
299.720001
 20
-2.199997
 11
300.850006
 21
-2.199997
  0
LINE
  8
0
 10
304.600006
 20
-4.199997
 11
302.980011
 21
-4.199997
  0
LINE
  8
0
 10
304.600006
 20
-1.399994
 11
302.230011
 21
-1.399994
  0
LINE
  8
0
 10
301.600006
 20
-4.999974
 11
302.979980
 21
-4.199992
  0
LINE
  8
0
 10
300.850006
 20
-2.200008
 11
302.230011
 21
-1.400005
  0
LINE
  8
0
 10
306.500000
 20
-0.500000
 11
306.500000
 21
-6.000000
  0
LINE
  8
0
 10
271.500000
 20
158.000000
 11
271.500000
 21
-6.000000
  0
LINE
  8
0
  6
CENTER
 62
     2
 10
312.000000
 20
79.000000
 11
312.000000
 21
57.430008
  0
LINE
  8
0
 10
306.500000
 20
-0.500000
 11
289.500000
 21
-0.500000
  0
LINE
  8
0
 10
296.400024
 20
-6.000000
 11
293.600006
 21
-6.000000
  0
LINE
  8
0
 10
290.400024
 20
-6.000000
 11
270.500000
 21
-6.000000
  0
LINE
  8
0
 10
304.250000
 20
158.000000
 11
330.500000
 21
158.000000
  0
LINE
  8
0
 10
304.250000
 20
158.000000
 11
304.250000
 21
156.000000
  0
LINE
  8
0
 10
306.250000
 20
156.000000
 11
304.250000
 21
156.000000
  0
LINE
  8
0
 10
306.250000
 20
156.000000
 11
306.250000
 21
152.699997
  0
LINE
  8
0
 10
295.750000
 20
156.000000
 11
295.750000
 21
152.699997
  0
LINE
  8
0
 10
295.750000
 20
156.000000
 11
297.750000
 21
156.000000
  0
LINE
  8
0
 10
297.750000
 20
158.000000
 11
297.750000
 21
156.000000
  0
LINE
  8
0
 10
305.250000
 20
151.699997
 11
296.750000
 21
151.699997
  0
LINE
  8
0
 10
297.750000
 20
158.000000
 11
271.500000
 21
158.000000
  0
LINE
  8
0
 10
295.000000
 20
158.000000
 11
295.000000
 21
151.000000
  0
LINE
  8
0
 10
307.000000
 20
151.000000
 11
295.000000
 21
151.000000
  0
LINE
  8
0
 10
307.000000
 20
158.000000
 11
307.000000
 21
151.000000
  0
LINE
  8
0
  6
CENTER
 62
     2
 10
310.730011
 20
126.000000
 11
290.470001
 21
126.000000
  0
LINE
  8
0
 10
291.349609
 20
68.979843
 11
291.349609
 21
49.019836
  0
LINE
  8
0
 10
292.649628
 20
68.979843
 11
292.649628
 21
49.019836
  0
LINE
  8
0
  6
CENTER
 62
     2
 10
291.999634
 20
72.999832
 11
291.999634
 21
44.999832
  0
LINE
  8
0
  6
CENTER
 62
     2
 10
305.999634
 20
58.999832
 11
276.549622
 21
58.999832
  0
LINE
  8
0
  6
CENTER
 62
     2
 10
316.559998
 20
66.000000
 11
332.799988
 21
66.000000
  0
LINE
  8
0
  6
DASHED
 62
     2
 10
320.000000
 20
58.750000
 11
326.500000
 21
58.750000
  0
LINE
  8
0
  6
DASHED
 62
     2
 10
320.000000
 20
73.250000
 11
326.500000
 21
73.250000
  0
LINE
  8
0
  6
DASHED
 62
     2
 10
320.649994
 20
58.750000
 11
320.649994
 21
73.250000
  0
LINE
  8
0
  6
DASHED
 62
     2
 10
320.000000
 20
70.250000
 11
320.000000
 21
73.250000
  0
LINE
  8
0
  6
DASHED
 62
     2
 10
319.000000
 20
70.250000
 11
320.000000
 21
70.250000
  0
LINE
  8
0
  6
DASHED
 62
     2
 10
319.000000
 20
61.750000
 11
319.000000
 21
70.250000
  0
LINE
  8
0
  6
DASHED
 62
     2
 10
319.000000
 20
61.750000
 11
320.000000
 21
61.750000
  0
LINE
  8
0
  6
DASHED
 62
     2
 10
320.000000
 20
58.750000
 11
320.000000
 21
61.750000
  0
LINE
  8
0
  6
DASHED
 62
     2
 10
326.500000
 20
61.750000
 11
330.500000
 21
61.750000
  0
LINE
  8
0
  6
DASHED
 62
     2
 10
326.500000
 20
70.250000
 11
330.500000
 21
70.250000
  0
LINE
  8
0
  6
DASHED
 62
     2
 10
326.500000
 20
73.250000
 11
326.500000
 21
58.750000
  0
LINE
  8
0
  6
CENTER
 62
     2
 10
316.559998
 20
6.000000
 11
332.799988
 21
6.000000
  0
LINE
  8
0
  6
DASHED
 62
     2
 10
326.500000
 20
1.750000
 11
330.500000
 21
1.750000
  0
LINE
  8
0
  6
DASHED
 62
     2
 10
326.500000
 20
10.250000
 11
330.500000
 21
10.250000
  0
LINE
  8
0
  6
DASHED
 62
     2
 10
320.649994
 20
-1.250000
 11
320.649994
 21
13.250000
  0
LINE
  8
0
  6
DASHED
 62
     2
 10
320.000000
 20
10.250000
 11
320.000000
 21
13.250000
  0
LINE
  8
0
  6
DASHED
 62
     2
 10
319.000000
 20
10.250000
 11
320.000000
 21
10.250000
  0
LINE
  8
0
  6
DASHED
 62
     2
 10
319.000000
 20
1.750000
 11
319.000000
 21
10.250000
  0
LINE
  8
0
  6
DASHED
 62
     2
 10
319.000000
 20
1.750000
 11
320.000000
 21
1.750000
  0
LINE
  8
0
  6
DASHED
 62
     2
 10
320.000000
 20
-1.250000
 11
320.000000
 21
1.750000
  0
LINE
  8
0
  6
DASHED
 62
     2
 10
320.000000
 20
13.250000
 11
326.500000
 21
13.250000
  0
LINE
  8
0
  6
DASHED
 62
     2
 10
320.000000
 20
-1.250000
 11
326.500000
 21
-1.250000
  0
LINE
  8
0
  6
DASHED
 62
     2
 10
326.500000
 20
13.250000
 11
326.500000
 21
-1.250000
  0
LINE
  8
0
 62
     4
 10
289.950012
 20
-5.029999
 11
289.950012
 21
-3.579987
  0
LINE
  8
0
 62
     4
 10
294.049988
 20
-5.029999
 11
294.049988
 21
-3.579987
  0
LINE
  8
0
 62
     1
 10
293.000000
 20
-6.549988
 11
293.000000
 21
-6.129990
  0
LINE
  8
0
 62
     4
 10
293.250000
 20
-6.299988
 11
293.250000
 21
-6.129990
  0
LINE
  8
0
 62
     4
 10
293.250000
 20
-6.300003
 11
293.000000
 21
-6.549995
  0
LINE
  8
0
 62
     4
 10
293.500000
 20
-6.129990
 11
293.500000
 21
-5.579987
  0
LINE
  8
0
 62
     4
 10
293.500000
 20
-6.079987
 11
293.500000
 21
-5.629990
  0
LINE
  8
0
 62
     4
 10
294.049988
 20
-5.029998
 11
293.500000
 21
-5.580004
  0
LINE
  8
0
 62
     1
 10
291.000000
 20
-6.549988
 11
291.000000
 21
-6.129990
  0
LINE
  8
0
 62
     4
 10
290.750000
 20
-6.299988
 11
290.750000
 21
-6.129990
  0
LINE
  8
0
 62
     4
 10
290.750000
 20
-6.299987
 11
291.000000
 21
-6.549996
  0
LINE
  8
0
 62
     4
 10
290.500000
 20
-6.129990
 11
290.500000
 21
-5.579987
  0
LINE
  8
0
 62
     4
 10
290.500000
 20
-6.079987
 11
290.500000
 21
-5.629990
  0
LINE
  8
0
 62
     1
 10
291.000000
 20
-1.795273
 11
291.000000
 21
-1.549988
  0
LINE
  8
0
 62
     4
 10
290.750000
 20
-1.959991
 11
290.750000
 21
-1.799988
  0
LINE
  8
0
 62
     4
 10
291.000000
 20
-1.549977
 11
290.750000
 21
-1.799986
  0
LINE
  8
0
 62
     4
 10
293.250000
 20
-1.960449
 11
293.250000
 21
-1.799988
  0
LINE
  8
0
 62
     4
 10
293.000000
 20
-1.549993
 11
293.250000
 21
-1.799991
  0
LINE
  8
0
 62
     1
 10
293.000000
 20
-1.795609
 11
293.000000
 21
-1.549988
  0
LINE
  8
0
 62
     4
 10
292.250244
 20
-1.549988
 11
293.000000
 21
-1.549988
  0
LINE
  8
0
  6
CENTER
 62
     1
 10
292.735291
 20
-4.229996
 11
291.247589
 21
-4.229996
  0
LINE
  8
0
  6
CENTER
 62
     1
 10
292.735291
 20
-3.329987
 11
291.247589
 21
-3.329987
  0
LINE
  8
0
  6
CENTER
 62
     1
 10
293.646454
 20
-3.779999
 11
290.356995
 21
-3.779999
  0
LINE
  8
0
 62
     4
 10
290.500000
 20
-6.129990
 11
293.500000
 21
-6.129990
  0
LINE
  8
0
 62
     4
 10
291.000000
 20
-6.549988
 11
293.000000
 21
-6.549988
  0
LINE
  8
0
 62
     4
 10
291.000000
 20
-1.549988
 11
291.749756
 21
-1.549988
  0
LINE
  8
0
 62
     4
 10
289.950012
 20
-5.030002
 11
290.500000
 21
-5.579996
  0
LINE
  8
0
  6
CENTER
 62
     1
 10
292.000000
 20
2.880005
 11
292.000000
 21
-7.189987
  0
LINE
  8
0
 62
     4
 10
295.950012
 20
-5.029999
 11
295.950012
 21
-3.579987
  0
LINE
  8
0
 62
     4
 10
300.049988
 20
-5.029999
 11
300.049988
 21
-3.579987
  0
LINE
  8
0
 62
     1
 10
299.000000
 20
-6.549988
 11
299.000000
 21
-6.129990
  0
LINE
  8
0
 62
     4
 10
299.250000
 20
-6.299988
 11
299.250000
 21
-6.129990
  0
LINE
  8
0
 62
     4
 10
299.250000
 20
-6.299980
 11
299.000000
 21
-6.549983
  0
LINE
  8
0
 62
     4
 10
299.500000
 20
-6.129990
 11
299.500000
 21
-5.579987
  0
LINE
  8
0
 62
     4
 10
299.500000
 20
-6.079987
 11
299.500000
 21
-5.629990
  0
LINE
  8
0
 62
     4
 10
300.049988
 20
-5.029984
 11
299.500000
 21
-5.579979
  0
LINE
  8
0
 62
     1
 10
297.000000
 20
-6.549988
 11
297.000000
 21
-6.129990
  0
LINE
  8
0
 62
     4
 10
296.750000
 20
-6.299988
 11
296.750000
 21
-6.129990
  0
LINE
  8
0
 62
     4
 10
296.750000
 20
-6.299986
 11
297.000000
 21
-6.549994
  0
LINE
  8
0
 62
     4
 10
296.500000
 20
-6.129990
 11
296.500000
 21
-5.579987
  0
LINE
  8
0
 62
     4
 10
296.500000
 20
-6.079987
 11
296.500000
 21
-5.629990
  0
LINE
  8
0
 62
     1
 10
297.000000
 20
-1.795273
 11
297.000000
 21
-1.549988
  0
LINE
  8
0
 62
     4
 10
296.750000
 20
-1.959991
 11
296.750000
 21
-1.799988
  0
LINE
  8
0
 62
     4
 10
297.000000
 20
-1.549984
 11
296.750000
 21
-1.799992
  0
LINE
  8
0
 62
     4
 10
299.250000
 20
-1.960449
 11
299.250000
 21
-1.799988
  0
LINE
  8
0
 62
     4
 10
299.000000
 20
-1.550003
 11
299.250000
 21
-1.799995
  0
LINE
  8
0
 62
     1
 10
299.000000
 20
-1.795609
 11
299.000000
 21
-1.549988
  0
LINE
  8
0
 62
     4
 10
298.250244
 20
-1.549988
 11
299.000000
 21
-1.549988
  0
LINE
  8
0
  6
CENTER
 62
     1
 10
298.735291
 20
-4.229996
 11
297.247589
 21
-4.229996
  0
LINE
  8
0
  6
CENTER
 62
     1
 10
298.735291
 20
-3.329987
 11
297.247589
 21
-3.329987
  0
LINE
  8
0
  6
CENTER
 62
     1
 10
299.646454
 20
-3.779999
 11
296.356995
 21
-3.779999
  0
LINE
  8
0
 62
     4
 10
296.500000
 20
-6.129990
 11
299.500000
 21
-6.129990
  0
LINE
  8
0
 62
     4
 10
297.000000
 20
-6.549988
 11
299.000000
 21
-6.549988
  0
LINE
  8
0
 62
     4
 10
297.000000
 20
-1.549988
 11
297.749756
 21
-1.549988
  0
LINE
  8
0
 62
     4
 10
295.949982
 20
-5.029988
 11
296.500000
 21
-5.579989
  0
LINE
  8
0
  6
CENTER
 62
     1
 10
298.000000
 20
2.880005
 11
298.000000
 21
-7.189987
  0
LINE
  8
0
  6
CENTER
 62
     2
 10
-374.500000
 20
146.000000
 11
-364.500000
 21
146.000000
  0
LINE
  8
0
  6
DASHED
 62
     2
 10
-365.500000
 20
13.250000
 11
-365.500000
 21
-1.250000
  0
LINE
  8
0
  6
DASHED
 62
     2
 10
-359.000000
 20
-1.250000
 11
-365.500000
 21
-1.250000
  0
LINE
  8
0
  6
DASHED
 62
     2
 10
-359.000000
 20
13.250000
 11
-365.500000
 21
13.250000
  0
LINE
  8
0
  6
DASHED
 62
     2
 10
-359.000000
 20
-1.250000
 11
-359.000000
 21
1.750000
  0
LINE
  8
0
  6
DASHED
 62
     2
 10
-358.000000
 20
1.750000
 11
-359.000000
 21
1.750000
  0
LINE
  8
0
  6
DASHED
 62
     2
 10
-358.000000
 20
1.750000
 11
-358.000000
 21
10.250000
  0
LINE
  8
0
  6
DASHED
 62
     2
 10
-358.000000
 20
10.250000
 11
-359.000000
 21
10.250000
  0
LINE
  8
0
  6
DASHED
 62
     2
 10
-359.000000
 20
10.250000
 11
-359.000000
 21
13.250000
  0
LINE
  8
0
  6
DASHED
 62
     2
 10
-359.649994
 20
-1.250000
 11
-359.649994
 21
13.250000
  0
LINE
  8
0
  6
DASHED
 62
     2
 10
-365.500000
 20
10.250000
 11
-369.500000
 21
10.250000
  0
LINE
  8
0
  6
DASHED
 62
     2
 10
-365.500000
 20
1.750000
 11
-369.500000
 21
1.750000
  0
LINE
  8
0
  6
CENTER
 62
     2
 10
-355.559998
 20
6.000000
 11
-371.799988
 21
6.000000
  0
LINE
  8
0
  6
DASHED
 62
     2
 10
-365.500000
 20
73.250000
 11
-365.500000
 21
58.750000
  0
LINE
  8
0
  6
DASHED
 62
     2
 10
-365.500000
 20
70.250000
 11
-369.500000
 21
70.250000
  0
LINE
  8
0
  6
DASHED
 62
     2
 10
-365.500000
 20
61.750000
 11
-369.500000
 21
61.750000
  0
LINE
  8
0
  6
DASHED
 62
     2
 10
-359.000000
 20
58.750000
 11
-359.000000
 21
61.750000
  0
LINE
  8
0
  6
DASHED
 62
     2
 10
-358.000000
 20
61.750000
 11
-359.000000
 21
61.750000
  0
LINE
  8
0
  6
DASHED
 62
     2
 10
-358.000000
 20
61.750000
 11
-358.000000
 21
70.250000
  0
LINE
  8
0
  6
DASHED
 62
     2
 10
-358.000000
 20
70.250000
 11
-359.000000
 21
70.250000
  0
LINE
  8
0
  6
DASHED
 62
     2
 10
-359.000000
 20
70.250000
 11
-359.000000
 21
73.250000
  0
LINE
  8
0
  6
DASHED
 62
     2
 10
-359.649994
 20
58.750000
 11
-359.649994
 21
73.250000
  0
LINE
  8
0
  6
DASHED
 62
     2
 10
-359.000000
 20
73.250000
 11
-365.500000
 21
73.250000
  0
LINE
  8
0
  6
DASHED
 62
     2
 10
-359.000000
 20
58.750000
 11
-365.500000
 21
58.750000
  0
LINE
  8
0
  6
CENTER
 62
     2
 10
-355.559998
 20
66.000000
 11
-371.799988
 21
66.000000
  0
LINE
  8
0
  6
CENTER
 62
     2
 10
-344.999634
 20
58.999832
 11
-315.549622
 21
58.999832
  0
LINE
  8
0
  6
CENTER
 62
     2
 10
-330.999634
 20
72.999832
 11
-330.999634
 21
44.999832
  0
LINE
  8
0
 10
-331.649628
 20
68.979843
 11
-331.649628
 21
49.019836
  0
LINE
  8
0
 10
-330.349609
 20
68.979843
 11
-330.349609
 21
49.019836
  0
LINE
  8
0
 62
     4
 10
-335.500000
 20
-6.129990
 11
-338.500000
 21
-6.129990
  0
LINE
  8
0
 62
     4
 10
-339.049988
 20
-5.029999
 11
-339.049988
 21
-3.579987
  0
LINE
  8
0
 62
     4
 10
-334.950012
 20
-5.029999
 11
-334.950012
 21
-3.579987
  0
LINE
  8
0
 62
     4
 10
-335.500000
 20
-6.129990
 11
-335.500000
 21
-5.579987
  0
LINE
  8
0
 62
     4
 10
-338.500000
 20
-6.129990
 11
-338.500000
 21
-5.579987
  0
LINE
  8
0
 62
     4
 10
-334.949982
 20
-5.029993
 11
-335.500000
 21
-5.579993
  0
LINE
  8
0
 62
     4
 10
-339.049988
 20
-5.029988
 11
-338.500000
 21
-5.579983
  0
LINE
  8
0
 62
     4
 10
-334.950012
 20
-4.329987
 11
-339.049988
 21
-4.329987
  0
LINE
  8
0
 62
     4
 10
-335.100006
 20
-4.229996
 11
-338.900024
 21
-4.229996
  0
LINE
  8
0
 62
     4
 10
-339.000000
 20
-4.129990
 11
-339.000000
 21
-3.629990
  0
LINE
  8
0
 62
     4
 10
-335.000000
 20
-4.129990
 11
-335.000000
 21
-3.629990
  0
LINE
  8
0
 62
     4
 10
-335.100006
 20
-3.529999
 11
-338.900024
 21
-3.529999
  0
LINE
  8
0
 62
     1
 10
-338.000000
 20
-6.549988
 11
-338.000000
 21
-6.129990
  0
LINE
  8
0
 62
     1
 10
-336.000000
 20
-6.549988
 11
-336.000000
 21
-6.129990
  0
LINE
  8
0
 62
     4
 10
-336.000000
 20
-6.549988
 11
-338.000000
 21
-6.549988
  0
LINE
  8
0
 62
     4
 10
-336.000000
 20
-1.549988
 11
-338.000000
 21
-1.549988
  0
LINE
  8
0
 62
     4
 10
-335.750000
 20
-6.299985
 11
-336.000000
 21
-6.549994
  0
LINE
  8
0
 62
     4
 10
-338.000000
 20
-1.550002
 11
-338.250000
 21
-1.799995
  0
LINE
  8
0
 62
     4
 10
-338.250000
 20
-6.299979
 11
-338.000000
 21
-6.549982
  0
LINE
  8
0
 62
     4
 10
-336.000000
 20
-1.549979
 11
-335.750000
 21
-1.799977
  0
LINE
  8
0
 62
     4
 10
-335.750000
 20
-3.529999
 11
-335.750000
 21
-1.799988
  0
LINE
  8
0
 62
     1
 10
-336.000000
 20
-3.529999
 11
-336.000000
 21
-1.549988
  0
LINE
  8
0
 62
     1
 10
-338.000000
 20
-3.529999
 11
-338.000000
 21
-1.549988
  0
LINE
  8
0
 62
     4
 10
-338.250000
 20
-3.529999
 11
-338.250000
 21
-1.799988
  0
LINE
  8
0
 62
     4
 10
-335.750000
 20
-6.299988
 11
-335.750000
 21
-6.129990
  0
LINE
  8
0
 62
     1
 10
-336.000000
 20
-4.329987
 11
-336.000000
 21
-4.229996
  0
LINE
  8
0
 62
     1
 10
-338.000000
 20
-4.329987
 11
-338.000000
 21
-4.229996
  0
LINE
  8
0
 62
     4
 10
-338.250000
 20
-6.299988
 11
-338.250000
 21
-6.129990
  0
LINE
  8
0
 62
     4
 10
-335.750000
 20
-4.329987
 11
-335.750000
 21
-4.229996
  0
LINE
  8
0
 62
     4
 10
-338.250000
 20
-4.329987
 11
-338.250000
 21
-4.229996
  0
LINE
  8
0
 62
     4
 10
-329.500000
 20
-6.129990
 11
-332.500000
 21
-6.129990
  0
LINE
  8
0
 62
     4
 10
-333.049988
 20
-5.029999
 11
-333.049988
 21
-3.579987
  0
LINE
  8
0
 62
     4
 10
-328.950012
 20
-5.029999
 11
-328.950012
 21
-3.579987
  0
LINE
  8
0
 62
     4
 10
-329.500000
 20
-6.129990
 11
-329.500000
 21
-5.579987
  0
LINE
  8
0
 62
     4
 10
-332.500000
 20
-6.129990
 11
-332.500000
 21
-5.579987
  0
LINE
  8
0
 62
     4
 10
-328.950012
 20
-5.029992
 11
-329.500000
 21
-5.579998
  0
LINE
  8
0
 62
     4
 10
-333.049988
 20
-5.029997
 11
-332.500000
 21
-5.579991
  0
LINE
  8
0
 62
     4
 10
-328.950012
 20
-4.329987
 11
-333.049988
 21
-4.329987
  0
LINE
  8
0
 62
     4
 10
-329.100006
 20
-4.229996
 11
-332.900024
 21
-4.229996
  0
LINE
  8
0
 62
     4
 10
-333.000000
 20
-4.129990
 11
-333.000000
 21
-3.629990
  0
LINE
  8
0
 62
     4
 10
-329.000000
 20
-4.129990
 11
-329.000000
 21
-3.629990
  0
LINE
  8
0
 62
     4
 10
-329.100006
 20
-3.529999
 11
-332.900024
 21
-3.529999
  0
LINE
  8
0
 62
     1
 10
-332.000000
 20
-6.549988
 11
-332.000000
 21
-6.129990
  0
LINE
  8
0
 62
     1
 10
-330.000000
 20
-6.549988
 11
-330.000000
 21
-6.129990
  0
LINE
  8
0
 62
     4
 10
-330.000000
 20
-6.549988
 11
-332.000000
 21
-6.549988
  0
LINE
  8
0
 62
     4
 10
-330.000000
 20
-1.549988
 11
-332.000000
 21
-1.549988
  0
LINE
  8
0
 62
     4
 10
-329.750000
 20
-6.299987
 11
-330.000000
 21
-6.549995
  0
LINE
  8
0
 62
     4
 10
-332.000000
 20
-1.549998
 11
-332.250000
 21
-1.800006
  0
LINE
  8
0
 62
     4
 10
-332.250000
 20
-6.300002
 11
-332.000000
 21
-6.549994
  0
LINE
  8
0
 62
     4
 10
-330.000000
 20
-1.549972
 11
-329.750000
 21
-1.799981
  0
LINE
  8
0
 62
     4
 10
-329.750000
 20
-3.529999
 11
-329.750000
 21
-1.799988
  0
LINE
  8
0
 62
     1
 10
-330.000000
 20
-3.529999
 11
-330.000000
 21
-1.549988
  0
LINE
  8
0
 62
     1
 10
-332.000000
 20
-3.529999
 11
-332.000000
 21
-1.549988
  0
LINE
  8
0
 62
     4
 10
-332.250000
 20
-3.529999
 11
-332.250000
 21
-1.799988
  0
LINE
  8
0
 62
     4
 10
-329.750000
 20
-6.299988
 11
-329.750000
 21
-6.129990
  0
LINE
  8
0
 62
     1
 10
-330.000000
 20
-4.329987
 11
-330.000000
 21
-4.229996
  0
LINE
  8
0
 62
     1
 10
-332.000000
 20
-4.329987
 11
-332.000000
 21
-4.229996
  0
LINE
  8
0
 62
     4
 10
-332.250000
 20
-6.299988
 11
-332.250000
 21
-6.129990
  0
LINE
  8
0
 62
     4
 10
-329.750000
 20
-4.329987
 11
-329.750000
 21
-4.229996
  0
LINE
  8
0
 62
     4
 10
-332.250000
 20
-4.329987
 11
-332.250000
 21
-4.229996
  0
LINE
  8
0
  6
CENTER
 62
     2
 10
-349.730011
 20
126.000000
 11
-329.470001
 21
126.000000
  0
LINE
  8
0
 10
-346.000000
 20
158.000000
 11
-346.000000
 21
151.000000
  0
LINE
  8
0
 10
-346.000000
 20
151.000000
 11
-334.000000
 21
151.000000
  0
LINE
  8
0
 10
-334.000000
 20
158.000000
 11
-334.000000
 21
151.000000
  0
LINE
  8
0
 10
-336.750000
 20
158.000000
 11
-310.500000
 21
158.000000
  0
LINE
  8
0
 10
-344.250000
 20
151.699997
 11
-335.750000
 21
151.699997
  0
LINE
  8
0
 10
-336.750000
 20
158.000000
 11
-336.750000
 21
156.000000
  0
LINE
  8
0
 10
-334.750000
 20
156.000000
 11
-336.750000
 21
156.000000
  0
LINE
  8
0
 10
-334.750000
 20
156.000000
 11
-334.750000
 21
152.699997
  0
LINE
  8
0
 10
-345.250000
 20
156.000000
 11
-345.250000
 21
152.699997
  0
LINE
  8
0
 10
-345.250000
 20
156.000000
 11
-343.250000
 21
156.000000
  0
LINE
  8
0
 10
-343.250000
 20
158.000000
 11
-343.250000
 21
156.000000
  0
LINE
  8
0
 10
-343.250000
 20
158.000000
 11
-369.500000
 21
158.000000
  0
LINE
  8
0
 10
-329.400024
 20
-6.000000
 11
-309.500000
 21
-6.000000
  0
LINE
  8
0
 10
-335.400024
 20
-6.000000
 11
-332.600006
 21
-6.000000
  0
LINE
  8
0
 10
-345.500000
 20
-0.500000
 11
-328.500000
 21
-0.500000
  0
LINE
  8
0
  6
CENTER
 62
     2
 10
-351.000000
 20
79.000000
 11
-351.000000
 21
57.430008
  0
LINE
  8
0
 10
-310.500000
 20
158.000000
 11
-310.500000
 21
-6.000000
  0
LINE
  8
0
 10
-345.500000
 20
-0.500000
 11
-345.500000
 21
-6.000000
  0
LINE
  8
0
 10
-339.850006
 20
-2.200006
 11
-341.230011
 21
-1.400004
  0
LINE
  8
0
 10
-340.600006
 20
-4.999977
 11
-341.979980
 21
-4.199995
  0
LINE
  8
0
 10
-343.600006
 20
-1.399994
 11
-341.230011
 21
-1.399994
  0
LINE
  8
0
 10
-343.600006
 20
-4.199997
 11
-341.980011
 21
-4.199997
  0
LINE
  8
0
 10
-338.720001
 20
-2.199997
 11
-339.850006
 21
-2.199997
  0
LINE
  8
0
 10
-339.100006
 20
-5.000000
 11
-340.600006
 21
-5.000000
  0
LINE
  8
0
 10
-333.100006
 20
-5.000000
 11
-333.100006
 21
-3.399994
  0
LINE
  8
0
 10
-333.100037
 20
-4.999995
 11
-332.600006
 21
-5.499990
  0
LINE
  8
0
 10
-332.600006
 20
-5.500000
 11
-332.600006
 21
-6.000000
  0
LINE
  8
0
 10
-329.400024
 20
-5.500000
 11
-329.400024
 21
-6.000000
  0
LINE
  8
0
 10
-328.899994
 20
-4.999985
 11
-329.399994
 21
-5.499986
  0
LINE
  8
0
 10
-328.900024
 20
-5.000000
 11
-328.900024
 21
-3.399994
  0
LINE
  8
0
  6
CENTER
 62
     1
 10
-331.000000
 20
0.640015
 11
-331.000000
 21
-8.169998
  0
LINE
  8
0
  6
CENTER
 62
     2
 10
-359.500000
 20
70.000000
 11
-342.500000
 21
70.000000
  0
LINE
  8
0
 10
-328.500000
 20
-0.500000
 11
-328.500000
 21
-6.000000
  0
LINE
  8
0
  6
CENTER
 62
     1
 10
-337.000000
 20
0.640015
 11
-337.000000
 21
-8.169998
  0
LINE
  8
0
 10
-338.600006
 20
-5.500000
 11
-338.600006
 21
-6.000000
  0
LINE
  8
0
 10
-339.100006
 20
-4.999989
 11
-338.600006
 21
-5.499990
  0
LINE
  8
0
 10
-334.900024
 20
-5.000000
 11
-334.900024
 21
-3.399994
  0
LINE
  8
0
 10
-334.899994
 20
-4.999988
 11
-335.399994
 21
-5.499989
  0
LINE
  8
0
 10
-335.400024
 20
-5.500000
 11
-335.400024
 21
-6.000000
  0
LINE
  8
0
  6
CENTER
 62
     2
 10
-340.000000
 20
138.600006
 11
-340.000000
 21
112.400009
  0
LINE
  8
0
 10
-309.500000
 20
96.000000
 11
-310.500000
 21
96.000000
  0
LINE
  8
0
 10
-369.500000
 20
158.000000
 11
-369.500000
 21
-6.000000
  0
LINE
  8
0
 10
-369.500000
 20
-6.000000
 11
-338.600006
 21
-6.000000
  0
LINE
  8
0
 10
-309.500000
 20
96.000000
 11
-309.500000
 21
-6.000000
  0
LINE
  8
0
 62
     4
 10
-110.500000
 20
87.000000
 11
-110.500000
 21
85.000000
  0
LINE
  8
0
 62
     4
 10
-118.500000
 20
87.000000
 11
-118.500000
 21
85.000000
  0
LINE
  8
0
  6
CENTER
 62
     2
 10
-120.440002
 20
85.000000
 11
-108.720001
 21
85.000000
  0
LINE
  8
0
  6
CENTER
 62
     2
 10
-120.510010
 20
87.000000
 11
-108.720001
 21
87.000000
  0
LINE
  8
0
 10
-199.190018
 20
104.000008
 11
-199.330017
 21
103.210007
  0
LINE
  8
0
 10
-199.330002
 20
103.210007
 11
-193.680008
 21
102.210007
  0
LINE
  8
0
 10
-199.190018
 20
104.000015
 11
-192.160004
 21
102.760017
  0
LINE
  8
0
 10
-184.290009
 20
98.300003
 11
-44.720001
 21
98.300003
  0
LINE
  8
0
 10
217.500000
 20
110.700012
 11
218.500000
 21
110.700012
  0
LINE
  8
0
  6
CENTER
 62
     2
 10
210.000000
 20
105.190002
 11
210.000000
 21
93.000000
  0
LINE
  8
0
 10
218.500000
 20
145.699997
 11
217.500000
 21
145.699997
  0
LINE
  8
0
 10
-247.500000
 20
145.699997
 11
-246.500000
 21
145.699997
  0
LINE
  8
0
 10
-246.500000
 20
115.500000
 11
217.500000
 21
115.500000
  0
LINE
  8
0
 10
-246.500000
 20
118.000000
 11
217.500000
 21
118.000000
  0
LINE
  8
0
 10
-246.500000
 20
140.500000
 11
217.500000
 21
140.500000
  0
LINE
  8
0
 10
-246.500000
 20
138.000000
 11
217.500000
 21
138.000000
  0
LINE
  8
0
 10
-246.500000
 20
152.000000
 11
217.500000
 21
152.000000
  0
LINE
  8
0
 10
-246.500000
 20
158.000000
 11
217.500000
 21
158.000000
  0
LINE
  8
0
 10
218.500000
 20
158.000000
 11
235.500000
 21
158.000000
  0
LINE
  8
0
 10
-264.500000
 20
158.000000
 11
-247.500000
 21
158.000000
  0
LINE
  8
0
 10
196.000000
 20
104.000000
 11
196.000000
 21
99.500000
  0
LINE
  8
0
 10
-225.000000
 20
104.000000
 11
-225.000000
 21
99.500000
  0
LINE
  8
0
 10
218.000000
 20
99.500000
 11
218.000000
 21
104.000000
  0
LINE
  8
0
 10
-247.000000
 20
99.500000
 11
-247.000000
 21
104.000000
  0
LINE
  8
0
 10
125.500000
 20
62.000000
 11
125.500000
 21
56.000000
  0
LINE
  8
0
 10
125.500000
 20
62.000000
 11
141.500000
 21
62.000000
  0
LINE
  8
0
 10
125.500000
 20
56.000000
 11
141.500000
 21
56.000000
  0
LINE
  8
0
 10
183.500000
 20
84.500000
 11
183.500000
 21
9.000000
  0
LINE
  8
0
  6
CENTER
 62
     2
 10
-34.500000
 20
10.500000
 11
-34.500000
 21
-2.500000
  0
LINE
  8
0
  6
CENTER
 62
     2
 10
-194.500000
 20
10.500000
 11
-194.500000
 21
-2.500000
  0
LINE
  8
0
 10
206.500000
 20
95.500000
 11
213.500000
 21
95.500000
  0
LINE
  8
0
 10
218.000000
 20
99.500000
 11
196.000000
 21
99.500000
  0
LINE
  8
0
 10
-242.500000
 20
95.500000
 11
-235.500000
 21
95.500000
  0
LINE
  8
0
 10
-225.000000
 20
99.500000
 11
-247.000000
 21
99.500000
  0
LINE
  8
0
 10
-21.500000
 20
61.500000
 11
118.179932
 21
61.500000
  0
LINE
  8
0
 10
-21.500000
 20
67.500000
 11
135.879883
 21
67.500000
  0
LINE
  8
0
 10
-21.500000
 20
86.000000
 11
218.500000
 21
86.000000
  0
LINE
  8
0
 10
-247.500000
 20
86.000000
 11
-207.500000
 21
86.000000
  0
LINE
  8
0
 62
     2
 10
146.000000
 20
68.250000
 11
183.500000
 21
68.250000
  0
LINE
  8
0
 62
     2
 10
146.000000
 20
49.750000
 11
183.500000
 21
49.750000
  0
LINE
  8
0
 10
146.750000
 20
49.000000
 11
183.500000
 21
49.000000
  0
LINE
  8
0
 10
145.999939
 20
49.750046
 11
146.749863
 21
49.000122
  0
LINE
  8
0
 10
146.750000
 20
49.000000
 11
146.750000
 21
69.000000
  0
LINE
  8
0
 10
145.999893
 20
68.250092
 11
146.749893
 21
69.000084
  0
LINE
  8
0
 10
146.750000
 20
69.000000
 11
183.500000
 21
69.000000
  0
LINE
  8
0
 10
146.000000
 20
68.250000
 11
146.000000
 21
49.750000
  0
LINE
  8
0
 10
141.500000
 20
49.750000
 11
146.000000
 21
49.750000
  0
LINE
  8
0
 10
141.500000
 20
68.250000
 11
146.000000
 21
68.250000
  0
LINE
  8
0
 10
141.500000
 20
68.250000
 11
141.500000
 21
49.750000
  0
LINE
  8
0
 10
-207.500000
 20
96.000000
 11
-21.500000
 21
96.000000
  0
LINE
  8
0
 10
-29.810005
 20
104.000008
 11
-36.840019
 21
102.760010
  0
LINE
  8
0
 10
-29.670012
 20
103.209999
 11
-35.310013
 21
102.209999
  0
LINE
  8
0
 10
-29.810017
 20
104.000008
 11
-29.670013
 21
103.209991
  0
LINE
  8
0
 10
-247.000000
 20
104.000000
 11
218.000000
 21
104.000000
  0
LINE
  8
0
 10
-212.500000
 20
49.000000
 11
-207.500000
 21
49.000000
  0
LINE
  8
0
 62
     2
 10
-212.500000
 20
49.750000
 11
-207.500000
 21
49.750000
  0
LINE
  8
0
 10
-212.500000
 20
69.000000
 11
-207.500000
 21
69.000000
  0
LINE
  8
0
 62
     2
 10
-212.500000
 20
68.250000
 11
-207.500000
 21
68.250000
  0
LINE
  8
0
 10
218.500000
 20
158.000000
 11
218.500000
 21
-6.000000
  0
LINE
  8
0
 10
-246.500000
 20
158.000000
 11
-246.500000
 21
104.000000
  0
LINE
  8
0
  6
CENTER
 62
     2
 10
219.500000
 20
146.000000
 11
235.500000
 21
146.000000
  0
LINE
  8
0
 10
217.500000
 20
158.000000
 11
217.500000
 21
104.000000
  0
LINE
  8
0
 10
213.500000
 20
99.500000
 11
213.500000
 21
95.500000
  0
LINE
  8
0
 10
206.500000
 20
99.500000
 11
206.500000
 21
95.500000
  0
LINE
  8
0
 10
-247.500000
 20
110.700012
 11
-246.500000
 21
110.700012
  0
LINE
  8
0
 10
-242.500000
 20
99.500000
 11
-242.500000
 21
95.500000
  0
LINE
  8
0
 10
-235.500000
 20
99.500000
 11
-235.500000
 21
95.500000
  0
LINE
  8
0
  6
CENTER
 62
     2
 10
-239.000000
 20
105.740005
 11
-239.000000
 21
93.850006
  0
LINE
  8
0
  6
CENTER
 62
     2
 10
119.729980
 20
59.000000
 11
238.519775
 21
59.000000
  0
LINE
  8
0
  6
CENTER
 62
     2
 10
227.500000
 20
23.000000
 11
227.500000
 21
5.000000
  0
LINE
  8
0
  6
CENTER
 62
     2
 10
236.500000
 20
14.000000
 11
218.500000
 21
14.000000
  0
LINE
  8
0
  6
CENTER
 62
     2
 10
227.500000
 20
155.000000
 11
227.500000
 21
137.000000
  0
LINE
  8
0
  6
CENTER
 62
     2
 10
-256.500000
 20
23.000000
 11
-256.500000
 21
5.000000
  0
LINE
  8
0
  6
CENTER
 62
     2
 10
-265.500000
 20
14.000000
 11
-247.500000
 21
14.000000
  0
LINE
  8
0
  6
CENTER
 62
     2
 10
-265.500000
 20
146.000000
 11
-247.500000
 21
146.000000
  0
LINE
  8
0
  6
CENTER
 62
     2
 10
-256.500000
 20
155.000000
 11
-256.500000
 21
137.000000
  0
LINE
  8
0
 10
-207.500000
 20
38.750000
 11
-212.500000
 21
38.750000
  0
LINE
  8
0
 10
-207.500000
 20
47.250000
 11
-212.500000
 21
47.250000
  0
LINE
  8
0
 10
183.500000
 20
38.750000
 11
-21.500000
 21
38.750000
  0
LINE
  8
0
 10
183.500000
 20
47.250000
 11
-21.500000
 21
47.250000
  0
LINE
  8
0
 10
-21.500000
 20
77.000000
 11
183.500000
 21
77.000000
  0
LINE
  8
0
 10
-212.500000
 20
77.000000
 11
-207.500000
 21
77.000000
  0
LINE
  8
0
  6
DASHED
 62
     2
 10
218.500000
 20
14.000000
 11
218.500000
 21
34.000000
  0
LINE
  8
0
 10
183.500000
 20
84.500000
 11
218.500000
 21
84.500000
  0
LINE
  8
0
 10
183.500000
 20
9.000000
 11
218.500000
 21
9.000000
  0
LINE
  8
0
  6
CENTER
 62
     2
 10
-34.500000
 20
92.500000
 11
-34.500000
 21
79.500000
  0
LINE
  8
0
  6
CENTER
 62
     2
 10
-194.500000
 20
92.500000
 11
-194.500000
 21
79.500000
  0
LINE
  8
0
  6
CENTER
 62
     2
 10
-201.000000
 20
4.000000
 11
-28.000000
 21
4.000000
  0
LINE
  8
0
  6
CENTER
 62
     2
 10
-201.000000
 20
86.000000
 11
-28.000000
 21
86.000000
  0
LINE
  8
0
 10
-212.500000
 20
84.500000
 11
-247.500000
 21
84.500000
  0
LINE
  8
0
 10
-212.500000
 20
84.500000
 11
-212.500000
 21
9.000000
  0
LINE
  8
0
 10
-212.500000
 20
9.000000
 11
-247.500000
 21
9.000000
  0
LINE
  8
0
 10
-207.500000
 20
14.000000
 11
-212.500000
 21
14.000000
  0
LINE
  8
0
 10
183.500000
 20
14.000000
 11
-21.500000
 21
14.000000
  0
LINE
  8
0
 10
-207.500000
 20
34.000000
 11
-212.500000
 21
34.000000
  0
LINE
  8
0
 10
183.500000
 20
34.000000
 11
-21.500000
 21
34.000000
  0
LINE
  8
0
 10
-21.500000
 20
0.500000
 11
218.500000
 21
0.500000
  0
LINE
  8
0
 10
-247.500000
 20
0.500000
 11
-207.500000
 21
0.500000
  0
LINE
  8
0
 10
-207.500000
 20
-6.000000
 11
-207.500000
 21
96.000000
  0
LINE
  8
0
 10
-21.500000
 20
-6.000000
 11
-21.500000
 21
96.000000
  0
LINE
  8
0
  6
CENTER
 62
     2
 10
-114.500000
 20
-13.529999
 11
-114.500000
 21
165.469986
  0
LINE
  8
0
 10
-247.500000
 20
-6.000000
 11
-247.500000
 21
158.000000
  0
LINE
  8
0
 10
235.500000
 20
158.000000
 11
235.500000
 21
-6.000000
  0
LINE
  8
0
 10
-264.500000
 20
-6.000000
 11
235.500000
 21
-6.000000
  0
LINE
  8
0
 10
-264.500000
 20
-6.000000
 11
-264.500000
 21
158.000000
  0
LINE
  8
0
 10
198.000000
 20
78.732056
 11
198.000000
 21
75.267960
  0
LINE
  8
0
 10
204.000000
 20
78.732056
 11
204.000000
 21
75.267960
  0
LINE
  8
0
 10
197.999756
 20
78.732025
 11
200.999756
 21
80.464081
  0
LINE
  8
0
 10
200.999741
 20
73.535866
 11
203.999756
 21
75.267914
  0
LINE
  8
0
 10
200.999817
 20
80.464218
 11
203.999817
 21
78.732162
  0
LINE
  8
0
 10
197.999802
 20
75.268066
 11
200.999832
 21
73.536011
  0
LINE
  8
0
 10
189.500000
 20
44.732056
 11
189.500000
 21
41.267960
  0
LINE
  8
0
 10
195.500000
 20
44.732056
 11
195.500000
 21
41.267960
  0
LINE
  8
0
 10
189.499832
 20
44.732121
 11
192.499863
 21
46.464180
  0
LINE
  8
0
 10
192.499832
 20
39.535961
 11
195.499847
 21
41.268021
  0
LINE
  8
0
 10
192.499924
 20
46.464149
 11
195.499939
 21
44.732098
  0
LINE
  8
0
 10
189.499924
 20
41.268002
 11
192.499939
 21
39.535942
  0
LINE
  8
0
 10
206.500000
 20
44.732056
 11
206.500000
 21
41.267960
  0
LINE
  8
0
 10
212.500000
 20
44.732056
 11
212.500000
 21
41.267960
  0
LINE
  8
0
 10
206.499817
 20
44.732117
 11
209.499832
 21
46.464169
  0
LINE
  8
0
 10
209.499817
 20
39.535954
 11
212.499832
 21
41.268005
  0
LINE
  8
0
 10
209.499908
 20
46.464165
 11
212.499924
 21
44.732113
  0
LINE
  8
0
 10
206.499908
 20
41.268009
 11
209.499924
 21
39.535957
  0
LINE
  8
0
 10
-233.000000
 20
78.732056
 11
-233.000000
 21
75.267960
  0
LINE
  8
0
 10
-227.000000
 20
78.732056
 11
-227.000000
 21
75.267960
  0
LINE
  8
0
 10
-233.000000
 20
78.732056
 11
-230.000000
 21
80.464104
  0
LINE
  8
0
 10
-230.000000
 20
73.535896
 11
-227.000000
 21
75.267960
  0
LINE
  8
0
 10
-230.000015
 20
80.464104
 11
-227.000015
 21
78.732056
  0
LINE
  8
0
 10
-233.000000
 20
75.267960
 11
-230.000000
 21
73.535912
  0
LINE
  8
0
 10
-241.500000
 20
44.732056
 11
-241.500000
 21
41.267960
  0
LINE
  8
0
 10
-235.500000
 20
44.732056
 11
-235.500000
 21
41.267960
  0
LINE
  8
0
 10
-241.500000
 20
44.732056
 11
-238.500000
 21
46.464111
  0
LINE
  8
0
 10
-238.500015
 20
39.535915
 11
-235.500000
 21
41.267967
  0
LINE
  8
0
 10
-238.499985
 20
46.464108
 11
-235.500000
 21
44.732063
  0
LINE
  8
0
 10
-241.500000
 20
41.267979
 11
-238.500000
 21
39.535919
  0
LINE
  8
0
 10
-224.500000
 20
44.732056
 11
-224.500000
 21
41.267960
  0
LINE
  8
0
 10
-218.500000
 20
44.732056
 11
-218.500000
 21
41.267960
  0
LINE
  8
0
 10
-224.500000
 20
44.732075
 11
-221.500000
 21
46.464119
  0
LINE
  8
0
 10
-221.500000
 20
39.535908
 11
-218.500000
 21
41.267960
  0
LINE
  8
0
 10
-221.500000
 20
46.464111
 11
-218.500000
 21
44.732067
  0
LINE
  8
0
 10
-224.500000
 20
41.267952
 11
-221.500000
 21
39.535908
  0
LINE
  8
0
  6
CENTER
 62
     2
 10
85.500000
 20
-13.529999
 11
85.500000
 21
165.469986
  0
LINE
  8
0
  6
PHANTOM
 62
     3
 10
-2.869644
 20
-45.253983
 11
-2.869644
 21
181.157852
  0
LINE
  8
0
 10
-379.250000
 20
-256.750000
 11
-67.250000
 21
-256.750000
  0
LINE
  8
0
 10
-379.250000
 20
-236.750000
 11
-67.250000
 21
-236.750000
  0
LINE
  8
0
 10
-67.250000
 20
-236.750000
 11
-67.250000
 21
-256.750000
  0
LINE
  8
0
 10
-235.250000
 20
-236.750000
 11
-235.250000
 21
-256.750000
  0
LINE
  8
0
 10
-263.250000
 20
-236.750000
 11
-263.250000
 21
-256.750000
  0
LINE
  8
0
 10
-291.250000
 20
-236.750000
 11
-291.250000
 21
-256.750000
  0
LINE
  8
0
 10
-319.250000
 20
-236.750000
 11
-319.250000
 21
-256.750000
  0
LINE
  8
0
 10
-379.250000
 20
-236.750000
 11
-379.250000
 21
-256.750000
  0
LINE
  8
0
 10
-207.250000
 20
-236.750000
 11
-207.250000
 21
-256.750000
  0
LINE
  8
0
 10
-179.250000
 20
-236.750000
 11
-179.250000
 21
-256.750000
  0
LINE
  8
0
 10
-151.250000
 20
-236.750000
 11
-151.250000
 21
-256.750000
  0
LINE
  8
0
 10
-123.250000
 20
-236.750000
 11
-123.250000
 21
-256.750000
  0
LINE
  8
0
 10
-95.250000
 20
-256.750000
 11
-95.250000
 21
-236.750000
  0
LINE
  8
0
 10
-379.250000
 20
-246.750000
 11
-67.250000
 21
-246.750000
  0
LINE
  8
0
 10
-239.250000
 20
276.250000
 11
-239.250000
 21
251.250000
  0
LINE
  8
0
 10
239.799988
 20
251.250000
 11
239.799988
 21
276.250000
  0
LINE
  8
0
 10
239.799988
 20
-251.750000
 11
239.799988
 21
-276.750000
  0
LINE
  8
0
 10
-399.250000
 20
251.250000
 11
-239.250000
 21
251.250000
  0
LINE
  8
0
 10
239.799988
 20
251.250000
 11
399.799805
 21
251.250000
  0
LINE
  8
0
 10
239.799988
 20
-251.750000
 11
399.799805
 21
-251.750000
  0
LINE
  8
0
 10
-399.250000
 20
-276.750000
 11
399.799805
 21
-276.750000
  0
LINE
  8
0
 10
-399.250000
 20
276.250000
 11
399.799805
 21
276.250000
  0
LINE
  8
0
 10
-399.250000
 20
276.250000
 11
-399.250000
 21
-276.750000
  0
LINE
  8
0
 10
399.799805
 20
276.250000
 11
399.799805
 21
-276.750000
  0
CIRCLE
  8
0
 62
     4
 10
-111.497070
 20
-99.505966
 40
1.500000
  0
CIRCLE
  8
0
 62
     4
 10
78.502930
 20
-105.505966
 40
1.500000
  0
CIRCLE
  8
0
 62
     2
 10
300.999634
 20
125.999847
 40
6.500000
  0
CIRCLE
  8
0
 10
300.999634
 20
125.999847
 40
5.500000
  0
ARC
  8
0
 10
297.998657
 20
-3.400467
 40
2.098634
 50
34.891594
 51
179.987061
  0
CIRCLE
  8
0
 10
311.999634
 20
69.999832
 40
5.500000
  0
CIRCLE
  8
0
 62
     2
 10
311.999634
 20
69.999832
 40
6.500000
  0
CIRCLE
  8
0
 10
291.999634
 20
58.999832
 40
11.500000
  0
ARC
  8
0
 10
292.000000
 20
-3.399994
 40
2.100006
 50
0.000000
 51
179.999954
  0
ARC
  8
0
 10
304.600006
 20
-2.799988
 40
1.400000
 50
270.000000
 51
90.000000
  0
CIRCLE
  8
0
 10
291.999634
 20
58.999832
 40
10.000000
  0
CIRCLE
  8
0
 62
     2
 10
291.999634
 20
58.999832
 40
9.250000
  0
ARC
  8
0
 10
305.249878
 20
152.700119
 40
1.000107
 50
270.006989
 51
359.993866
  0
ARC
  8
0
 10
296.749756
 20
152.699738
 40
0.999725
 50
179.984253
 51
270.015747
  0
CIRCLE
  8
0
 62
     4
 10
292.000000
 20
-4.229996
 40
0.250000
  0
CIRCLE
  8
0
 62
     4
 10
292.000000
 20
-3.329987
 40
0.250000
  0
CIRCLE
  8
0
 62
     4
 10
292.000000
 20
-3.779999
 40
1.299999
  0
CIRCLE
  8
0
 62
     4
 10
292.000000
 20
-4.229996
 40
0.450000
  0
CIRCLE
  8
0
 62
     4
 10
292.000000
 20
-3.329987
 40
0.450000
  0
ARC
  8
0
 62
     4
 10
292.000000
 20
-3.584656
 40
2.049988
 50
0.000000
 51
179.999969
  0
CIRCLE
  8
0
 62
     4
 10
298.000000
 20
-4.229996
 40
0.250000
  0
CIRCLE
  8
0
 62
     4
 10
298.000000
 20
-3.329987
 40
0.250000
  0
CIRCLE
  8
0
 62
     4
 10
298.000000
 20
-3.779999
 40
1.299999
  0
CIRCLE
  8
0
 62
     4
 10
298.000000
 20
-4.229996
 40
0.450000
  0
CIRCLE
  8
0
 62
     4
 10
298.000000
 20
-3.329987
 40
0.450000
  0
ARC
  8
0
 62
     4
 10
298.000000
 20
-3.584656
 40
2.049988
 50
0.000000
 51
179.999969
  0
ARC
  8
0
 62
     4
 10
-338.905579
 20
-3.624435
 40
0.094605
 50
86.634277
 51
183.367538
  0
ARC
  8
0
 62
     4
 10
-338.901367
 20
-4.131332
 40
0.098673
 50
179.218063
 51
270.779816
  0
ARC
  8
0
 62
     4
 10
-337.009216
 20
-3.580261
 40
2.040788
 50
127.444481
 51
179.992416
  0
ARC
  8
0
 62
     4
 10
-337.002197
 20
-3.585892
 40
2.052194
 50
0.164648
 51
52.398056
  0
ARC
  8
0
 62
     4
 10
-335.105591
 20
-4.124405
 40
0.105734
 50
273.027679
 51
356.971405
  0
ARC
  8
0
 62
     4
 10
-335.101685
 20
-3.631653
 40
0.101668
 50
0.937493
 51
89.054131
  0
ARC
  8
0
 62
     4
 10
-332.905579
 20
-3.624435
 40
0.094605
 50
86.634277
 51
183.367538
  0
ARC
  8
0
 62
     4
 10
-332.901367
 20
-4.131332
 40
0.098673
 50
179.218063
 51
270.779816
  0
ARC
  8
0
 62
     4
 10
-331.009216
 20
-3.580261
 40
2.040788
 50
127.444481
 51
179.992416
  0
ARC
  8
0
 62
     4
 10
-331.002197
 20
-3.585892
 40
2.052194
 50
0.164648
 51
52.398056
  0
ARC
  8
0
 62
     4
 10
-329.105591
 20
-4.124405
 40
0.105734
 50
273.027679
 51
356.971405
  0
ARC
  8
0
 62
     4
 10
-329.101685
 20
-3.631653
 40
0.101668
 50
0.937493
 51
89.054131
  0
ARC
  8
0
 10
-335.749756
 20
152.699738
 40
0.999725
 50
269.984253
 51
0.015741
  0
ARC
  8
0
 10
-344.249878
 20
152.700119
 40
1.000122
 50
180.006119
 51
269.993011
  0
CIRCLE
  8
0
 62
     2
 10
-330.999634
 20
58.999832
 40
9.250000
  0
CIRCLE
  8
0
 10
-330.999634
 20
58.999832
 40
10.000000
  0
ARC
  8
0
 10
-343.600006
 20
-2.799988
 40
1.400000
 50
90.000000
 51
270.000000
  0
ARC
  8
0
 10
-331.000000
 20
-3.399994
 40
2.100006
 50
0.000000
 51
179.999954
  0
CIRCLE
  8
0
 10
-330.999634
 20
58.999832
 40
11.500000
  0
CIRCLE
  8
0
 62
     2
 10
-350.999634
 20
69.999832
 40
6.500000
  0
CIRCLE
  8
0
 10
-350.999634
 20
69.999832
 40
5.500000
  0
ARC
  8
0
 10
-336.998657
 20
-3.400467
 40
2.098633
 50
0.012895
 51
145.108383
  0
CIRCLE
  8
0
 10
-339.999634
 20
125.999847
 40
5.500000
  0
CIRCLE
  8
0
 62
     2
 10
-339.999634
 20
125.999847
 40
6.500000
  0
CIRCLE
  8
0
 62
     4
 10
-114.495193
 20
4.004044
 40
4.000000
  0
ARC
  8
0
 62
     4
 10
-114.500000
 20
85.000000
 40
4.000000
 50
180.000000
 51
0.000000
  0
ARC
  8
0
 62
     4
 10
-114.500000
 20
87.000000
 40
4.000000
 50
0.000000
 51
180.000000
  0
ARC
  8
0
 10
-184.281860
 20
78.299973
 40
25.700029
 50
90.018135
 51
113.379173
  0
ARC
  8
0
 10
-184.256317
 20
78.305283
 40
19.994749
 50
90.096542
 51
113.439980
  0
ARC
  8
0
 10
-193.345001
 20
99.270004
 40
2.855281
 50
113.422432
 51
293.422424
  0
ARC
  8
0
 10
-44.718109
 20
78.300125
 40
25.699877
 50
66.620743
 51
90.004196
  0
ARC
  8
0
 10
-44.734024
 20
78.303421
 40
19.996584
 50
66.561180
 51
89.959824
  0
ARC
  8
0
 10
-35.650009
 20
99.270004
 40
2.853298
 50
246.669647
 51
66.669579
  0
CIRCLE
  8
0
 10
227.500244
 20
13.999832
 40
4.500000
  0
CIRCLE
  8
0
 10
227.500244
 20
13.999832
 40
7.000000
  0
CIRCLE
  8
0
 10
227.500244
 20
145.999847
 40
4.500000
  0
CIRCLE
  8
0
 10
227.500244
 20
145.999847
 40
7.000000
  0
CIRCLE
  8
0
 10
-256.499634
 20
13.999832
 40
4.500000
  0
CIRCLE
  8
0
 10
-256.499634
 20
13.999832
 40
7.000000
  0
CIRCLE
  8
0
 10
-256.499634
 20
145.999847
 40
7.000000
  0
CIRCLE
  8
0
 10
-256.499634
 20
145.999847
 40
4.500000
  0
CIRCLE
  8
0
 10
209.500244
 20
42.999832
 40
7.000000
  0
CIRCLE
  8
0
 10
192.500244
 20
42.999832
 40
7.000000
  0
CIRCLE
  8
0
 10
201.000244
 20
76.999832
 40
6.500000
  0
CIRCLE
  8
0
 10
-229.999619
 20
76.999832
 40
6.500000
  0
CIRCLE
  8
0
 10
-238.499619
 20
42.999832
 40
7.000000
  0
CIRCLE
  8
0
 10
-221.499603
 20
42.999832
 40
7.000000
  0
CIRCLE
  8
0
 10
-34.499619
 20
3.999832
 40
3.349999
  0
CIRCLE
  8
0
 62
     2
 10
-34.499619
 20
3.999832
 40
4.000000
  0
CIRCLE
  8
0
 62
     2
 10
-194.499619
 20
3.999832
 40
4.000000
  0
CIRCLE
  8
0
 10
-194.499619
 20
3.999832
 40
3.349999
  0
CIRCLE
  8
0
 10
-34.499619
 20
85.999832
 40
3.349999
  0
CIRCLE
  8
0
 62
     2
 10
-34.499619
 20
85.999832
 40
4.000000
  0
CIRCLE
  8
0
 10
-194.499619
 20
85.999832
 40
3.349999
  0
CIRCLE
  8
0
 62
     2
 10
-194.499619
 20
85.999832
 40
4.000000
  0
CIRCLE
  8
0
 10
201.000000
 20
77.000000
 40
6.500000
  0
CIRCLE
  8
0
 10
201.000000
 20
77.000015
 40
5.460770
  0
CIRCLE
  8
0
 10
201.000000
 20
77.000015
 40
3.464101
  0
CIRCLE
  8
0
 10
192.500000
 20
43.000000
 40
6.500000
  0
CIRCLE
  8
0
 10
192.500000
 20
43.000015
 40
5.460770
  0
CIRCLE
  8
0
 10
192.500000
 20
43.000015
 40
3.464101
  0
CIRCLE
  8
0
 10
209.500000
 20
43.000000
 40
6.500000
  0
CIRCLE
  8
0
 10
209.500000
 20
43.000015
 40
5.460770
  0
CIRCLE
  8
0
 10
209.500000
 20
43.000015
 40
3.464101
  0
CIRCLE
  8
0
 10
-230.000000
 20
77.000000
 40
6.500000
  0
CIRCLE
  8
0
 10
-230.000000
 20
77.000015
 40
5.460770
  0
CIRCLE
  8
0
 10
-230.000000
 20
77.000015
 40
3.464101
  0
CIRCLE
  8
0
 10
-238.500000
 20
43.000000
 40
6.500000
  0
CIRCLE
  8
0
 10
-238.500000
 20
43.000015
 40
5.460770
  0
CIRCLE
  8
0
 10
-238.500000
 20
43.000015
 40
3.464101
  0
CIRCLE
  8
0
 10
-221.500000
 20
43.000000
 40
6.500000
  0
CIRCLE
  8
0
 10
-221.500000
 20
43.000015
 40
5.460770
  0
CIRCLE
  8
0
 10
-221.500000
 20
43.000015
 40
3.464101
  0
TEXT
  8
0
 62
     3
 10
-38.785809
 20
188.732803
 40
6.300000
  1
STRETCH LINE
 50
0.000000
 41
1.052632
 51
0.000000
  7
STANDARD
  0
TEXT
  8
0
 10
-392.285309
 20
256.649994
 40
9.000000
  1
RODLESS CYLINDER
 50
0.000000
 41
1.052632
 51
0.000000
  7
STANDARD
  0
TEXT
  8
0
 10
-384.785309
 20
224.149994
 40
9.000000
  1
MODEL:ORS32*ST(200)
 50
0.000000
 41
1.052632
 51
0.000000
  7
STANDARD
  0
TEXT
  8
0
 10
-261.699707
 20
-234.419998
 40
6.300000
  1
STRETCH LIST
 50
0.000000
 41
1.052632
 51
0.000000
  7
STANDARD
  0
TEXT
  8
0
 10
-91.349716
 20
-256.420013
 40
6.300000
  1
600
 50
0.000000
 41
1.052632
 51
0.000000
  7
STANDARD
  0
TEXT
  8
0
 10
-91.349716
 20
-246.419998
 40
6.300000
  1
800
 50
0.000000
 41
1.052632
 51
0.000000
  7
STANDARD
  0
TEXT
  8
0
 10
-259.349731
 20
-256.420013
 40
6.300000
  1
100
 50
0.000000
 41
1.052632
 51
0.000000
  7
STANDARD
  0
TEXT
  8
0
 10
-284.199707
 20
-256.420013
 40
6.300000
  1
50
 50
0.000000
 41
1.052632
 51
0.000000
  7
STANDARD
  0
TEXT
  8
0
 10
-309.049713
 20
-256.420013
 40
6.300000
  1
0
 50
0.000000
 41
1.052632
 51
0.000000
  7
STANDARD
  0
TEXT
  8
0
 10
-259.349731
 20
-246.419998
 40
6.300000
  1
300
 50
0.000000
 41
1.052632
 51
0.000000
  7
STANDARD
  0
TEXT
  8
0
 10
-287.349731
 20
-246.419998
 40
6.300000
  1
250
 50
0.000000
 41
1.052632
 51
0.000000
  7
STANDARD
  0
TEXT
  8
0
 10
-315.349731
 20
-246.419998
 40
6.300000
  1
200
 50
0.000000
 41
1.052632
 51
0.000000
  7
STANDARD
  0
TEXT
  8
0
 10
-231.349716
 20
-246.419998
 40
6.300000
  1
350
 50
0.000000
 41
1.052632
 51
0.000000
  7
STANDARD
  0
TEXT
  8
0
 10
-231.349716
 20
-256.420013
 40
6.300000
  1
150
 50
0.000000
 41
1.052632
 51
0.000000
  7
STANDARD
  0
TEXT
  8
0
 10
-203.349716
 20
-246.419998
 40
6.300000
  1
400
 50
0.000000
 41
1.052632
 51
0.000000
  7
STANDARD
  0
TEXT
  8
0
 10
-203.349716
 20
-256.420013
 40
6.300000
  1
200
 50
0.000000
 41
1.052632
 51
0.000000
  7
STANDARD
  0
TEXT
  8
0
 10
-175.349716
 20
-246.419998
 40
6.300000
  1
500
 50
0.000000
 41
1.052632
 51
0.000000
  7
STANDARD
  0
TEXT
  8
0
 10
-175.349716
 20
-256.420013
 40
6.300000
  1
300
 50
0.000000
 41
1.052632
 51
0.000000
  7
STANDARD
  0
TEXT
  8
0
 10
-147.349716
 20
-246.419998
 40
6.300000
  1
600
 50
0.000000
 41
1.052632
 51
0.000000
  7
STANDARD
  0
TEXT
  8
0
 10
-147.349716
 20
-256.420013
 40
6.300000
  1
400
 50
0.000000
 41
1.052632
 51
0.000000
  7
STANDARD
  0
TEXT
  8
0
 10
-119.349716
 20
-246.419998
 40
6.300000
  1
700
 50
0.000000
 41
1.052632
 51
0.000000
  7
STANDARD
  0
TEXT
  8
0
 10
-119.349716
 20
-256.420013
 40
6.300000
  1
500
 50
0.000000
 41
1.052632
 51
0.000000
  7
STANDARD
  0
TEXT
  8
0
 10
-384.484375
 20
210.649994
 40
9.000000
  1
(WITH SENSOR SWITCH)
 50
0.000000
 41
1.052632
 51
0.000000
  7
STANDARD
  0
TEXT
  8
0
 10
-368.589050
 20
-246.419998
 40
6.300000
  1
STROKE
 50
0.000000
 41
1.052632
 51
0.000000
  7
STANDARD
  0
TEXT
  8
0
 10
-371.739075
 20
-256.420013
 40
6.300000
  1
STRETCH
 50
0.000000
 41
1.052632
 51
0.000000
  7
STANDARD
  0
TEXT
  8
0
 10
-94.499718
 20
-236.419998
 40
6.300000
  1
（ｍｍ）
 50
0.000000
 41
0.833333
 51
0.000000
  7
STANDARD
  0
TEXT
  8
0
 10
282.764496
 20
256.649994
 40
9.000000
  1
Ｖｅｒ．　１．０
 50
0.000000
 41
0.833333
 51
0.000000
  7
STANDARD
  0
TEXT
  8
0
 10
242.014633
 20
-274.500000
 40
12.500000
  1
KOGANEI CORP.
 50
0.000000
 41
1.052632
 51
0.000000
  7
STANDARD
  0
ENDSEC
  0
EOF
