  0
SECTION
  2
HEADER
  9
$ACADVER
  1
AC1015
  9
$ACADMAINTVER
 70
    20
  9
$DWGCODEPAGE
  3
ANSI_932
  9
$INSBASE
 10
0.0
 20
0.0
 30
0.0
  9
$EXTMIN
 10
-399.25
 20
-276.75
 30
0.0
  9
$EXTMAX
 10
399.799805
 20
276.25
 30
0.0
  9
$LIMMIN
 10
0.0
 20
0.0
  9
$LIMMAX
 10
12.0
 20
9.0
  9
$ORTHOMODE
 70
     0
  9
$REGENMODE
 70
     1
  9
$FILLMODE
 70
     1
  9
$QTEXTMODE
 70
     0
  9
$MIRRTEXT
 70
     0
  9
$LTSCALE
 40
1.0
  9
$ATTMODE
 70
     1
  9
$TEXTSIZE
 40
0.2
  9
$TRACEWID
 40
0.05
  9
$TEXTSTYLE
  7
STANDARD
  9
$CLAYER
  8
0
  9
$CELTYPE
  6
CONTINUOUS
  9
$CECOLOR
 62
   256
  9
$CELTSCALE
 40
1.0
  9
$DISPSILH
 70
     0
  9
$DIMSCALE
 40
1.0
  9
$DIMASZ
 40
0.18
  9
$DIMEXO
 40
0.0625
  9
$DIMDLI
 40
0.38
  9
$DIMRND
 40
0.0
  9
$DIMDLE
 40
0.0
  9
$DIMEXE
 40
0.18
  9
$DIMTP
 40
0.0
  9
$DIMTM
 40
0.0
  9
$DIMTXT
 40
0.18
  9
$DIMCEN
 40
0.09
  9
$DIMTSZ
 40
0.0
  9
$DIMTOL
 70
     0
  9
$DIMLIM
 70
     0
  9
$DIMTIH
 70
     1
  9
$DIMTOH
 70
     1
  9
$DIMSE1
 70
     0
  9
$DIMSE2
 70
     0
  9
$DIMTAD
 70
     0
  9
$DIMZIN
 70
     0
  9
$DIMBLK
  1

  9
$DIMASO
 70
     1
  9
$DIMSHO
 70
     1
  9
$DIMPOST
  1

  9
$DIMAPOST
  1

  9
$DIMALT
 70
     0
  9
$DIMALTD
 70
     2
  9
$DIMALTF
 40
25.4
  9
$DIMLFAC
 40
1.0
  9
$DIMTOFL
 70
     0
  9
$DIMTVP
 40
0.0
  9
$DIMTIX
 70
     0
  9
$DIMSOXD
 70
     0
  9
$DIMSAH
 70
     0
  9
$DIMBLK1
  1

  9
$DIMBLK2
  1

  9
$DIMSTYLE
  2
Standard
  9
$DIMCLRD
 70
     0
  9
$DIMCLRE
 70
     0
  9
$DIMCLRT
 70
     0
  9
$DIMTFAC
 40
1.0
  9
$DIMGAP
 40
0.09
  9
$DIMJUST
 70
     0
  9
$DIMSD1
 70
     0
  9
$DIMSD2
 70
     0
  9
$DIMTOLJ
 70
     1
  9
$DIMTZIN
 70
     0
  9
$DIMALTZ
 70
     0
  9
$DIMALTTZ
 70
     0
  9
$DIMUPT
 70
     0
  9
$DIMDEC
 70
     4
  9
$DIMTDEC
 70
     4
  9
$DIMALTU
 70
     2
  9
$DIMALTTD
 70
     2
  9
$DIMTXSTY
  7
STANDARD
  9
$DIMAUNIT
 70
     0
  9
$DIMADEC
 70
     0
  9
$DIMALTRND
 40
0.0
  9
$DIMAZIN
 70
     0
  9
$DIMDSEP
 70
    46
  9
$DIMATFIT
 70
     3
  9
$DIMFRAC
 70
     0
  9
$DIMLDRBLK
  1

  9
$DIMLUNIT
 70
     2
  9
$DIMLWD
 70
    -2
  9
$DIMLWE
 70
    -2
  9
$DIMTMOVE
 70
     0
  9
$LUNITS
 70
     2
  9
$LUPREC
 70
     4
  9
$SKETCHINC
 40
0.1
  9
$FILLETRAD
 40
0.0
  9
$AUNITS
 70
     0
  9
$AUPREC
 70
     0
  9
$MENU
  1
.
  9
$ELEVATION
 40
0.0
  9
$PELEVATION
 40
0.0
  9
$THICKNESS
 40
0.0
  9
$LIMCHECK
 70
     0
  9
$CHAMFERA
 40
0.0
  9
$CHAMFERB
 40
0.0
  9
$CHAMFERC
 40
0.0
  9
$CHAMFERD
 40
0.0
  9
$SKPOLY
 70
     0
  9
$TDCREATE
 40
2454160.471902304
  9
$TDUCREATE
 40
2454160.096902303
  9
$TDUPDATE
 40
2454160.472868738
  9
$TDUUPDATE
 40
2454160.097868738
  9
$TDINDWG
 40
0.0009671528
  9
$TDUSRTIMER
 40
0.0009671528
  9
$USRTIMER
 70
     1
  9
$ANGBASE
 50
0.0
  9
$ANGDIR
 70
     0
  9
$PDMODE
 70
     0
  9
$PDSIZE
 40
0.0
  9
$PLINEWID
 40
0.0
  9
$SPLFRAME
 70
     0
  9
$SPLINETYPE
 70
     6
  9
$SPLINESEGS
 70
     8
  9
$HANDSEED
  5
2C7
  9
$SURFTAB1
 70
     6
  9
$SURFTAB2
 70
     6
  9
$SURFTYPE
 70
     6
  9
$SURFU
 70
     6
  9
$SURFV
 70
     6
  9
$UCSBASE
  2

  9
$UCSNAME
  2

  9
$UCSORG
 10
0.0
 20
0.0
 30
0.0
  9
$UCSXDIR
 10
1.0
 20
0.0
 30
0.0
  9
$UCSYDIR
 10
0.0
 20
1.0
 30
0.0
  9
$UCSORTHOREF
  2

  9
$UCSORTHOVIEW
 70
     0
  9
$UCSORGTOP
 10
0.0
 20
0.0
 30
0.0
  9
$UCSORGBOTTOM
 10
0.0
 20
0.0
 30
0.0
  9
$UCSORGLEFT
 10
0.0
 20
0.0
 30
0.0
  9
$UCSORGRIGHT
 10
0.0
 20
0.0
 30
0.0
  9
$UCSORGFRONT
 10
0.0
 20
0.0
 30
0.0
  9
$UCSORGBACK
 10
0.0
 20
0.0
 30
0.0
  9
$PUCSBASE
  2

  9
$PUCSNAME
  2

  9
$PUCSORG
 10
0.0
 20
0.0
 30
0.0
  9
$PUCSXDIR
 10
1.0
 20
0.0
 30
0.0
  9
$PUCSYDIR
 10
0.0
 20
1.0
 30
0.0
  9
$PUCSORTHOREF
  2

  9
$PUCSORTHOVIEW
 70
     0
  9
$PUCSORGTOP
 10
0.0
 20
0.0
 30
0.0
  9
$PUCSORGBOTTOM
 10
0.0
 20
0.0
 30
0.0
  9
$PUCSORGLEFT
 10
0.0
 20
0.0
 30
0.0
  9
$PUCSORGRIGHT
 10
0.0
 20
0.0
 30
0.0
  9
$PUCSORGFRONT
 10
0.0
 20
0.0
 30
0.0
  9
$PUCSORGBACK
 10
0.0
 20
0.0
 30
0.0
  9
$USERI1
 70
     0
  9
$USERI2
 70
     0
  9
$USERI3
 70
     0
  9
$USERI4
 70
     0
  9
$USERI5
 70
     0
  9
$USERR1
 40
0.0
  9
$USERR2
 40
0.0
  9
$USERR3
 40
0.0
  9
$USERR4
 40
0.0
  9
$USERR5
 40
0.0
  9
$WORLDVIEW
 70
     1
  9
$SHADEDGE
 70
     3
  9
$SHADEDIF
 70
    70
  9
$TILEMODE
 70
     1
  9
$MAXACTVP
 70
    64
  9
$PINSBASE
 10
0.0
 20
0.0
 30
0.0
  9
$PLIMCHECK
 70
     0
  9
$PEXTMIN
 10
1.130750010332723
 20
0.7880833242821881
 30
0.0
  9
$PEXTMAX
 10
10.17675009299451
 20
7.092749918539693
 30
0.0
  9
$PLIMMIN
 10
-0.1912502979669045
 20
-0.1912499975970411
  9
$PLIMMAX
 10
11.50208240418922
 20
8.075416444793461
  9
$UNITMODE
 70
     0
  9
$VISRETAIN
 70
     1
  9
$PLINEGEN
 70
     0
  9
$PSLTSCALE
 70
     1
  9
$TREEDEPTH
 70
  3020
  9
$CMLSTYLE
  2
Standard
  9
$CMLJUST
 70
     0
  9
$CMLSCALE
 40
1.0
  9
$PROXYGRAPHICS
 70
     1
  9
$MEASUREMENT
 70
     0
  9
$CELWEIGHT
370
    -1
  9
$ENDCAPS
280
     0
  9
$JOINSTYLE
280
     0
  9
$LWDISPLAY
290
     0
  9
$INSUNITS
 70
     0
  9
$HYPERLINKBASE
  1

  9
$STYLESHEET
  1

  9
$XEDIT
290
     1
  9
$CEPSNTYPE
380
     0
  9
$PSTYLEMODE
290
     1
  9
$FINGERPRINTGUID
  2
{33DA6771-DCB4-48F5-9ABF-EAA2180FB4CF}
  9
$VERSIONGUID
  2
{4CF42510-F9DA-4403-B48F-AF7393C2A9AD}
  9
$EXTNAMES
290
     1
  9
$PSVPSCALE
 40
0.0
  9
$OLESTARTUP
290
     0
  0
ENDSEC
  0
SECTION
  2
CLASSES
  0
CLASS
  1
ACDBDICTIONARYWDFLT
  2
AcDbDictionaryWithDefault
  3
ObjectDBX Classes
 90
        0
280
     0
281
     0
  0
CLASS
  1
TABLESTYLE
  2
AcDbTableStyle
  3
ObjectDBX Classes
 90
     2047
280
     0
281
     0
  0
CLASS
  1
DICTIONARYVAR
  2
AcDbDictionaryVar
  3
ObjectDBX Classes
 90
        0
280
     0
281
     0
  0
CLASS
  1
ACDBPLACEHOLDER
  2
AcDbPlaceHolder
  3
ObjectDBX Classes
 90
        0
280
     0
281
     0
  0
CLASS
  1
LAYOUT
  2
AcDbLayout
  3
ObjectDBX Classes
 90
        0
280
     0
281
     0
  0
ENDSEC
  0
SECTION
  2
TABLES
  0
TABLE
  2
VPORT
  5
8
330
0
100
AcDbSymbolTable
 70
     3
  0
VPORT
  5
2BE
330
8
100
AcDbSymbolTableRecord
100
AcDbViewportTableRecord
  2
*Active
 70
     0
 10
0.0
 20
0.0
 11
1.0
 21
1.0
 12
359.4293766316573
 22
172.509069291622
 13
0.0
 23
0.0
 14
1.0
 24
1.0
 15
0.0
 25
0.0
 16
0.0
 26
0.0
 36
1.0
 17
0.0
 27
0.0
 37
0.0
 40
284.8084943760557
 41
1.165871121718377
 42
50.0
 43
0.0
 44
0.0
 50
0.0
 51
0.0
 71
     0
 72
   100
 73
     1
 74
     1
 75
     0
 76
     0
 77
     0
 78
     0
281
     0
 65
     1
110
0.0
120
0.0
130
0.0
111
1.0
121
0.0
131
0.0
112
0.0
122
1.0
132
0.0
 79
     0
146
0.0
  0
ENDTAB
  0
TABLE
  2
LTYPE
  5
5
330
0
100
AcDbSymbolTable
 70
    23
  0
LTYPE
  5
13
330
5
100
AcDbSymbolTableRecord
100
AcDbLinetypeTableRecord
  2
ByBlock
 70
     0
  3

 72
    65
 73
     0
 40
0.0
  0
LTYPE
  5
14
330
5
100
AcDbSymbolTableRecord
100
AcDbLinetypeTableRecord
  2
ByLayer
 70
     0
  3

 72
    65
 73
     0
 40
0.0
  0
LTYPE
  5
15
330
5
100
AcDbSymbolTableRecord
100
AcDbLinetypeTableRecord
  2
CONTINUOUS
 70
     0
  3
Solid line
 72
    65
 73
     0
 40
0.0
  0
LTYPE
  5
26
330
5
100
AcDbSymbolTableRecord
100
AcDbLinetypeTableRecord
  2
DASHED
 70
     0
  3
__ __ __ __ __ __ __ __ __ __ __ __ __ __ __
 72
    65
 73
     2
 40
3.5
 49
2.0
 74
     0
 49
-1.5
 74
     0
  0
LTYPE
  5
27
330
5
100
AcDbSymbolTableRecord
100
AcDbLinetypeTableRecord
  2
CENTER
 70
     0
  3
____ _ ____ _ ____ _ ____ _ ____ _ ____ _ ____
 72
    65
 73
     4
 40
17.5
 49
13.0
 74
     0
 49
-1.5
 74
     0
 49
1.5
 74
     0
 49
-1.5
 74
     0
  0
LTYPE
  5
28
330
5
100
AcDbSymbolTableRecord
100
AcDbLinetypeTableRecord
  2
PHANTOM
 70
     0
  3
_____ _ _ _____ _ _ _____ _ _ _____ _ _ ____  
 72
    65
 73
     6
 40
15.5
 49
8.0
 74
     0
 49
-1.5
 74
     0
 49
1.5
 74
     0
 49
-1.5
 74
     0
 49
1.5
 74
     0
 49
-1.5
 74
     0
  0
LTYPE
  5
29
330
5
100
AcDbSymbolTableRecord
100
AcDbLinetypeTableRecord
  2
DASHED1
 70
     0
  3
__ __ __ __ __ __ __ __ __ __ __ __ __ __ __
 72
    65
 73
     2
 40
1.5
 49
1.0
 74
     0
 49
-0.5
 74
     0
  0
LTYPE
  5
2A
330
5
100
AcDbSymbolTableRecord
100
AcDbLinetypeTableRecord
  2
DASHED2
 70
     0
  3
__ __ __ __ __ __ __ __ __ __ __ __ __ __ __
 72
    65
 73
     2
 40
3.5
 49
2.5
 74
     0
 49
-1.0
 74
     0
  0
LTYPE
  5
2B
330
5
100
AcDbSymbolTableRecord
100
AcDbLinetypeTableRecord
  2
DASHED3
 70
     0
  3
__ __ __ __ __ __ __ __ __ __ __ __ __ __ __
 72
    65
 73
     2
 40
6.0
 49
4.0
 74
     0
 49
-2.0
 74
     0
  0
LTYPE
  5
2C
330
5
100
AcDbSymbolTableRecord
100
AcDbLinetypeTableRecord
  2
DASHED4
 70
     0
  3
__ __ __ __ __ __ __ __ __ __ __ __ __ __ __
 72
    65
 73
     2
 40
12.0
 49
10.0
 74
     0
 49
-2.0
 74
     0
  0
LTYPE
  5
2D
330
5
100
AcDbSymbolTableRecord
100
AcDbLinetypeTableRecord
  2
DASHED5
 70
     0
  3
__ __ __ __ __ __ __ __ __ __ __ __ __ __ __
 72
    65
 73
     2
 40
17.0
 49
15.0
 74
     0
 49
-2.0
 74
     0
  0
LTYPE
  5
2E
330
5
100
AcDbSymbolTableRecord
100
AcDbLinetypeTableRecord
  2
DASHED6
 70
     0
  3
__ __ __ __ __ __ __ __ __ __ __ __ __ __ __
 72
    65
 73
     2
 40
29.0
 49
27.0
 74
     0
 49
-2.0
 74
     0
  0
LTYPE
  5
2F
330
5
100
AcDbSymbolTableRecord
100
AcDbLinetypeTableRecord
  2
PHANTOM1
 70
     0
  3
_____ _ _ _____ _ _ _____ _ _ _____ _ _ ____  
 72
    65
 73
     6
 40
31.0
 49
25.0
 74
     0
 49
-1.5
 74
     0
 49
1.0
 74
     0
 49
-1.0
 74
     0
 49
1.0
 74
     0
 49
-1.5
 74
     0
  0
LTYPE
  5
30
330
5
100
AcDbSymbolTableRecord
100
AcDbLinetypeTableRecord
  2
PHANTOM2
 70
     0
  3
_____ _ _ _____ _ _ _____ _ _ _____ _ _ ____  
 72
    65
 73
     6
 40
36.0
 49
27.0
 74
     0
 49
-1.5
 74
     0
 49
2.5
 74
     0
 49
-1.0
 74
     0
 49
2.5
 74
     0
 49
-1.5
 74
     0
  0
LTYPE
  5
31
330
5
100
AcDbSymbolTableRecord
100
AcDbLinetypeTableRecord
  2
PHANTOM3
 70
     0
  3
_____ _ _ _____ _ _ _____ _ _ _____ _ _ ____  
 72
    65
 73
     6
 40
78.0
 49
64.0
 74
     0
 49
-2.0
 74
     0
 49
4.0
 74
     0
 49
-2.0
 74
     0
 49
4.0
 74
     0
 49
-2.0
 74
     0
  0
LTYPE
  5
32
330
5
100
AcDbSymbolTableRecord
100
AcDbLinetypeTableRecord
  2
CENTER1
 70
     0
  3
____ _ ____ _ ____ _ ____ _ ____ _ ____ _ ____
 72
    65
 73
     4
 40
19.0
 49
14.0
 74
     0
 49
-1.0
 74
     0
 49
3.0
 74
     0
 49
-1.0
 74
     0
  0
LTYPE
  5
33
330
5
100
AcDbSymbolTableRecord
100
AcDbLinetypeTableRecord
  2
CENTER2
 70
     0
  3
____ _ ____ _ ____ _ ____ _ ____ _ ____ _ ____
 72
    65
 73
     4
 40
28.5
 49
25.0
 74
     0
 49
-1.0
 74
     0
 49
1.5
 74
     0
 49
-1.0
 74
     0
  0
LTYPE
  5
34
330
5
100
AcDbSymbolTableRecord
100
AcDbLinetypeTableRecord
  2
CENTER3
 70
     0
  3
____ _ ____ _ ____ _ ____ _ ____ _ ____ _ ____
 72
    65
 73
     4
 40
31.5
 49
27.0
 74
     0
 49
-1.0
 74
     0
 49
2.5
 74
     0
 49
-1.0
 74
     0
  0
LTYPE
  5
35
330
5
100
AcDbSymbolTableRecord
100
AcDbLinetypeTableRecord
  2
CENTER4
 70
     0
  3
____ _ ____ _ ____ _ ____ _ ____ _ ____ _ ____
 72
    65
 73
     4
 40
50.0
 49
45.0
 74
     0
 49
-1.0
 74
     0
 49
3.0
 74
     0
 49
-1.0
 74
     0
  0
LTYPE
  5
36
330
5
100
AcDbSymbolTableRecord
100
AcDbLinetypeTableRecord
  2
CENTER5
 70
     0
  3
____ _ ____ _ ____ _ ____ _ ____ _ ____ _ ____
 72
    65
 73
     4
 40
100.0
 49
92.0
 74
     0
 49
-2.0
 74
     0
 49
4.0
 74
     0
 49
-2.0
 74
     0
  0
LTYPE
  5
37
330
5
100
AcDbSymbolTableRecord
100
AcDbLinetypeTableRecord
  2
SBK1
 70
     0
  3
______ _ _ _ ______ _ _ _ ______ _ _ _ _____  
 72
    65
 73
     8
 40
60.5
 49
45.0
 74
     0
 49
-2.0
 74
     0
 49
2.5
 74
     0
 49
-2.0
 74
     0
 49
2.5
 74
     0
 49
-2.0
 74
     0
 49
2.5
 74
     0
 49
-2.0
 74
     0
  0
LTYPE
  5
38
330
5
100
AcDbSymbolTableRecord
100
AcDbLinetypeTableRecord
  2
SBK2
 70
     0
  3
______ _ _ _ ______ _ _ _ ______ _ _ _ _____  
 72
    65
 73
     8
 40
84.0
 49
64.0
 74
     0
 49
-2.0
 74
     0
 49
4.0
 74
     0
 49
-2.0
 74
     0
 49
4.0
 74
     0
 49
-2.0
 74
     0
 49
4.0
 74
     0
 49
-2.0
 74
     0
  0
LTYPE
  5
39
330
5
100
AcDbSymbolTableRecord
100
AcDbLinetypeTableRecord
  2
STCH
 70
     0
  3
__ __ __ __ __ __ __ __ __ __ __ __ __ __ __
 72
    65
 73
     2
 40
3.0
 49
1.0
 74
     0
 49
-2.0
 74
     0
  0
LTYPE
  5
3A
330
5
100
AcDbSymbolTableRecord
100
AcDbLinetypeTableRecord
  2
MTCH
 70
     0
  3
_____ _ _ _____ _ _ _____ _ _ _____ _ _ ____  
 72
    65
 73
     6
 40
80.0
 49
66.0
 74
     0
 49
-2.0
 74
     0
 49
4.0
 74
     0
 49
-2.0
 74
     0
 49
4.0
 74
     0
 49
-2.0
 74
     0
  0
ENDTAB
  0
TABLE
  2
LAYER
  5
2
102
{ACAD_XDICTIONARY
360
2AB
102
}
330
0
100
AcDbSymbolTable
 70
     1
  0
LAYER
  5
10
330
2
100
AcDbSymbolTableRecord
100
AcDbLayerTableRecord
  2
0
 70
     0
 62
     7
  6
CONTINUOUS
370
    -3
390
F
  0
ENDTAB
  0
TABLE
  2
STYLE
  5
3
330
0
100
AcDbSymbolTable
 70
     1
  0
STYLE
  5
11
330
3
100
AcDbSymbolTableRecord
100
AcDbTextStyleTableRecord
  2
STANDARD
 70
     0
 40
0.0
 41
1.0
 50
0.0
 71
     0
 42
0.2
  3
txt
  4
BIGFONT
  0
ENDTAB
  0
TABLE
  2
VIEW
  5
6
330
0
100
AcDbSymbolTable
 70
     1
  0
ENDTAB
  0
TABLE
  2
UCS
  5
7
330
0
100
AcDbSymbolTable
 70
     0
  0
ENDTAB
  0
TABLE
  2
APPID
  5
9
330
0
100
AcDbSymbolTable
 70
     3
  0
APPID
  5
12
330
9
100
AcDbSymbolTableRecord
100
AcDbRegAppTableRecord
  2
ACAD
 70
     0
  0
APPID
  5
2A5
330
9
100
AcDbSymbolTableRecord
100
AcDbRegAppTableRecord
  2
ACAD_PSEXT
 70
     0
  0
APPID
  5
2B2
330
9
100
AcDbSymbolTableRecord
100
AcDbRegAppTableRecord
  2
ACAD_EXEMPT_FROM_CAD_STANDARDS
 70
     0
  0
ENDTAB
  0
TABLE
  2
DIMSTYLE
  5
A
330
0
100
AcDbSymbolTable
 70
     2
100
AcDbDimStyleTable
 71
     1
340
29F
  0
DIMSTYLE
105
29F
330
A
100
AcDbSymbolTableRecord
100
AcDbDimStyleTableRecord
  2
Standard
 70
     0
340
11
  0
ENDTAB
  0
TABLE
  2
BLOCK_RECORD
  5
1
330
0
100
AcDbSymbolTable
 70
     1
  0
BLOCK_RECORD
  5
22
330
1
100
AcDbSymbolTableRecord
100
AcDbBlockTableRecord
  2
*Model_Space
340
25
  0
BLOCK_RECORD
  5
1E
330
1
100
AcDbSymbolTableRecord
100
AcDbBlockTableRecord
  2
*Paper_Space
340
21
  0
ENDTAB
  0
ENDSEC
  0
SECTION
  2
BLOCKS
  0
BLOCK
  5
23
330
22
100
AcDbEntity
  8
0
100
AcDbBlockBegin
  2
*Model_Space
 70
     0
 10
0.0
 20
0.0
 30
0.0
  3
*Model_Space
  1

  0
ENDBLK
  5
24
330
22
100
AcDbEntity
  8
0
100
AcDbBlockEnd
  0
BLOCK
  5
1F
330
1E
100
AcDbEntity
 67
     1
  8
0
100
AcDbBlockBegin
  2
*Paper_Space
 70
     0
 10
0.0
 20
0.0
 30
0.0
  3
*Paper_Space
  1

  0
ENDBLK
  5
20
330
1E
100
AcDbEntity
 67
     1
  8
0
100
AcDbBlockEnd
  0
ENDSEC
  0
SECTION
  2
ENTITIES
  0
LINE
  5
3E
330
22
100
AcDbEntity
  8
0
  6
CENTER
 62
     2
100
AcDbLine
 10
-218.250198
 20
-144.53743
 30
0.0
 11
-218.250198
 21
-136.53743
 31
0.0
  0
LINE
  5
3F
330
22
100
AcDbEntity
  8
0
100
AcDbLine
 10
-225.250198
 20
-140.53743
 30
0.0
 11
204.739792
 21
-140.53743
 31
0.0
  0
LINE
  5
40
330
22
100
AcDbEntity
  8
0
100
AcDbLine
 10
-225.250198
 20
-102.53743
 30
0.0
 11
-225.250198
 21
-140.53743
 31
0.0
  0
LINE
  5
41
330
22
100
AcDbEntity
  8
0
100
AcDbLine
 10
204.739792
 20
-102.53743
 30
0.0
 11
204.739792
 21
-140.53743
 31
0.0
  0
LINE
  5
42
330
22
100
AcDbEntity
  8
0
100
AcDbLine
 10
190.739792
 20
-102.53743
 30
0.0
 11
190.739792
 21
-140.53743
 31
0.0
  0
LINE
  5
43
330
22
100
AcDbEntity
  8
0
  6
CENTER
 62
     2
100
AcDbLine
 10
-110.260208
 20
-99.10743700000001
 30
0.0
 11
-110.260208
 21
-145.207428
 31
0.0
  0
LINE
  5
44
330
22
100
AcDbEntity
  8
0
100
AcDbLine
 10
-180.260208
 20
-100.53743
 30
0.0
 11
-40.260208
 21
-100.53743
 31
0.0
  0
LINE
  5
45
330
22
100
AcDbEntity
  8
0
100
AcDbLine
 10
-180.260208
 20
-100.53743
 30
0.0
 11
-180.260208
 21
-110.03743
 31
0.0
  0
LINE
  5
46
330
22
100
AcDbEntity
  8
0
100
AcDbLine
 10
-40.260208
 20
-100.53743
 30
0.0
 11
-40.260208
 21
-110.03743
 31
0.0
  0
LINE
  5
47
330
22
100
AcDbEntity
  8
0
100
AcDbLine
 10
-180.260208
 20
-110.03743
 30
0.0
 11
-40.260208
 21
-110.03743
 31
0.0
  0
LINE
  5
48
330
22
100
AcDbEntity
  8
0
100
AcDbLine
 10
-211.260193
 20
-104.03743
 30
0.0
 11
-209.260193
 21
-104.03743
 31
0.0
  0
LINE
  5
49
330
22
100
AcDbEntity
  8
0
100
AcDbLine
 10
-40.260208
 20
-104.03743
 30
0.0
 11
166.739792
 21
-104.03743
 31
0.0
  0
LINE
  5
4A
330
22
100
AcDbEntity
  8
0
100
AcDbLine
 10
-211.260193
 20
-111.03743
 30
0.0
 11
190.739792
 21
-111.03743
 31
0.0
  0
LINE
  5
4B
330
22
100
AcDbEntity
  8
0
100
AcDbLine
 10
-174.260208
 20
-111.03743
 30
0.0
 11
-174.260208
 21
-110.03743
 31
0.0
  0
LINE
  5
4C
330
22
100
AcDbEntity
  8
0
100
AcDbLine
 10
-124.260208
 20
-111.03743
 30
0.0
 11
-124.260208
 21
-110.03743
 31
0.0
  0
LINE
  5
4D
330
22
100
AcDbEntity
  8
0
100
AcDbLine
 10
-96.26020799999999
 20
-111.03743
 30
0.0
 11
-96.26020799999999
 21
-110.03743
 31
0.0
  0
LINE
  5
4E
330
22
100
AcDbEntity
  8
0
100
AcDbLine
 10
-46.260208
 20
-111.03743
 30
0.0
 11
-46.260208
 21
-110.03743
 31
0.0
  0
LINE
  5
4F
330
22
100
AcDbEntity
  8
0
100
AcDbLine
 10
-185.260208
 20
-105.03743
 30
0.0
 11
-185.260208
 21
-111.03743
 31
0.0
  0
LINE
  5
50
330
22
100
AcDbEntity
  8
0
100
AcDbLine
 10
164.739792
 20
-105.03743
 30
0.0
 11
164.739792
 21
-111.03743
 31
0.0
  0
LINE
  5
51
330
22
100
AcDbEntity
  8
0
100
AcDbLine
 10
-225.250198
 20
-113.03743
 30
0.0
 11
-211.260193
 21
-113.03743
 31
0.0
  0
LINE
  5
52
330
22
100
AcDbEntity
  8
0
100
AcDbLine
 10
-225.250198
 20
-127.03743
 30
0.0
 11
-211.260193
 21
-127.03743
 31
0.0
  0
LINE
  5
53
330
22
100
AcDbEntity
  8
0
100
AcDbLine
 10
-211.260193
 20
-119.937439
 30
0.0
 11
190.739792
 21
-119.937439
 31
0.0
  0
LINE
  5
54
330
22
100
AcDbEntity
  8
0
100
AcDbLine
 10
-211.260193
 20
-123.137436
 30
0.0
 11
190.739792
 21
-123.137436
 31
0.0
  0
LINE
  5
55
330
22
100
AcDbEntity
  8
0
100
AcDbLine
 10
190.739792
 20
-113.03743
 30
0.0
 11
204.739792
 21
-113.03743
 31
0.0
  0
LINE
  5
56
330
22
100
AcDbEntity
  8
0
100
AcDbLine
 10
190.739792
 20
-127.03743
 30
0.0
 11
204.739792
 21
-127.03743
 31
0.0
  0
LINE
  5
57
330
22
100
AcDbEntity
  8
0
100
AcDbLine
 10
164.739792
 20
-105.03743
 30
0.0
 11
190.739792
 21
-105.03743
 31
0.0
  0
LINE
  5
58
330
22
100
AcDbEntity
  8
0
100
AcDbLine
 10
-211.260193
 20
-105.03743
 30
0.0
 11
-185.260208
 21
-105.03743
 31
0.0
  0
LINE
  5
59
330
22
100
AcDbEntity
  8
0
100
AcDbLine
 10
-199.260208
 20
-105.03743
 30
0.0
 11
-199.260208
 21
-104.03743
 31
0.0
  0
LINE
  5
5A
330
22
100
AcDbEntity
  8
0
100
AcDbLine
 10
-209.260193
 20
-105.03743
 30
0.0
 11
-209.260193
 21
-104.03743
 31
0.0
  0
LINE
  5
5B
330
22
100
AcDbEntity
  8
0
100
AcDbLine
 10
-197.260208
 20
-105.03743
 30
0.0
 11
-197.260208
 21
-104.03743
 31
0.0
  0
LINE
  5
5C
330
22
100
AcDbEntity
  8
0
100
AcDbLine
 10
-187.260208
 20
-105.03743
 30
0.0
 11
-187.260208
 21
-104.03743
 31
0.0
  0
LINE
  5
5D
330
22
100
AcDbEntity
  8
0
100
AcDbLine
 10
-193.260208
 20
-102.387436
 30
0.0
 11
-193.260208
 21
-104.03743
 31
0.0
  0
LINE
  5
5E
330
22
100
AcDbEntity
  8
0
100
AcDbLine
 10
-203.260193
 20
-102.387436
 30
0.0
 11
-203.260193
 21
-104.03743
 31
0.0
  0
LINE
  5
5F
330
22
100
AcDbEntity
  8
0
100
AcDbLine
 10
-197.260208
 20
-104.03743
 30
0.0
 11
-187.260208
 21
-104.03743
 31
0.0
  0
LINE
  5
60
330
22
100
AcDbEntity
  8
0
100
AcDbLine
 10
178.739792
 20
-104.03743
 30
0.0
 11
188.739792
 21
-104.03743
 31
0.0
  0
LINE
  5
61
330
22
100
AcDbEntity
  8
0
100
AcDbLine
 10
176.739792
 20
-104.03743
 30
0.0
 11
176.739792
 21
-105.03743
 31
0.0
  0
LINE
  5
62
330
22
100
AcDbEntity
  8
0
100
AcDbLine
 10
166.739792
 20
-104.03743
 30
0.0
 11
166.739792
 21
-105.03743
 31
0.0
  0
LINE
  5
63
330
22
100
AcDbEntity
  8
0
100
AcDbLine
 10
178.739792
 20
-104.03743
 30
0.0
 11
178.739792
 21
-105.03743
 31
0.0
  0
LINE
  5
64
330
22
100
AcDbEntity
  8
0
100
AcDbLine
 10
188.739792
 20
-104.03743
 30
0.0
 11
188.739792
 21
-105.03743
 31
0.0
  0
LINE
  5
65
330
22
100
AcDbEntity
  8
0
100
AcDbLine
 10
182.739792
 20
-102.387436
 30
0.0
 11
182.739792
 21
-104.03743
 31
0.0
  0
LINE
  5
66
330
22
100
AcDbEntity
  8
0
100
AcDbLine
 10
172.739792
 20
-102.387436
 30
0.0
 11
172.739792
 21
-104.03743
 31
0.0
  0
LINE
  5
67
330
22
100
AcDbEntity
  8
0
100
AcDbLine
 10
166.739792
 20
-104.03743
 30
0.0
 11
176.739792
 21
-104.03743
 31
0.0
  0
LINE
  5
68
330
22
100
AcDbEntity
  8
0
100
AcDbLine
 10
188.739792
 20
-104.03743
 30
0.0
 11
190.739792
 21
-104.03743
 31
0.0
  0
LINE
  5
69
330
22
100
AcDbEntity
  8
0
100
AcDbLine
 10
-187.260208
 20
-104.03743
 30
0.0
 11
-180.260208
 21
-104.03743
 31
0.0
  0
LINE
  5
6A
330
22
100
AcDbEntity
  8
0
100
AcDbLine
 10
-209.260193
 20
-104.03743
 30
0.0
 11
-199.260208
 21
-104.03743
 31
0.0
  0
LINE
  5
6B
330
22
100
AcDbEntity
  8
0
100
AcDbLine
 10
-193.260208
 20
-102.387436
 30
0.0
 11
-203.260193
 21
-102.387436
 31
0.0
  0
LINE
  5
6C
330
22
100
AcDbEntity
  8
0
100
AcDbLine
 10
172.739792
 20
-102.387436
 30
0.0
 11
182.739792
 21
-102.387436
 31
0.0
  0
LINE
  5
6D
330
22
100
AcDbEntity
  8
0
100
AcDbLine
 10
-180.260208
 20
-109.53743
 30
0.0
 11
-185.260208
 21
-109.53743
 31
0.0
  0
LINE
  5
6E
330
22
100
AcDbEntity
  8
0
 62
     2
100
AcDbLine
 10
-174.260208
 20
-110.28743
 30
0.0
 11
-185.260208
 21
-110.28743
 31
0.0
  0
LINE
  5
6F
330
22
100
AcDbEntity
  8
0
100
AcDbLine
 10
190.739792
 20
-109.53743
 30
0.0
 11
204.739792
 21
-109.53743
 31
0.0
  0
LINE
  5
70
330
22
100
AcDbEntity
  8
0
100
AcDbLine
 10
164.739792
 20
-109.53743
 30
0.0
 11
135.989792
 21
-109.53743
 31
0.0
  0
LINE
  5
71
330
22
100
AcDbEntity
  8
0
 62
     2
100
AcDbLine
 10
164.739792
 20
-110.28743
 30
0.0
 11
135.239792
 21
-110.28743
 31
0.0
  0
LINE
  5
72
330
22
100
AcDbEntity
  8
0
100
AcDbLine
 10
135.23967
 20
-110.287552
 30
0.0
 11
135.989761
 21
-109.53746
 31
0.0
  0
LINE
  5
73
330
22
100
AcDbEntity
  8
0
100
AcDbLine
 10
135.989792
 20
-109.53743
 30
0.0
 11
135.989792
 21
-111.03743
 31
0.0
  0
LINE
  5
74
330
22
100
AcDbEntity
  8
0
100
AcDbLine
 10
-225.250198
 20
-102.53743
 30
0.0
 11
-211.260193
 21
-102.53743
 31
0.0
  0
LINE
  5
75
330
22
100
AcDbEntity
  8
0
100
AcDbLine
 10
190.739792
 20
-102.53743
 30
0.0
 11
204.739792
 21
-102.53743
 31
0.0
  0
LINE
  5
76
330
22
100
AcDbEntity
  8
0
100
AcDbLine
 10
-211.260193
 20
-117.137436
 30
0.0
 11
190.739792
 21
-117.137436
 31
0.0
  0
LINE
  5
77
330
22
100
AcDbEntity
  8
0
100
AcDbLine
 10
-211.260193
 20
-113.937439
 30
0.0
 11
190.739792
 21
-113.937439
 31
0.0
  0
LINE
  5
78
330
22
100
AcDbEntity
  8
0
100
AcDbLine
 10
-211.260193
 20
-102.53743
 30
0.0
 11
-211.260193
 21
-140.53743
 31
0.0
  0
LINE
  5
79
330
22
100
AcDbEntity
  8
0
100
AcDbLine
 10
135.239792
 20
-110.28743
 30
0.0
 11
135.239792
 21
-111.03743
 31
0.0
  0
LINE
  5
7A
330
22
100
AcDbEntity
  8
0
100
AcDbLine
 10
130.739792
 20
-110.28743
 30
0.0
 11
130.739792
 21
-111.03743
 31
0.0
  0
LINE
  5
7B
330
22
100
AcDbEntity
  8
0
100
AcDbLine
 10
135.239792
 20
-110.28743
 30
0.0
 11
130.739792
 21
-110.28743
 31
0.0
  0
LINE
  5
7C
330
22
100
AcDbEntity
  8
0
 62
     4
100
AcDbLine
 10
-110.260208
 20
-117.137436
 30
0.0
 11
-110.260208
 21
-113.937439
 31
0.0
  0
LINE
  5
7D
330
22
100
AcDbEntity
  8
0
 62
     4
100
AcDbLine
 10
-104.260208
 20
-117.137436
 30
0.0
 11
-104.260208
 21
-113.937439
 31
0.0
  0
LINE
  5
7E
330
22
100
AcDbEntity
  8
0
 62
     4
100
AcDbLine
 10
-89.26020799999999
 20
-117.137436
 30
0.0
 11
-89.26020799999999
 21
-113.937439
 31
0.0
  0
LINE
  5
7F
330
22
100
AcDbEntity
  8
0
 62
     4
100
AcDbLine
 10
-87.76020799999999
 20
-116.737442
 30
0.0
 11
-87.76020799999999
 21
-114.337433
 31
0.0
  0
LINE
  5
80
330
22
100
AcDbEntity
  8
0
 62
     4
100
AcDbLine
 10
-89.260201
 20
-117.137444
 30
0.0
 11
-87.76020799999999
 21
-116.737442
 31
0.0
  0
LINE
  5
81
330
22
100
AcDbEntity
  8
0
 62
     4
100
AcDbLine
 10
-89.260216
 20
-113.937439
 30
0.0
 11
-87.76022299999999
 21
-114.337433
 31
0.0
  0
LINE
  5
82
330
22
100
AcDbEntity
  8
0
 62
     4
100
AcDbLine
 10
-87.76020799999999
 20
-116.737442
 30
0.0
 11
-81.70030200000001
 21
-116.737442
 31
0.0
  0
LINE
  5
83
330
22
100
AcDbEntity
  8
0
 62
     4
100
AcDbLine
 10
-87.76020799999999
 20
-114.337433
 30
0.0
 11
-81.70030200000001
 21
-114.337433
 31
0.0
  0
LINE
  5
84
330
22
100
AcDbEntity
  8
0
 62
     4
100
AcDbLine
 10
-108.030205
 20
-116.317421
 30
0.0
 11
-106.480202
 21
-114.757423
 31
0.0
  0
LINE
  5
85
330
22
100
AcDbEntity
  8
0
 62
     4
100
AcDbLine
 10
-108.030205
 20
-114.757431
 30
0.0
 11
-106.480209
 21
-116.317429
 31
0.0
  0
LINE
  5
86
330
22
100
AcDbEntity
  8
0
 62
     4
100
AcDbLine
 10
89.739792
 20
-123.137436
 30
0.0
 11
89.739792
 21
-119.937439
 31
0.0
  0
LINE
  5
87
330
22
100
AcDbEntity
  8
0
 62
     4
100
AcDbLine
 10
95.73979200000001
 20
-123.137436
 30
0.0
 11
95.73979200000001
 21
-119.937439
 31
0.0
  0
LINE
  5
88
330
22
100
AcDbEntity
  8
0
 62
     4
100
AcDbLine
 10
110.739792
 20
-123.137436
 30
0.0
 11
110.739792
 21
-119.937439
 31
0.0
  0
LINE
  5
89
330
22
100
AcDbEntity
  8
0
 62
     4
100
AcDbLine
 10
112.239792
 20
-122.737442
 30
0.0
 11
112.239792
 21
-120.337433
 31
0.0
  0
LINE
  5
8A
330
22
100
AcDbEntity
  8
0
 62
     4
100
AcDbLine
 10
110.739586
 20
-123.137489
 30
0.0
 11
112.239662
 21
-122.737473
 31
0.0
  0
LINE
  5
8B
330
22
100
AcDbEntity
  8
0
 62
     4
100
AcDbLine
 10
110.739738
 20
-119.937393
 30
0.0
 11
112.239578
 21
-120.337349
 31
0.0
  0
LINE
  5
8C
330
22
100
AcDbEntity
  8
0
 62
     4
100
AcDbLine
 10
112.239792
 20
-122.737442
 30
0.0
 11
118.300339
 21
-122.737442
 31
0.0
  0
LINE
  5
8D
330
22
100
AcDbEntity
  8
0
 62
     4
100
AcDbLine
 10
112.239792
 20
-120.337433
 30
0.0
 11
118.300339
 21
-120.337433
 31
0.0
  0
LINE
  5
8E
330
22
100
AcDbEntity
  8
0
 62
     4
100
AcDbLine
 10
91.96977999999999
 20
-122.317413
 30
0.0
 11
93.51978299999998
 21
-120.757416
 31
0.0
  0
LINE
  5
8F
330
22
100
AcDbEntity
  8
0
 62
     4
100
AcDbLine
 10
91.96979499999999
 20
-120.757439
 30
0.0
 11
93.51978299999998
 21
-122.317429
 31
0.0
  0
LINE
  5
90
330
22
100
AcDbEntity
  8
0
  6
PHANTOM
 62
     3
100
AcDbLine
 10
30.372803
 20
-145.207428
 30
0.0
 11
30.372803
 21
-51.829758
 31
0.0
  0
LINE
  5
91
330
22
100
AcDbEntity
  8
0
  6
CENTER
 62
     2
100
AcDbLine
 10
316.739746
 20
114.45256
 30
0.0
 11
324.739746
 21
114.45256
 31
0.0
  0
LINE
  5
92
330
22
100
AcDbEntity
  8
0
100
AcDbLine
 10
296.0897519999999
 20
57.922562
 30
0.0
 11
296.0897519999999
 21
43.982574
 31
0.0
  0
LINE
  5
93
330
22
100
AcDbEntity
  8
0
100
AcDbLine
 10
297.389771
 20
57.922562
 30
0.0
 11
297.389771
 21
43.982574
 31
0.0
  0
LINE
  5
94
330
22
100
AcDbEntity
  8
0
100
AcDbLine
 10
306.239746
 20
126.45256
 30
0.0
 11
306.239746
 21
121.45256
 31
0.0
  0
LINE
  5
95
330
22
100
AcDbEntity
  8
0
100
AcDbLine
 10
297.239746
 20
126.45256
 30
0.0
 11
297.239746
 21
121.45256
 31
0.0
  0
LINE
  5
96
330
22
100
AcDbEntity
  8
0
100
AcDbLine
 10
303.339752
 20
-10.54744
 30
0.0
 11
320.739746
 21
-10.54744
 31
0.0
  0
LINE
  5
97
330
22
100
AcDbEntity
  8
0
100
AcDbLine
 10
294.139771
 20
-10.04744
 30
0.0
 11
294.139771
 21
-10.54744
 31
0.0
  0
LINE
  5
98
330
22
100
AcDbEntity
  8
0
100
AcDbLine
 10
293.63974
 20
-9.547435
 30
0.0
 11
294.13974
 21
-10.047436
 31
0.0
  0
LINE
  5
99
330
22
100
AcDbEntity
  8
0
100
AcDbLine
 10
293.639771
 20
-9.547439999999999
 30
0.0
 11
293.639771
 21
-7.947433
 31
0.0
  0
LINE
  5
9A
330
22
100
AcDbEntity
  8
0
100
AcDbLine
 10
297.339752
 20
-10.04744
 30
0.0
 11
297.339752
 21
-10.54744
 31
0.0
  0
LINE
  5
9B
330
22
100
AcDbEntity
  8
0
100
AcDbLine
 10
297.839752
 20
-9.547432999999999
 30
0.0
 11
297.339752
 21
-10.047435
 31
0.0
  0
LINE
  5
9C
330
22
100
AcDbEntity
  8
0
100
AcDbLine
 10
297.839752
 20
-9.547439999999999
 30
0.0
 11
297.839752
 21
-7.947433
 31
0.0
  0
LINE
  5
9D
330
22
100
AcDbEntity
  8
0
  6
CENTER
 62
     1
100
AcDbLine
 10
295.739746
 20
-1.687438999999999
 30
0.0
 11
295.739746
 21
-11.757431
 31
0.0
  0
LINE
  5
9E
330
22
100
AcDbEntity
  8
0
100
AcDbLine
 10
307.239746
 20
-5.047439999999999
 30
0.0
 11
307.239746
 21
-10.54744
 31
0.0
  0
LINE
  5
9F
330
22
100
AcDbEntity
  8
0
100
AcDbLine
 10
303.339752
 20
-10.04744
 30
0.0
 11
303.339752
 21
-10.54744
 31
0.0
  0
LINE
  5
A0
330
22
100
AcDbEntity
  8
0
100
AcDbLine
 10
303.839752
 20
-9.547419999999998
 30
0.0
 11
303.339752
 21
-10.047421
 31
0.0
  0
LINE
  5
A1
330
22
100
AcDbEntity
  8
0
100
AcDbLine
 10
303.839752
 20
-9.547439999999999
 30
0.0
 11
305.339752
 21
-9.547439999999999
 31
0.0
  0
LINE
  5
A2
330
22
100
AcDbEntity
  8
0
100
AcDbLine
 10
305.339752
 20
-6.747436999999999
 30
0.0
 11
303.459747
 21
-6.747436999999999
 31
0.0
  0
LINE
  5
A3
330
22
100
AcDbEntity
  8
0
100
AcDbLine
 10
299.639771
 20
-9.547439999999999
 30
0.0
 11
299.639771
 21
-7.947433
 31
0.0
  0
LINE
  5
A4
330
22
100
AcDbEntity
  8
0
100
AcDbLine
 10
299.63974
 20
-9.547419999999998
 30
0.0
 11
300.13974
 21
-10.047421
 31
0.0
  0
LINE
  5
A5
330
22
100
AcDbEntity
  8
0
100
AcDbLine
 10
300.139771
 20
-10.04744
 30
0.0
 11
300.139771
 21
-10.54744
 31
0.0
  0
LINE
  5
A6
330
22
100
AcDbEntity
  8
0
  6
CENTER
 62
     1
100
AcDbLine
 10
301.739746
 20
-1.687438999999999
 30
0.0
 11
301.739746
 21
-11.757431
 31
0.0
  0
LINE
  5
A7
330
22
100
AcDbEntity
  8
0
100
AcDbLine
 10
282.739746
 20
126.45256
 30
0.0
 11
282.739746
 21
-10.54744
 31
0.0
  0
LINE
  5
A8
330
22
100
AcDbEntity
  8
0
100
AcDbLine
 10
299.539734
 20
126.45256
 30
0.0
 11
282.739746
 21
126.45256
 31
0.0
  0
LINE
  5
A9
330
22
100
AcDbEntity
  8
0
100
AcDbLine
 10
299.539734
 20
126.45256
 30
0.0
 11
299.539734
 21
125.45256
 31
0.0
  0
LINE
  5
AA
330
22
100
AcDbEntity
  8
0
100
AcDbLine
 10
297.989746
 20
125.45256
 30
0.0
 11
299.539734
 21
125.45256
 31
0.0
  0
LINE
  5
AB
330
22
100
AcDbEntity
  8
0
100
AcDbLine
 10
297.989746
 20
125.45256
 30
0.0
 11
297.989746
 21
123.95256
 31
0.0
  0
LINE
  5
AC
330
22
100
AcDbEntity
  8
0
100
AcDbLine
 10
299.989746
 20
121.95256
 30
0.0
 11
303.489746
 21
121.95256
 31
0.0
  0
LINE
  5
AD
330
22
100
AcDbEntity
  8
0
100
AcDbLine
 10
305.489746
 20
125.45256
 30
0.0
 11
305.489746
 21
123.95256
 31
0.0
  0
LINE
  5
AE
330
22
100
AcDbEntity
  8
0
100
AcDbLine
 10
305.489746
 20
125.45256
 30
0.0
 11
303.939758
 21
125.45256
 31
0.0
  0
LINE
  5
AF
330
22
100
AcDbEntity
  8
0
100
AcDbLine
 10
303.939758
 20
126.45256
 30
0.0
 11
303.939758
 21
125.45256
 31
0.0
  0
LINE
  5
B0
330
22
100
AcDbEntity
  8
0
100
AcDbLine
 10
320.739746
 20
126.45256
 30
0.0
 11
303.939758
 21
126.45256
 31
0.0
  0
LINE
  5
B1
330
22
100
AcDbEntity
  8
0
100
AcDbLine
 10
306.239746
 20
121.45256
 30
0.0
 11
297.239746
 21
121.45256
 31
0.0
  0
LINE
  5
B2
330
22
100
AcDbEntity
  8
0
  6
CENTER
 62
     2
100
AcDbLine
 10
296.739746
 20
61.95256
 30
0.0
 11
296.739746
 21
39.95256
 31
0.0
  0
LINE
  5
B3
330
22
100
AcDbEntity
  8
0
  6
CENTER
 62
     2
100
AcDbLine
 10
308.739746
 20
50.95256
 30
0.0
 11
282.1097410000001
 21
50.95256
 31
0.0
  0
LINE
  5
B4
330
22
100
AcDbEntity
  8
0
100
AcDbLine
 10
293.239746
 20
-5.047439999999999
 30
0.0
 11
307.239746
 21
-5.047439999999999
 31
0.0
  0
LINE
  5
B5
330
22
100
AcDbEntity
  8
0
100
AcDbLine
 10
293.239746
 20
-5.047439999999999
 30
0.0
 11
293.239746
 21
-10.54744
 31
0.0
  0
LINE
  5
B6
330
22
100
AcDbEntity
  8
0
100
AcDbLine
 10
297.339752
 20
-10.54744
 30
0.0
 11
300.139771
 21
-10.54744
 31
0.0
  0
LINE
  5
B7
330
22
100
AcDbEntity
  8
0
100
AcDbLine
 10
280.739746
 20
83.45255999999999
 30
0.0
 11
282.739746
 21
83.45255999999999
 31
0.0
  0
LINE
  5
B8
330
22
100
AcDbEntity
  8
0
100
AcDbLine
 10
280.739746
 20
-10.54744
 30
0.0
 11
294.139771
 21
-10.54744
 31
0.0
  0
LINE
  5
B9
330
22
100
AcDbEntity
  8
0
100
AcDbLine
 10
280.739746
 20
83.45255999999999
 30
0.0
 11
280.739746
 21
-10.54744
 31
0.0
  0
LINE
  5
BA
330
22
100
AcDbEntity
  8
0
100
AcDbLine
 10
320.739746
 20
126.45256
 30
0.0
 11
320.739746
 21
-10.54744
 31
0.0
  0
LINE
  5
BB
330
22
100
AcDbEntity
  8
0
  6
DASHED
 62
     2
100
AcDbLine
 10
312.88974
 20
52.20256
 30
0.0
 11
312.88974
 21
62.70255999999999
 31
0.0
  0
LINE
  5
BC
330
22
100
AcDbEntity
  8
0
  6
DASHED
 62
     2
100
AcDbLine
 10
312.88974
 20
0.20256
 30
0.0
 11
312.88974
 21
10.70256
 31
0.0
  0
LINE
  5
BD
330
22
100
AcDbEntity
  8
0
  6
DASHED
 62
     2
100
AcDbLine
 10
320.739746
 20
15.452556
 30
0.0
 11
320.239746
 21
15.952557
 31
0.0
  0
LINE
  5
BE
330
22
100
AcDbEntity
  8
0
  6
DASHED
 62
     2
100
AcDbLine
 10
320.739746
 20
47.452576
 30
0.0
 11
320.239746
 21
46.952587
 31
0.0
  0
LINE
  5
BF
330
22
100
AcDbEntity
  8
0
  6
DASHED
 62
     2
100
AcDbLine
 10
320.239746
 20
46.95255999999999
 30
0.0
 11
320.239746
 21
15.95256
 31
0.0
  0
LINE
  5
C0
330
22
100
AcDbEntity
  8
0
  6
CENTER
 62
     2
100
AcDbLine
 10
309.249756
 20
5.45256
 30
0.0
 11
324.14975
 21
5.45256
 31
0.0
  0
LINE
  5
C1
330
22
100
AcDbEntity
  8
0
  6
DASHED
 62
     2
100
AcDbLine
 10
312.239746
 20
10.70256
 30
0.0
 11
317.739746
 21
10.70256
 31
0.0
  0
LINE
  5
C2
330
22
100
AcDbEntity
  8
0
  6
DASHED
 62
     2
100
AcDbLine
 10
312.239746
 20
8.70256
 30
0.0
 11
312.239746
 21
10.70256
 31
0.0
  0
LINE
  5
C3
330
22
100
AcDbEntity
  8
0
  6
DASHED
 62
     2
100
AcDbLine
 10
311.239746
 20
8.70256
 30
0.0
 11
312.239746
 21
8.70256
 31
0.0
  0
LINE
  5
C4
330
22
100
AcDbEntity
  8
0
  6
DASHED
 62
     2
100
AcDbLine
 10
311.239746
 20
2.20256
 30
0.0
 11
311.239746
 21
8.70256
 31
0.0
  0
LINE
  5
C5
330
22
100
AcDbEntity
  8
0
  6
DASHED
 62
     2
100
AcDbLine
 10
311.239746
 20
2.20256
 30
0.0
 11
312.239746
 21
2.20256
 31
0.0
  0
LINE
  5
C6
330
22
100
AcDbEntity
  8
0
  6
DASHED
 62
     2
100
AcDbLine
 10
312.239746
 20
0.20256
 30
0.0
 11
312.239746
 21
2.20256
 31
0.0
  0
LINE
  5
C7
330
22
100
AcDbEntity
  8
0
  6
DASHED
 62
     2
100
AcDbLine
 10
312.239746
 20
0.20256
 30
0.0
 11
317.739746
 21
0.20256
 31
0.0
  0
LINE
  5
C8
330
22
100
AcDbEntity
  8
0
  6
DASHED
 62
     2
100
AcDbLine
 10
317.739746
 20
10.70256
 30
0.0
 11
317.739746
 21
0.20256
 31
0.0
  0
LINE
  5
C9
330
22
100
AcDbEntity
  8
0
  6
DASHED
 62
     2
100
AcDbLine
 10
317.739746
 20
2.20256
 30
0.0
 11
320.739746
 21
2.20256
 31
0.0
  0
LINE
  5
CA
330
22
100
AcDbEntity
  8
0
  6
DASHED
 62
     2
100
AcDbLine
 10
317.739746
 20
8.70256
 30
0.0
 11
320.739746
 21
8.70256
 31
0.0
  0
LINE
  5
CB
330
22
100
AcDbEntity
  8
0
  6
DASHED
 62
     2
100
AcDbLine
 10
312.239746
 20
60.70256
 30
0.0
 11
312.239746
 21
62.70255999999999
 31
0.0
  0
LINE
  5
CC
330
22
100
AcDbEntity
  8
0
  6
DASHED
 62
     2
100
AcDbLine
 10
311.239746
 20
60.70256
 30
0.0
 11
312.239746
 21
60.70256
 31
0.0
  0
LINE
  5
CD
330
22
100
AcDbEntity
  8
0
  6
DASHED
 62
     2
100
AcDbLine
 10
311.239746
 20
54.20256
 30
0.0
 11
311.239746
 21
60.70256
 31
0.0
  0
LINE
  5
CE
330
22
100
AcDbEntity
  8
0
  6
DASHED
 62
     2
100
AcDbLine
 10
311.239746
 20
54.20256
 30
0.0
 11
312.239746
 21
54.20256
 31
0.0
  0
LINE
  5
CF
330
22
100
AcDbEntity
  8
0
  6
DASHED
 62
     2
100
AcDbLine
 10
312.239746
 20
52.20256
 30
0.0
 11
312.239746
 21
54.20256
 31
0.0
  0
LINE
  5
D0
330
22
100
AcDbEntity
  8
0
  6
DASHED
 62
     2
100
AcDbLine
 10
312.239746
 20
62.70255999999999
 30
0.0
 11
317.739746
 21
62.70255999999999
 31
0.0
  0
LINE
  5
D1
330
22
100
AcDbEntity
  8
0
  6
DASHED
 62
     2
100
AcDbLine
 10
312.239746
 20
52.20256
 30
0.0
 11
317.739746
 21
52.20256
 31
0.0
  0
LINE
  5
D2
330
22
100
AcDbEntity
  8
0
  6
DASHED
 62
     2
100
AcDbLine
 10
317.739746
 20
62.70255999999999
 30
0.0
 11
317.739746
 21
52.20256
 31
0.0
  0
LINE
  5
D3
330
22
100
AcDbEntity
  8
0
  6
DASHED
 62
     2
100
AcDbLine
 10
317.739746
 20
60.70256
 30
0.0
 11
320.739746
 21
60.70256
 31
0.0
  0
LINE
  5
D4
330
22
100
AcDbEntity
  8
0
  6
CENTER
 62
     2
100
AcDbLine
 10
308.90976
 20
57.45256
 30
0.0
 11
323.64975
 21
57.45256
 31
0.0
  0
LINE
  5
D5
330
22
100
AcDbEntity
  8
0
  6
DASHED
 62
     2
100
AcDbLine
 10
317.739746
 20
54.20256
 30
0.0
 11
320.739746
 21
54.20256
 31
0.0
  0
LINE
  5
D6
330
22
100
AcDbEntity
  8
0
 62
     4
100
AcDbLine
 10
301.98999
 20
-6.117431999999999
 30
0.0
 11
302.7397459999999
 21
-6.117431999999999
 31
0.0
  0
LINE
  5
D7
330
22
100
AcDbEntity
  8
0
 62
     4
100
AcDbLine
 10
303.789734
 20
-9.597426999999999
 30
0.0
 11
303.789734
 21
-8.147429999999999
 31
0.0
  0
LINE
  5
D8
330
22
100
AcDbEntity
  8
0
 62
     4
100
AcDbLine
 10
302.989746
 20
-6.527892999999999
 30
0.0
 11
302.989746
 21
-6.367431999999999
 31
0.0
  0
LINE
  5
D9
330
22
100
AcDbEntity
  8
0
 62
     1
100
AcDbLine
 10
302.7397459999999
 20
-6.363051999999999
 30
0.0
 11
302.7397459999999
 21
-6.117431999999999
 31
0.0
  0
LINE
  5
DA
330
22
100
AcDbEntity
  8
0
 62
     1
100
AcDbLine
 10
300.739746
 20
-6.362716999999999
 30
0.0
 11
300.739746
 21
-6.117431999999999
 31
0.0
  0
LINE
  5
DB
330
22
100
AcDbEntity
  8
0
 62
     4
100
AcDbLine
 10
300.489746
 20
-6.527434999999999
 30
0.0
 11
300.489746
 21
-6.367431999999999
 31
0.0
  0
LINE
  5
DC
330
22
100
AcDbEntity
  8
0
 62
     4
100
AcDbLine
 10
300.739746
 20
-6.117434999999999
 30
0.0
 11
300.489746
 21
-6.367428
 31
0.0
  0
LINE
  5
DD
330
22
100
AcDbEntity
  8
0
 62
     4
100
AcDbLine
 10
302.7397459999999
 20
-6.117424999999999
 30
0.0
 11
302.989746
 21
-6.367416999999999
 31
0.0
  0
LINE
  5
DE
330
22
100
AcDbEntity
  8
0
 62
     4
100
AcDbLine
 10
300.739746
 20
-6.117431999999999
 30
0.0
 11
301.489502
 21
-6.117431999999999
 31
0.0
  0
LINE
  5
DF
330
22
100
AcDbEntity
  8
0
 62
     1
100
AcDbLine
 10
300.739746
 20
-11.117432
 30
0.0
 11
300.739746
 21
-10.697433
 31
0.0
  0
LINE
  5
E0
330
22
100
AcDbEntity
  8
0
 62
     1
100
AcDbLine
 10
302.7397459999999
 20
-11.117432
 30
0.0
 11
302.7397459999999
 21
-10.697433
 31
0.0
  0
LINE
  5
E1
330
22
100
AcDbEntity
  8
0
 62
     4
100
AcDbLine
 10
300.489746
 20
-10.867432
 30
0.0
 11
300.489746
 21
-10.697433
 31
0.0
  0
LINE
  5
E2
330
22
100
AcDbEntity
  8
0
 62
     4
100
AcDbLine
 10
300.489746
 20
-10.867443
 30
0.0
 11
300.739746
 21
-11.117452
 31
0.0
  0
LINE
  5
E3
330
22
100
AcDbEntity
  8
0
 62
     4
100
AcDbLine
 10
302.989746
 20
-10.867432
 30
0.0
 11
302.989746
 21
-10.697433
 31
0.0
  0
LINE
  5
E4
330
22
100
AcDbEntity
  8
0
 62
     4
100
AcDbLine
 10
302.989746
 20
-10.867409
 30
0.0
 11
302.7397459999999
 21
-11.117417
 31
0.0
  0
LINE
  5
E5
330
22
100
AcDbEntity
  8
0
 62
     4
100
AcDbLine
 10
300.739746
 20
-11.117432
 30
0.0
 11
302.7397459999999
 21
-11.117432
 31
0.0
  0
LINE
  5
E6
330
22
100
AcDbEntity
  8
0
 62
     4
100
AcDbLine
 10
303.789734
 20
-9.597417999999999
 30
0.0
 11
303.239746
 21
-10.147412
 31
0.0
  0
LINE
  5
E7
330
22
100
AcDbEntity
  8
0
 62
     4
100
AcDbLine
 10
303.239746
 20
-10.697433
 30
0.0
 11
303.239746
 21
-10.14743
 31
0.0
  0
LINE
  5
E8
330
22
100
AcDbEntity
  8
0
 62
     4
100
AcDbLine
 10
300.239746
 20
-10.697433
 30
0.0
 11
303.239746
 21
-10.697433
 31
0.0
  0
LINE
  5
E9
330
22
100
AcDbEntity
  8
0
 62
     4
100
AcDbLine
 10
300.239746
 20
-10.697433
 30
0.0
 11
300.239746
 21
-10.14743
 31
0.0
  0
LINE
  5
EA
330
22
100
AcDbEntity
  8
0
 62
     4
100
AcDbLine
 10
299.689758
 20
-9.597421
 30
0.0
 11
300.239746
 21
-10.147415
 31
0.0
  0
LINE
  5
EB
330
22
100
AcDbEntity
  8
0
 62
     4
100
AcDbLine
 10
299.689758
 20
-9.597426999999999
 30
0.0
 11
299.689758
 21
-8.147429999999999
 31
0.0
  0
LINE
  5
EC
330
22
100
AcDbEntity
  8
0
  6
CENTER
 62
     1
100
AcDbLine
 10
303.3862
 20
-8.347426999999999
 30
0.0
 11
300.096741
 21
-8.347426999999999
 31
0.0
  0
LINE
  5
ED
330
22
100
AcDbEntity
  8
0
  6
CENTER
 62
     1
100
AcDbLine
 10
302.475037
 20
-7.897429999999999
 30
0.0
 11
300.987335
 21
-7.897429999999999
 31
0.0
  0
LINE
  5
EE
330
22
100
AcDbEntity
  8
0
  6
CENTER
 62
     1
100
AcDbLine
 10
302.475037
 20
-8.797424000000001
 30
0.0
 11
300.987335
 21
-8.797424000000001
 31
0.0
  0
LINE
  5
EF
330
22
100
AcDbEntity
  8
0
 62
     4
100
AcDbLine
 10
303.239746
 20
-10.64743
 30
0.0
 11
303.239746
 21
-10.197433
 31
0.0
  0
LINE
  5
F0
330
22
100
AcDbEntity
  8
0
 62
     4
100
AcDbLine
 10
300.239746
 20
-10.64743
 30
0.0
 11
300.239746
 21
-10.197433
 31
0.0
  0
LINE
  5
F1
330
22
100
AcDbEntity
  8
0
 62
     4
100
AcDbLine
 10
294.739746
 20
-6.117431999999999
 30
0.0
 11
295.489502
 21
-6.117431999999999
 31
0.0
  0
LINE
  5
F2
330
22
100
AcDbEntity
  8
0
 62
     4
100
AcDbLine
 10
294.739746
 20
-11.117432
 30
0.0
 11
296.739746
 21
-11.117432
 31
0.0
  0
LINE
  5
F3
330
22
100
AcDbEntity
  8
0
 62
     4
100
AcDbLine
 10
294.239746
 20
-10.697433
 30
0.0
 11
297.239746
 21
-10.697433
 31
0.0
  0
LINE
  5
F4
330
22
100
AcDbEntity
  8
0
  6
CENTER
 62
     1
100
AcDbLine
 10
297.3862
 20
-8.347426999999999
 30
0.0
 11
294.096741
 21
-8.347426999999999
 31
0.0
  0
LINE
  5
F5
330
22
100
AcDbEntity
  8
0
  6
CENTER
 62
     1
100
AcDbLine
 10
296.475037
 20
-7.897429999999999
 30
0.0
 11
294.987335
 21
-7.897429999999999
 31
0.0
  0
LINE
  5
F6
330
22
100
AcDbEntity
  8
0
  6
CENTER
 62
     1
100
AcDbLine
 10
296.475037
 20
-8.797424000000001
 30
0.0
 11
294.987335
 21
-8.797424000000001
 31
0.0
  0
LINE
  5
F7
330
22
100
AcDbEntity
  8
0
 62
     4
100
AcDbLine
 10
295.98999
 20
-6.117431999999999
 30
0.0
 11
296.739746
 21
-6.117431999999999
 31
0.0
  0
LINE
  5
F8
330
22
100
AcDbEntity
  8
0
 62
     1
100
AcDbLine
 10
296.739746
 20
-6.363051999999999
 30
0.0
 11
296.739746
 21
-6.117431999999999
 31
0.0
  0
LINE
  5
F9
330
22
100
AcDbEntity
  8
0
 62
     4
100
AcDbLine
 10
296.739746
 20
-6.117433
 30
0.0
 11
296.989746
 21
-6.367441
 31
0.0
  0
LINE
  5
FA
330
22
100
AcDbEntity
  8
0
 62
     4
100
AcDbLine
 10
296.989746
 20
-6.527892999999999
 30
0.0
 11
296.989746
 21
-6.367431999999999
 31
0.0
  0
LINE
  5
FB
330
22
100
AcDbEntity
  8
0
 62
     4
100
AcDbLine
 10
294.739746
 20
-6.117437
 30
0.0
 11
294.4897459999999
 21
-6.367429
 31
0.0
  0
LINE
  5
FC
330
22
100
AcDbEntity
  8
0
 62
     4
100
AcDbLine
 10
294.4897459999999
 20
-6.527434999999999
 30
0.0
 11
294.4897459999999
 21
-6.367431999999999
 31
0.0
  0
LINE
  5
FD
330
22
100
AcDbEntity
  8
0
 62
     1
100
AcDbLine
 10
294.739746
 20
-6.362716999999999
 30
0.0
 11
294.739746
 21
-6.117431999999999
 31
0.0
  0
LINE
  5
FE
330
22
100
AcDbEntity
  8
0
 62
     4
100
AcDbLine
 10
293.689758
 20
-9.597426999999999
 30
0.0
 11
293.689758
 21
-8.147429999999999
 31
0.0
  0
LINE
  5
FF
330
22
100
AcDbEntity
  8
0
 62
     4
100
AcDbLine
 10
293.689789
 20
-9.597433999999999
 30
0.0
 11
294.239746
 21
-10.147429
 31
0.0
  0
LINE
  5
100
330
22
100
AcDbEntity
  8
0
 62
     4
100
AcDbLine
 10
294.239746
 20
-10.64743
 30
0.0
 11
294.239746
 21
-10.197433
 31
0.0
  0
LINE
  5
101
330
22
100
AcDbEntity
  8
0
 62
     4
100
AcDbLine
 10
294.239746
 20
-10.697433
 30
0.0
 11
294.239746
 21
-10.14743
 31
0.0
  0
LINE
  5
102
330
22
100
AcDbEntity
  8
0
 62
     4
100
AcDbLine
 10
294.4897459999999
 20
-10.867428
 30
0.0
 11
294.739746
 21
-11.117436
 31
0.0
  0
LINE
  5
103
330
22
100
AcDbEntity
  8
0
 62
     4
100
AcDbLine
 10
294.4897459999999
 20
-10.867432
 30
0.0
 11
294.4897459999999
 21
-10.697433
 31
0.0
  0
LINE
  5
104
330
22
100
AcDbEntity
  8
0
 62
     1
100
AcDbLine
 10
294.739746
 20
-11.117432
 30
0.0
 11
294.739746
 21
-10.697433
 31
0.0
  0
LINE
  5
105
330
22
100
AcDbEntity
  8
0
 62
     4
100
AcDbLine
 10
297.789764
 20
-9.597431
 30
0.0
 11
297.239746
 21
-10.147421
 31
0.0
  0
LINE
  5
106
330
22
100
AcDbEntity
  8
0
 62
     4
100
AcDbLine
 10
297.239746
 20
-10.64743
 30
0.0
 11
297.239746
 21
-10.197433
 31
0.0
  0
LINE
  5
107
330
22
100
AcDbEntity
  8
0
 62
     4
100
AcDbLine
 10
297.239746
 20
-10.697433
 30
0.0
 11
297.239746
 21
-10.14743
 31
0.0
  0
LINE
  5
108
330
22
100
AcDbEntity
  8
0
 62
     4
100
AcDbLine
 10
296.989746
 20
-10.867432
 30
0.0
 11
296.739746
 21
-11.117424
 31
0.0
  0
LINE
  5
109
330
22
100
AcDbEntity
  8
0
 62
     4
100
AcDbLine
 10
296.989746
 20
-10.867432
 30
0.0
 11
296.989746
 21
-10.697433
 31
0.0
  0
LINE
  5
10A
330
22
100
AcDbEntity
  8
0
 62
     1
100
AcDbLine
 10
296.739746
 20
-11.117432
 30
0.0
 11
296.739746
 21
-10.697433
 31
0.0
  0
LINE
  5
10B
330
22
100
AcDbEntity
  8
0
 62
     4
100
AcDbLine
 10
297.789734
 20
-9.597426999999999
 30
0.0
 11
297.789734
 21
-8.147429999999999
 31
0.0
  0
LINE
  5
10C
330
22
100
AcDbEntity
  8
0
  6
CENTER
 62
     2
100
AcDbLine
 10
-339.25
 20
114.45256
 30
0.0
 11
-331.25
 21
114.45256
 31
0.0
  0
LINE
  5
10D
330
22
100
AcDbEntity
  8
0
  6
DASHED
 62
     2
100
AcDbLine
 10
-332.25
 20
54.20256
 30
0.0
 11
-335.25
 21
54.20256
 31
0.0
  0
LINE
  5
10E
330
22
100
AcDbEntity
  8
0
  6
CENTER
 62
     2
100
AcDbLine
 10
-323.420013
 20
57.45256
 30
0.0
 11
-338.160004
 21
57.45256
 31
0.0
  0
LINE
  5
10F
330
22
100
AcDbEntity
  8
0
  6
DASHED
 62
     2
100
AcDbLine
 10
-332.25
 20
60.70256
 30
0.0
 11
-335.25
 21
60.70256
 31
0.0
  0
LINE
  5
110
330
22
100
AcDbEntity
  8
0
  6
DASHED
 62
     2
100
AcDbLine
 10
-332.25
 20
62.70255999999999
 30
0.0
 11
-332.25
 21
52.20256
 31
0.0
  0
LINE
  5
111
330
22
100
AcDbEntity
  8
0
  6
DASHED
 62
     2
100
AcDbLine
 10
-326.75
 20
52.20256
 30
0.0
 11
-332.25
 21
52.20256
 31
0.0
  0
LINE
  5
112
330
22
100
AcDbEntity
  8
0
  6
DASHED
 62
     2
100
AcDbLine
 10
-326.75
 20
62.70255999999999
 30
0.0
 11
-332.25
 21
62.70255999999999
 31
0.0
  0
LINE
  5
113
330
22
100
AcDbEntity
  8
0
  6
DASHED
 62
     2
100
AcDbLine
 10
-326.75
 20
52.20256
 30
0.0
 11
-326.75
 21
54.20256
 31
0.0
  0
LINE
  5
114
330
22
100
AcDbEntity
  8
0
  6
DASHED
 62
     2
100
AcDbLine
 10
-325.75
 20
54.20256
 30
0.0
 11
-326.75
 21
54.20256
 31
0.0
  0
LINE
  5
115
330
22
100
AcDbEntity
  8
0
  6
DASHED
 62
     2
100
AcDbLine
 10
-325.75
 20
54.20256
 30
0.0
 11
-325.75
 21
60.70256
 31
0.0
  0
LINE
  5
116
330
22
100
AcDbEntity
  8
0
  6
DASHED
 62
     2
100
AcDbLine
 10
-325.75
 20
60.70256
 30
0.0
 11
-326.75
 21
60.70256
 31
0.0
  0
LINE
  5
117
330
22
100
AcDbEntity
  8
0
  6
DASHED
 62
     2
100
AcDbLine
 10
-326.75
 20
60.70256
 30
0.0
 11
-326.75
 21
62.70255999999999
 31
0.0
  0
LINE
  5
118
330
22
100
AcDbEntity
  8
0
  6
DASHED
 62
     2
100
AcDbLine
 10
-332.25
 20
8.70256
 30
0.0
 11
-335.25
 21
8.70256
 31
0.0
  0
LINE
  5
119
330
22
100
AcDbEntity
  8
0
  6
DASHED
 62
     2
100
AcDbLine
 10
-332.25
 20
2.20256
 30
0.0
 11
-335.25
 21
2.20256
 31
0.0
  0
LINE
  5
11A
330
22
100
AcDbEntity
  8
0
  6
DASHED
 62
     2
100
AcDbLine
 10
-332.25
 20
10.70256
 30
0.0
 11
-332.25
 21
0.20256
 31
0.0
  0
LINE
  5
11B
330
22
100
AcDbEntity
  8
0
  6
DASHED
 62
     2
100
AcDbLine
 10
-326.75
 20
0.20256
 30
0.0
 11
-332.25
 21
0.20256
 31
0.0
  0
LINE
  5
11C
330
22
100
AcDbEntity
  8
0
  6
DASHED
 62
     2
100
AcDbLine
 10
-326.75
 20
0.20256
 30
0.0
 11
-326.75
 21
2.20256
 31
0.0
  0
LINE
  5
11D
330
22
100
AcDbEntity
  8
0
  6
DASHED
 62
     2
100
AcDbLine
 10
-325.75
 20
2.20256
 30
0.0
 11
-326.75
 21
2.20256
 31
0.0
  0
LINE
  5
11E
330
22
100
AcDbEntity
  8
0
  6
DASHED
 62
     2
100
AcDbLine
 10
-325.75
 20
2.20256
 30
0.0
 11
-325.75
 21
8.70256
 31
0.0
  0
LINE
  5
11F
330
22
100
AcDbEntity
  8
0
  6
DASHED
 62
     2
100
AcDbLine
 10
-325.75
 20
8.70256
 30
0.0
 11
-326.75
 21
8.70256
 31
0.0
  0
LINE
  5
120
330
22
100
AcDbEntity
  8
0
  6
DASHED
 62
     2
100
AcDbLine
 10
-326.75
 20
8.70256
 30
0.0
 11
-326.75
 21
10.70256
 31
0.0
  0
LINE
  5
121
330
22
100
AcDbEntity
  8
0
  6
DASHED
 62
     2
100
AcDbLine
 10
-326.75
 20
10.70256
 30
0.0
 11
-332.25
 21
10.70256
 31
0.0
  0
LINE
  5
122
330
22
100
AcDbEntity
  8
0
  6
CENTER
 62
     2
100
AcDbLine
 10
-323.76001
 20
5.45256
 30
0.0
 11
-338.660004
 21
5.45256
 31
0.0
  0
LINE
  5
123
330
22
100
AcDbEntity
  8
0
  6
DASHED
 62
     2
100
AcDbLine
 10
-334.75
 20
46.95255999999999
 30
0.0
 11
-334.75
 21
15.95256
 31
0.0
  0
LINE
  5
124
330
22
100
AcDbEntity
  8
0
  6
DASHED
 62
     2
100
AcDbLine
 10
-335.249969
 20
47.452564
 30
0.0
 11
-334.75
 21
46.952576
 31
0.0
  0
LINE
  5
125
330
22
100
AcDbEntity
  8
0
  6
DASHED
 62
     2
100
AcDbLine
 10
-335.25
 20
15.452553
 30
0.0
 11
-334.75
 21
15.952554
 31
0.0
  0
LINE
  5
126
330
22
100
AcDbEntity
  8
0
  6
DASHED
 62
     2
100
AcDbLine
 10
-327.399994
 20
0.20256
 30
0.0
 11
-327.399994
 21
10.70256
 31
0.0
  0
LINE
  5
127
330
22
100
AcDbEntity
  8
0
  6
DASHED
 62
     2
100
AcDbLine
 10
-327.399994
 20
52.20256
 30
0.0
 11
-327.399994
 21
62.70255999999999
 31
0.0
  0
LINE
  5
128
330
22
100
AcDbEntity
  8
0
100
AcDbLine
 10
-335.25
 20
126.45256
 30
0.0
 11
-335.25
 21
-10.54744
 31
0.0
  0
LINE
  5
129
330
22
100
AcDbEntity
  8
0
100
AcDbLine
 10
-295.25
 20
83.45255999999999
 30
0.0
 11
-295.25
 21
-10.54744
 31
0.0
  0
LINE
  5
12A
330
22
100
AcDbEntity
  8
0
100
AcDbLine
 10
-295.25
 20
-10.54744
 30
0.0
 11
-308.650024
 21
-10.54744
 31
0.0
  0
LINE
  5
12B
330
22
100
AcDbEntity
  8
0
100
AcDbLine
 10
-295.25
 20
83.45255999999999
 30
0.0
 11
-297.25
 21
83.45255999999999
 31
0.0
  0
LINE
  5
12C
330
22
100
AcDbEntity
  8
0
  6
CENTER
 62
     2
100
AcDbLine
 10
-323.929993
 20
102.45256
 30
0.0
 11
-306.77002
 21
102.45256
 31
0.0
  0
LINE
  5
12D
330
22
100
AcDbEntity
  8
0
  6
CENTER
 62
     2
100
AcDbLine
 10
-316.25
 20
112.172562
 30
0.0
 11
-316.25
 21
91.402573
 31
0.0
  0
LINE
  5
12E
330
22
100
AcDbEntity
  8
0
100
AcDbLine
 10
-311.850006
 20
-10.54744
 30
0.0
 11
-314.650024
 21
-10.54744
 31
0.0
  0
LINE
  5
12F
330
22
100
AcDbEntity
  8
0
100
AcDbLine
 10
-307.75
 20
-5.047439999999999
 30
0.0
 11
-307.75
 21
-10.54744
 31
0.0
  0
LINE
  5
130
330
22
100
AcDbEntity
  8
0
100
AcDbLine
 10
-307.75
 20
-5.047439999999999
 30
0.0
 11
-321.75
 21
-5.047439999999999
 31
0.0
  0
LINE
  5
131
330
22
100
AcDbEntity
  8
0
  6
CENTER
 62
     2
100
AcDbLine
 10
-323.25
 20
50.95256
 30
0.0
 11
-296.619995
 21
50.95256
 31
0.0
  0
LINE
  5
132
330
22
100
AcDbEntity
  8
0
  6
CENTER
 62
     2
100
AcDbLine
 10
-311.25
 20
61.95256
 30
0.0
 11
-311.25
 21
39.95256
 31
0.0
  0
LINE
  5
133
330
22
100
AcDbEntity
  8
0
  6
CENTER
 62
     2
100
AcDbLine
 10
-328.769989
 20
63.45256
 30
0.0
 11
-314.25
 21
63.45256
 31
0.0
  0
LINE
  5
134
330
22
100
AcDbEntity
  8
0
  6
CENTER
 62
     2
100
AcDbLine
 10
-321.25
 20
70.45255999999999
 30
0.0
 11
-321.25
 21
52.802567
 31
0.0
  0
LINE
  5
135
330
22
100
AcDbEntity
  8
0
100
AcDbLine
 10
-320.75
 20
121.45256
 30
0.0
 11
-311.75
 21
121.45256
 31
0.0
  0
LINE
  5
136
330
22
100
AcDbEntity
  8
0
100
AcDbLine
 10
-335.25
 20
126.45256
 30
0.0
 11
-318.450012
 21
126.45256
 31
0.0
  0
LINE
  5
137
330
22
100
AcDbEntity
  8
0
100
AcDbLine
 10
-318.450012
 20
126.45256
 30
0.0
 11
-318.450012
 21
125.45256
 31
0.0
  0
LINE
  5
138
330
22
100
AcDbEntity
  8
0
100
AcDbLine
 10
-320.0
 20
125.45256
 30
0.0
 11
-318.450012
 21
125.45256
 31
0.0
  0
LINE
  5
139
330
22
100
AcDbEntity
  8
0
100
AcDbLine
 10
-320.0
 20
125.45256
 30
0.0
 11
-320.0
 21
123.95256
 31
0.0
  0
LINE
  5
13A
330
22
100
AcDbEntity
  8
0
100
AcDbLine
 10
-314.5
 20
121.95256
 30
0.0
 11
-318.0
 21
121.95256
 31
0.0
  0
LINE
  5
13B
330
22
100
AcDbEntity
  8
0
100
AcDbLine
 10
-312.5
 20
125.45256
 30
0.0
 11
-312.5
 21
123.95256
 31
0.0
  0
LINE
  5
13C
330
22
100
AcDbEntity
  8
0
100
AcDbLine
 10
-312.5
 20
125.45256
 30
0.0
 11
-314.049988
 21
125.45256
 31
0.0
  0
LINE
  5
13D
330
22
100
AcDbEntity
  8
0
100
AcDbLine
 10
-314.049988
 20
126.45256
 30
0.0
 11
-314.049988
 21
125.45256
 31
0.0
  0
LINE
  5
13E
330
22
100
AcDbEntity
  8
0
100
AcDbLine
 10
-314.049988
 20
126.45256
 30
0.0
 11
-297.25
 21
126.45256
 31
0.0
  0
LINE
  5
13F
330
22
100
AcDbEntity
  8
0
100
AcDbLine
 10
-297.25
 20
126.45256
 30
0.0
 11
-297.25
 21
-10.54744
 31
0.0
  0
LINE
  5
140
330
22
100
AcDbEntity
  8
0
  6
CENTER
 62
     1
100
AcDbLine
 10
-316.25
 20
-1.687438999999999
 30
0.0
 11
-316.25
 21
-11.757431
 31
0.0
  0
LINE
  5
141
330
22
100
AcDbEntity
  8
0
100
AcDbLine
 10
-314.650024
 20
-10.04744
 30
0.0
 11
-314.650024
 21
-10.54744
 31
0.0
  0
LINE
  5
142
330
22
100
AcDbEntity
  8
0
100
AcDbLine
 10
-314.149994
 20
-9.547419999999998
 30
0.0
 11
-314.649994
 21
-10.047421
 31
0.0
  0
LINE
  5
143
330
22
100
AcDbEntity
  8
0
100
AcDbLine
 10
-314.150024
 20
-9.547439999999999
 30
0.0
 11
-314.150024
 21
-7.947433
 31
0.0
  0
LINE
  5
144
330
22
100
AcDbEntity
  8
0
100
AcDbLine
 10
-319.850006
 20
-6.747436999999999
 30
0.0
 11
-317.970001
 21
-6.747436999999999
 31
0.0
  0
LINE
  5
145
330
22
100
AcDbEntity
  8
0
100
AcDbLine
 10
-318.350006
 20
-9.547439999999999
 30
0.0
 11
-319.850006
 21
-9.547439999999999
 31
0.0
  0
LINE
  5
146
330
22
100
AcDbEntity
  8
0
100
AcDbLine
 10
-318.350006
 20
-9.547419999999998
 30
0.0
 11
-317.850006
 21
-10.047421
 31
0.0
  0
LINE
  5
147
330
22
100
AcDbEntity
  8
0
100
AcDbLine
 10
-317.850006
 20
-10.04744
 30
0.0
 11
-317.850006
 21
-10.54744
 31
0.0
  0
LINE
  5
148
330
22
100
AcDbEntity
  8
0
100
AcDbLine
 10
-321.75
 20
-5.047439999999999
 30
0.0
 11
-321.75
 21
-10.54744
 31
0.0
  0
LINE
  5
149
330
22
100
AcDbEntity
  8
0
  6
CENTER
 62
     1
100
AcDbLine
 10
-310.25
 20
-1.687438999999999
 30
0.0
 11
-310.25
 21
-11.757431
 31
0.0
  0
LINE
  5
14A
330
22
100
AcDbEntity
  8
0
100
AcDbLine
 10
-312.350006
 20
-9.547439999999999
 30
0.0
 11
-312.350006
 21
-7.947433
 31
0.0
  0
LINE
  5
14B
330
22
100
AcDbEntity
  8
0
100
AcDbLine
 10
-312.350037
 20
-9.54743
 30
0.0
 11
-311.850037
 21
-10.047431
 31
0.0
  0
LINE
  5
14C
330
22
100
AcDbEntity
  8
0
100
AcDbLine
 10
-311.850006
 20
-10.04744
 30
0.0
 11
-311.850006
 21
-10.54744
 31
0.0
  0
LINE
  5
14D
330
22
100
AcDbEntity
  8
0
100
AcDbLine
 10
-308.150024
 20
-9.547439999999999
 30
0.0
 11
-308.150024
 21
-7.947433
 31
0.0
  0
LINE
  5
14E
330
22
100
AcDbEntity
  8
0
100
AcDbLine
 10
-308.149994
 20
-9.547437999999999
 30
0.0
 11
-308.649994
 21
-10.04744
 31
0.0
  0
LINE
  5
14F
330
22
100
AcDbEntity
  8
0
100
AcDbLine
 10
-308.650024
 20
-10.04744
 30
0.0
 11
-308.650024
 21
-10.54744
 31
0.0
  0
LINE
  5
150
330
22
100
AcDbEntity
  8
0
100
AcDbLine
 10
-317.850006
 20
-10.54744
 30
0.0
 11
-335.25
 21
-10.54744
 31
0.0
  0
LINE
  5
151
330
22
100
AcDbEntity
  8
0
100
AcDbLine
 10
-311.75
 20
126.45256
 30
0.0
 11
-311.75
 21
121.45256
 31
0.0
  0
LINE
  5
152
330
22
100
AcDbEntity
  8
0
100
AcDbLine
 10
-320.75
 20
126.45256
 30
0.0
 11
-320.75
 21
121.45256
 31
0.0
  0
LINE
  5
153
330
22
100
AcDbEntity
  8
0
100
AcDbLine
 10
-311.900024
 20
57.922562
 30
0.0
 11
-311.900024
 21
43.982574
 31
0.0
  0
LINE
  5
154
330
22
100
AcDbEntity
  8
0
100
AcDbLine
 10
-310.600006
 20
57.922562
 30
0.0
 11
-310.600006
 21
43.982574
 31
0.0
  0
LINE
  5
155
330
22
100
AcDbEntity
  8
0
 62
     4
100
AcDbLine
 10
-314.75
 20
-10.677429
 30
0.0
 11
-317.75
 21
-10.677429
 31
0.0
  0
LINE
  5
156
330
22
100
AcDbEntity
  8
0
 62
     4
100
AcDbLine
 10
-318.299988
 20
-9.577438
 30
0.0
 11
-318.299988
 21
-8.127425999999999
 31
0.0
  0
LINE
  5
157
330
22
100
AcDbEntity
  8
0
 62
     4
100
AcDbLine
 10
-314.200012
 20
-9.577438
 30
0.0
 11
-314.200012
 21
-8.127425999999999
 31
0.0
  0
LINE
  5
158
330
22
100
AcDbEntity
  8
0
 62
     4
100
AcDbLine
 10
-314.75
 20
-10.677429
 30
0.0
 11
-314.75
 21
-10.127426
 31
0.0
  0
LINE
  5
159
330
22
100
AcDbEntity
  8
0
 62
     4
100
AcDbLine
 10
-317.75
 20
-10.677429
 30
0.0
 11
-317.75
 21
-10.127426
 31
0.0
  0
LINE
  5
15A
330
22
100
AcDbEntity
  8
0
 62
     4
100
AcDbLine
 10
-314.200012
 20
-9.577438
 30
0.0
 11
-314.75
 21
-10.127433
 31
0.0
  0
LINE
  5
15B
330
22
100
AcDbEntity
  8
0
 62
     4
100
AcDbLine
 10
-318.299988
 20
-9.577422999999999
 30
0.0
 11
-317.75
 21
-10.127418
 31
0.0
  0
LINE
  5
15C
330
22
100
AcDbEntity
  8
0
 62
     4
100
AcDbLine
 10
-314.200012
 20
-8.877425999999999
 30
0.0
 11
-318.299988
 21
-8.877425999999999
 31
0.0
  0
LINE
  5
15D
330
22
100
AcDbEntity
  8
0
 62
     4
100
AcDbLine
 10
-314.350006
 20
-8.777435
 30
0.0
 11
-318.150024
 21
-8.777435
 31
0.0
  0
LINE
  5
15E
330
22
100
AcDbEntity
  8
0
 62
     4
100
AcDbLine
 10
-318.25
 20
-8.677429
 30
0.0
 11
-318.25
 21
-8.177429
 31
0.0
  0
LINE
  5
15F
330
22
100
AcDbEntity
  8
0
 62
     4
100
AcDbLine
 10
-314.25
 20
-8.677429
 30
0.0
 11
-314.25
 21
-8.177429
 31
0.0
  0
LINE
  5
160
330
22
100
AcDbEntity
  8
0
 62
     4
100
AcDbLine
 10
-314.350006
 20
-8.077438
 30
0.0
 11
-318.150024
 21
-8.077438
 31
0.0
  0
LINE
  5
161
330
22
100
AcDbEntity
  8
0
 62
     1
100
AcDbLine
 10
-317.25
 20
-11.097427
 30
0.0
 11
-317.25
 21
-10.677429
 31
0.0
  0
LINE
  5
162
330
22
100
AcDbEntity
  8
0
 62
     1
100
AcDbLine
 10
-315.25
 20
-11.097427
 30
0.0
 11
-315.25
 21
-10.677429
 31
0.0
  0
LINE
  5
163
330
22
100
AcDbEntity
  8
0
 62
     4
100
AcDbLine
 10
-315.25
 20
-11.097427
 30
0.0
 11
-317.25
 21
-11.097427
 31
0.0
  0
LINE
  5
164
330
22
100
AcDbEntity
  8
0
 62
     4
100
AcDbLine
 10
-315.25
 20
-6.097426999999999
 30
0.0
 11
-317.25
 21
-6.097426999999999
 31
0.0
  0
LINE
  5
165
330
22
100
AcDbEntity
  8
0
 62
     4
100
AcDbLine
 10
-315.0
 20
-10.847433
 30
0.0
 11
-315.25
 21
-11.097442
 31
0.0
  0
LINE
  5
166
330
22
100
AcDbEntity
  8
0
 62
     4
100
AcDbLine
 10
-317.25
 20
-6.097419999999999
 30
0.0
 11
-317.500031
 21
-6.347423
 31
0.0
  0
LINE
  5
167
330
22
100
AcDbEntity
  8
0
 62
     4
100
AcDbLine
 10
-317.5
 20
-10.847422
 30
0.0
 11
-317.25
 21
-11.09742
 31
0.0
  0
LINE
  5
168
330
22
100
AcDbEntity
  8
0
 62
     4
100
AcDbLine
 10
-315.25
 20
-6.097433
 30
0.0
 11
-315.0
 21
-6.347425
 31
0.0
  0
LINE
  5
169
330
22
100
AcDbEntity
  8
0
 62
     4
100
AcDbLine
 10
-315.0
 20
-8.077438
 30
0.0
 11
-315.0
 21
-6.347426999999999
 31
0.0
  0
LINE
  5
16A
330
22
100
AcDbEntity
  8
0
 62
     1
100
AcDbLine
 10
-315.25
 20
-8.077438
 30
0.0
 11
-315.25
 21
-6.097426999999999
 31
0.0
  0
LINE
  5
16B
330
22
100
AcDbEntity
  8
0
 62
     1
100
AcDbLine
 10
-317.25
 20
-8.077438
 30
0.0
 11
-317.25
 21
-6.097426999999999
 31
0.0
  0
LINE
  5
16C
330
22
100
AcDbEntity
  8
0
 62
     4
100
AcDbLine
 10
-317.5
 20
-8.077438
 30
0.0
 11
-317.5
 21
-6.347426999999999
 31
0.0
  0
LINE
  5
16D
330
22
100
AcDbEntity
  8
0
 62
     4
100
AcDbLine
 10
-315.0
 20
-10.847427
 30
0.0
 11
-315.0
 21
-10.677429
 31
0.0
  0
LINE
  5
16E
330
22
100
AcDbEntity
  8
0
 62
     1
100
AcDbLine
 10
-315.25
 20
-8.877425999999999
 30
0.0
 11
-315.25
 21
-8.777435
 31
0.0
  0
LINE
  5
16F
330
22
100
AcDbEntity
  8
0
 62
     1
100
AcDbLine
 10
-317.25
 20
-8.877425999999999
 30
0.0
 11
-317.25
 21
-8.777435
 31
0.0
  0
LINE
  5
170
330
22
100
AcDbEntity
  8
0
 62
     4
100
AcDbLine
 10
-317.5
 20
-10.847427
 30
0.0
 11
-317.5
 21
-10.677429
 31
0.0
  0
LINE
  5
171
330
22
100
AcDbEntity
  8
0
 62
     4
100
AcDbLine
 10
-315.0
 20
-8.877425999999999
 30
0.0
 11
-315.0
 21
-8.777435
 31
0.0
  0
LINE
  5
172
330
22
100
AcDbEntity
  8
0
 62
     4
100
AcDbLine
 10
-317.5
 20
-8.877425999999999
 30
0.0
 11
-317.5
 21
-8.777435
 31
0.0
  0
LINE
  5
173
330
22
100
AcDbEntity
  8
0
 62
     4
100
AcDbLine
 10
-308.75
 20
-10.677429
 30
0.0
 11
-311.75
 21
-10.677429
 31
0.0
  0
LINE
  5
174
330
22
100
AcDbEntity
  8
0
 62
     4
100
AcDbLine
 10
-312.299988
 20
-9.577438
 30
0.0
 11
-312.299988
 21
-8.127425999999999
 31
0.0
  0
LINE
  5
175
330
22
100
AcDbEntity
  8
0
 62
     4
100
AcDbLine
 10
-308.200012
 20
-9.577438
 30
0.0
 11
-308.200012
 21
-8.127425999999999
 31
0.0
  0
LINE
  5
176
330
22
100
AcDbEntity
  8
0
 62
     4
100
AcDbLine
 10
-308.75
 20
-10.677429
 30
0.0
 11
-308.75
 21
-10.127426
 31
0.0
  0
LINE
  5
177
330
22
100
AcDbEntity
  8
0
 62
     4
100
AcDbLine
 10
-311.75
 20
-10.677429
 30
0.0
 11
-311.75
 21
-10.127426
 31
0.0
  0
LINE
  5
178
330
22
100
AcDbEntity
  8
0
 62
     4
100
AcDbLine
 10
-308.200012
 20
-9.577433
 30
0.0
 11
-308.75
 21
-10.127439
 31
0.0
  0
LINE
  5
179
330
22
100
AcDbEntity
  8
0
 62
     4
100
AcDbLine
 10
-312.300018
 20
-9.577436
 30
0.0
 11
-311.75
 21
-10.127438
 31
0.0
  0
LINE
  5
17A
330
22
100
AcDbEntity
  8
0
 62
     4
100
AcDbLine
 10
-308.200012
 20
-8.877425999999999
 30
0.0
 11
-312.299988
 21
-8.877425999999999
 31
0.0
  0
LINE
  5
17B
330
22
100
AcDbEntity
  8
0
 62
     4
100
AcDbLine
 10
-308.350006
 20
-8.777435
 30
0.0
 11
-312.150024
 21
-8.777435
 31
0.0
  0
LINE
  5
17C
330
22
100
AcDbEntity
  8
0
 62
     4
100
AcDbLine
 10
-312.25
 20
-8.677429
 30
0.0
 11
-312.25
 21
-8.177429
 31
0.0
  0
LINE
  5
17D
330
22
100
AcDbEntity
  8
0
 62
     4
100
AcDbLine
 10
-308.25
 20
-8.677429
 30
0.0
 11
-308.25
 21
-8.177429
 31
0.0
  0
LINE
  5
17E
330
22
100
AcDbEntity
  8
0
 62
     4
100
AcDbLine
 10
-308.350006
 20
-8.077438
 30
0.0
 11
-312.150024
 21
-8.077438
 31
0.0
  0
LINE
  5
17F
330
22
100
AcDbEntity
  8
0
 62
     1
100
AcDbLine
 10
-311.25
 20
-11.097427
 30
0.0
 11
-311.25
 21
-10.677429
 31
0.0
  0
LINE
  5
180
330
22
100
AcDbEntity
  8
0
 62
     1
100
AcDbLine
 10
-309.25
 20
-11.097427
 30
0.0
 11
-309.25
 21
-10.677429
 31
0.0
  0
LINE
  5
181
330
22
100
AcDbEntity
  8
0
 62
     4
100
AcDbLine
 10
-309.25
 20
-11.097427
 30
0.0
 11
-311.25
 21
-11.097427
 31
0.0
  0
LINE
  5
182
330
22
100
AcDbEntity
  8
0
 62
     4
100
AcDbLine
 10
-309.25
 20
-6.097426999999999
 30
0.0
 11
-311.25
 21
-6.097426999999999
 31
0.0
  0
LINE
  5
183
330
22
100
AcDbEntity
  8
0
 62
     4
100
AcDbLine
 10
-309.0
 20
-10.847422
 30
0.0
 11
-309.25
 21
-11.097414
 31
0.0
  0
LINE
  5
184
330
22
100
AcDbEntity
  8
0
 62
     4
100
AcDbLine
 10
-311.25
 20
-6.097433
 30
0.0
 11
-311.5
 21
-6.347442
 31
0.0
  0
LINE
  5
185
330
22
100
AcDbEntity
  8
0
 62
     4
100
AcDbLine
 10
-311.5
 20
-10.847425
 30
0.0
 11
-311.25
 21
-11.097434
 31
0.0
  0
LINE
  5
186
330
22
100
AcDbEntity
  8
0
 62
     4
100
AcDbLine
 10
-309.25
 20
-6.097434999999999
 30
0.0
 11
-309.0
 21
-6.347426999999999
 31
0.0
  0
LINE
  5
187
330
22
100
AcDbEntity
  8
0
 62
     4
100
AcDbLine
 10
-309.0
 20
-8.077438
 30
0.0
 11
-309.0
 21
-6.347426999999999
 31
0.0
  0
LINE
  5
188
330
22
100
AcDbEntity
  8
0
 62
     1
100
AcDbLine
 10
-309.25
 20
-8.077438
 30
0.0
 11
-309.25
 21
-6.097426999999999
 31
0.0
  0
LINE
  5
189
330
22
100
AcDbEntity
  8
0
 62
     1
100
AcDbLine
 10
-311.25
 20
-8.077438
 30
0.0
 11
-311.25
 21
-6.097426999999999
 31
0.0
  0
LINE
  5
18A
330
22
100
AcDbEntity
  8
0
 62
     4
100
AcDbLine
 10
-311.5
 20
-8.077438
 30
0.0
 11
-311.5
 21
-6.347426999999999
 31
0.0
  0
LINE
  5
18B
330
22
100
AcDbEntity
  8
0
 62
     4
100
AcDbLine
 10
-309.0
 20
-10.847427
 30
0.0
 11
-309.0
 21
-10.677429
 31
0.0
  0
LINE
  5
18C
330
22
100
AcDbEntity
  8
0
 62
     1
100
AcDbLine
 10
-309.25
 20
-8.877425999999999
 30
0.0
 11
-309.25
 21
-8.777435
 31
0.0
  0
LINE
  5
18D
330
22
100
AcDbEntity
  8
0
 62
     1
100
AcDbLine
 10
-311.25
 20
-8.877425999999999
 30
0.0
 11
-311.25
 21
-8.777435
 31
0.0
  0
LINE
  5
18E
330
22
100
AcDbEntity
  8
0
 62
     4
100
AcDbLine
 10
-311.5
 20
-10.847427
 30
0.0
 11
-311.5
 21
-10.677429
 31
0.0
  0
LINE
  5
18F
330
22
100
AcDbEntity
  8
0
 62
     4
100
AcDbLine
 10
-309.0
 20
-8.877425999999999
 30
0.0
 11
-309.0
 21
-8.777435
 31
0.0
  0
LINE
  5
190
330
22
100
AcDbEntity
  8
0
 62
     4
100
AcDbLine
 10
-311.5
 20
-8.877425999999999
 30
0.0
 11
-311.5
 21
-8.777435
 31
0.0
  0
LINE
  5
191
330
22
100
AcDbEntity
  8
0
100
AcDbLine
 10
-225.250198
 20
-10.54744
 30
0.0
 11
204.739792
 21
-10.54744
 31
0.0
  0
LINE
  5
192
330
22
100
AcDbEntity
  8
0
100
AcDbLine
 10
-225.250198
 20
-10.54744
 30
0.0
 11
-225.250198
 21
126.45256
 31
0.0
  0
LINE
  5
193
330
22
100
AcDbEntity
  8
0
100
AcDbLine
 10
204.739792
 20
-10.54744
 30
0.0
 11
204.739792
 21
126.45256
 31
0.0
  0
LINE
  5
194
330
22
100
AcDbEntity
  8
0
100
AcDbLine
 10
164.739792
 20
5.95256
 30
0.0
 11
164.739792
 21
68.95255999999999
 31
0.0
  0
LINE
  5
195
330
22
100
AcDbEntity
  8
0
100
AcDbLine
 10
190.739792
 20
-10.54744
 30
0.0
 11
190.739792
 21
126.45256
 31
0.0
  0
LINE
  5
196
330
22
100
AcDbEntity
  8
0
  6
CENTER
 62
     2
100
AcDbLine
 10
-110.260208
 20
-22.747437
 30
0.0
 11
-110.260208
 21
132.302551
 31
0.0
  0
LINE
  5
197
330
22
100
AcDbEntity
  8
0
100
AcDbLine
 10
-180.260208
 20
-10.54744
 30
0.0
 11
-180.260208
 21
83.45255999999999
 31
0.0
  0
LINE
  5
198
330
22
100
AcDbEntity
  8
0
100
AcDbLine
 10
-40.260208
 20
-10.54744
 30
0.0
 11
-40.260208
 21
83.45255999999999
 31
0.0
  0
LINE
  5
199
330
22
100
AcDbEntity
  8
0
100
AcDbLine
 10
-185.260208
 20
5.95256
 30
0.0
 11
-185.260208
 21
68.95255999999999
 31
0.0
  0
LINE
  5
19A
330
22
100
AcDbEntity
  8
0
100
AcDbLine
 10
164.739792
 20
5.95256
 30
0.0
 11
190.739792
 21
5.95256
 31
0.0
  0
LINE
  5
19B
330
22
100
AcDbEntity
  8
0
100
AcDbLine
 10
164.739792
 20
68.95255999999999
 30
0.0
 11
190.739792
 21
68.95255999999999
 31
0.0
  0
LINE
  5
19C
330
22
100
AcDbEntity
  8
0
100
AcDbLine
 10
-211.260193
 20
5.95256
 30
0.0
 11
-185.260208
 21
5.95256
 31
0.0
  0
LINE
  5
19D
330
22
100
AcDbEntity
  8
0
100
AcDbLine
 10
-211.260193
 20
-10.54744
 30
0.0
 11
-211.260193
 21
126.45256
 31
0.0
  0
LINE
  5
19E
330
22
100
AcDbEntity
  8
0
  6
CENTER
 62
     2
100
AcDbLine
 10
-50.260208
 20
66.95255999999999
 30
0.0
 11
-50.260208
 21
-9.009766
 31
0.0
  0
LINE
  5
19F
330
22
100
AcDbEntity
  8
0
  6
CENTER
 62
     2
100
AcDbLine
 10
-225.750198
 20
114.45256
 30
0.0
 11
-210.760193
 21
114.45256
 31
0.0
  0
LINE
  5
1A0
330
22
100
AcDbEntity
  8
0
  6
CENTER
 62
     2
100
AcDbLine
 10
-218.250198
 20
121.95256
 30
0.0
 11
-218.250198
 21
-0.8224639999999999
 31
0.0
  0
LINE
  5
1A1
330
22
100
AcDbEntity
  8
0
  6
CENTER
 62
     2
100
AcDbLine
 10
-225.750198
 20
8.45256
 30
0.0
 11
-210.760193
 21
8.45256
 31
0.0
  0
LINE
  5
1A2
330
22
100
AcDbEntity
  8
0
  6
CENTER
 62
     2
100
AcDbLine
 10
197.739792
 20
121.95256
 30
0.0
 11
197.739792
 21
-1.64119
 31
0.0
  0
LINE
  5
1A3
330
22
100
AcDbEntity
  8
0
  6
CENTER
 62
     2
100
AcDbLine
 10
207.039597
 20
8.45256
 30
0.0
 11
190.239792
 21
8.45256
 31
0.0
  0
LINE
  5
1A4
330
22
100
AcDbEntity
  8
0
  6
CENTER
 62
     2
100
AcDbLine
 10
205.739792
 20
114.45256
 30
0.0
 11
190.739792
 21
114.45256
 31
0.0
  0
LINE
  5
1A5
330
22
100
AcDbEntity
  8
0
100
AcDbLine
 10
-210.260193
 20
122.45256
 30
0.0
 11
189.739792
 21
122.45256
 31
0.0
  0
LINE
  5
1A6
330
22
100
AcDbEntity
  8
0
100
AcDbLine
 10
-185.260208
 20
30.95256
 30
0.0
 11
-180.260208
 21
30.95256
 31
0.0
  0
LINE
  5
1A7
330
22
100
AcDbEntity
  8
0
100
AcDbLine
 10
-185.260208
 20
10.95256
 30
0.0
 11
-180.260208
 21
10.95256
 31
0.0
  0
LINE
  5
1A8
330
22
100
AcDbEntity
  8
0
100
AcDbLine
 10
164.739792
 20
30.95256
 30
0.0
 11
-40.260208
 21
30.95256
 31
0.0
  0
LINE
  5
1A9
330
22
100
AcDbEntity
  8
0
100
AcDbLine
 10
164.739792
 20
10.95256
 30
0.0
 11
-40.260208
 21
10.95256
 31
0.0
  0
LINE
  5
1AA
330
22
100
AcDbEntity
  8
0
100
AcDbLine
 10
-211.260193
 20
-4.047439999999999
 30
0.0
 11
-180.260208
 21
-4.047439999999999
 31
0.0
  0
LINE
  5
1AB
330
22
100
AcDbEntity
  8
0
100
AcDbLine
 10
-40.260208
 20
-4.047439999999999
 30
0.0
 11
190.739792
 21
-4.047439999999999
 31
0.0
  0
LINE
  5
1AC
330
22
100
AcDbEntity
  8
0
  6
CENTER
 62
     2
100
AcDbLine
 10
89.739792
 20
-24.429184
 30
0.0
 11
89.739792
 21
132.302551
 31
0.0
  0
LINE
  5
1AD
330
22
100
AcDbEntity
  8
0
100
AcDbLine
 10
-210.260193
 20
93.85257000000001
 30
0.0
 11
189.739792
 21
93.85257000000001
 31
0.0
  0
LINE
  5
1AE
330
22
100
AcDbEntity
  8
0
100
AcDbLine
 10
-210.260193
 20
95.85257
 30
0.0
 11
189.739792
 21
95.85257
 31
0.0
  0
LINE
  5
1AF
330
22
100
AcDbEntity
  8
0
100
AcDbLine
 10
-210.260193
 20
113.052559
 30
0.0
 11
189.739792
 21
113.052559
 31
0.0
  0
LINE
  5
1B0
330
22
100
AcDbEntity
  8
0
100
AcDbLine
 10
-210.260193
 20
115.052559
 30
0.0
 11
189.739792
 21
115.052559
 31
0.0
  0
LINE
  5
1B1
330
22
100
AcDbEntity
  8
0
  6
CENTER
 62
     2
100
AcDbLine
 10
-170.260208
 20
-9.009766
 30
0.0
 11
-170.260208
 21
67.541565
 31
0.0
  0
LINE
  5
1B2
330
22
100
AcDbEntity
  8
0
  6
CENTER
 62
     2
100
AcDbLine
 10
-45.760208
 20
62.45256
 30
0.0
 11
-174.640213
 21
62.45256
 31
0.0
  0
LINE
  5
1B3
330
22
100
AcDbEntity
  8
0
  6
CENTER
 62
     2
100
AcDbLine
 10
-45.760208
 20
-3.547439999999999
 30
0.0
 11
-174.460205
 21
-3.547439999999999
 31
0.0
  0
LINE
  5
1B4
330
22
100
AcDbEntity
  8
0
  6
CENTER
 62
     2
100
AcDbLine
 10
107.509567
 20
50.95256
 30
0.0
 11
202.239792
 21
50.95256
 31
0.0
  0
LINE
  5
1B5
330
22
100
AcDbEntity
  8
0
100
AcDbLine
 10
-185.260208
 20
57.95256
 30
0.0
 11
-180.260208
 21
57.95256
 31
0.0
  0
LINE
  5
1B6
330
22
100
AcDbEntity
  8
0
 62
     2
100
AcDbLine
 10
-185.260208
 20
56.95256
 30
0.0
 11
-180.260208
 21
56.95256
 31
0.0
  0
LINE
  5
1B7
330
22
100
AcDbEntity
  8
0
 62
     2
100
AcDbLine
 10
-185.260208
 20
44.95256
 30
0.0
 11
-180.260208
 21
44.95256
 31
0.0
  0
LINE
  5
1B8
330
22
100
AcDbEntity
  8
0
100
AcDbLine
 10
-185.260208
 20
43.95255999999999
 30
0.0
 11
-180.260208
 21
43.95255999999999
 31
0.0
  0
LINE
  5
1B9
330
22
100
AcDbEntity
  8
0
100
AcDbLine
 10
164.739792
 20
57.95256
 30
0.0
 11
136.239792
 21
57.95256
 31
0.0
  0
LINE
  5
1BA
330
22
100
AcDbEntity
  8
0
 62
     2
100
AcDbLine
 10
164.739792
 20
44.95256
 30
0.0
 11
135.239792
 21
44.95256
 31
0.0
  0
LINE
  5
1BB
330
22
100
AcDbEntity
  8
0
100
AcDbLine
 10
164.739792
 20
43.95255999999999
 30
0.0
 11
136.239792
 21
43.95255999999999
 31
0.0
  0
LINE
  5
1BC
330
22
100
AcDbEntity
  8
0
100
AcDbLine
 10
136.239792
 20
57.95256
 30
0.0
 11
136.239792
 21
43.872574
 31
0.0
  0
LINE
  5
1BD
330
22
100
AcDbEntity
  8
0
100
AcDbLine
 10
135.239761
 20
56.95258299999999
 30
0.0
 11
136.239761
 21
57.952587
 31
0.0
  0
LINE
  5
1BE
330
22
100
AcDbEntity
  8
0
100
AcDbLine
 10
135.239639
 20
44.952713
 30
0.0
 11
136.2397
 21
43.952644
 31
0.0
  0
LINE
  5
1BF
330
22
100
AcDbEntity
  8
0
100
AcDbLine
 10
-40.260208
 20
66.95255999999999
 30
0.0
 11
164.739792
 21
66.95255999999999
 31
0.0
  0
LINE
  5
1C0
330
22
100
AcDbEntity
  8
0
100
AcDbLine
 10
-40.260208
 20
61.70256
 30
0.0
 11
164.739792
 21
61.70256
 31
0.0
  0
LINE
  5
1C1
330
22
100
AcDbEntity
  8
0
100
AcDbLine
 10
-40.260208
 20
58.70256
 30
0.0
 11
164.739792
 21
58.70256
 31
0.0
  0
LINE
  5
1C2
330
22
100
AcDbEntity
  8
0
100
AcDbLine
 10
164.739792
 20
31.95256
 30
0.0
 11
-40.260208
 21
31.95256
 31
0.0
  0
LINE
  5
1C3
330
22
100
AcDbEntity
  8
0
100
AcDbLine
 10
164.739792
 20
35.70256
 30
0.0
 11
-40.260208
 21
35.70256
 31
0.0
  0
LINE
  5
1C4
330
22
100
AcDbEntity
  8
0
100
AcDbLine
 10
164.739792
 20
42.20256
 30
0.0
 11
-40.260208
 21
42.20256
 31
0.0
  0
LINE
  5
1C5
330
22
100
AcDbEntity
  8
0
100
AcDbLine
 10
-185.260208
 20
31.95256
 30
0.0
 11
-180.260208
 21
31.95256
 31
0.0
  0
LINE
  5
1C6
330
22
100
AcDbEntity
  8
0
100
AcDbLine
 10
-185.260208
 20
35.70256
 30
0.0
 11
-180.260208
 21
35.70256
 31
0.0
  0
LINE
  5
1C7
330
22
100
AcDbEntity
  8
0
100
AcDbLine
 10
-185.260208
 20
42.20256
 30
0.0
 11
-180.260208
 21
42.20256
 31
0.0
  0
LINE
  5
1C8
330
22
100
AcDbEntity
  8
0
100
AcDbLine
 10
-184.670212
 20
61.70256
 30
0.0
 11
-180.260208
 21
61.70256
 31
0.0
  0
LINE
  5
1C9
330
22
100
AcDbEntity
  8
0
100
AcDbLine
 10
-180.260208
 20
83.45255999999999
 30
0.0
 11
-40.260208
 21
83.45255999999999
 31
0.0
  0
LINE
  5
1CA
330
22
100
AcDbEntity
  8
0
100
AcDbLine
 10
-210.260193
 20
126.45256
 30
0.0
 11
189.739792
 21
126.45256
 31
0.0
  0
LINE
  5
1CB
330
22
100
AcDbEntity
  8
0
100
AcDbLine
 10
190.739792
 20
86.45255999999999
 30
0.0
 11
-211.260193
 21
86.45255999999999
 31
0.0
  0
LINE
  5
1CC
330
22
100
AcDbEntity
  8
0
100
AcDbLine
 10
189.739792
 20
86.45255999999999
 30
0.0
 11
189.739792
 21
126.45256
 31
0.0
  0
LINE
  5
1CD
330
22
100
AcDbEntity
  8
0
100
AcDbLine
 10
189.739792
 20
116.95256
 30
0.0
 11
190.739792
 21
116.95256
 31
0.0
  0
LINE
  5
1CE
330
22
100
AcDbEntity
  8
0
100
AcDbLine
 10
-210.260193
 20
86.60256999999999
 30
0.0
 11
-210.260193
 21
126.45256
 31
0.0
  0
LINE
  5
1CF
330
22
100
AcDbEntity
  8
0
100
AcDbLine
 10
-185.260208
 20
66.95255999999999
 30
0.0
 11
-180.260208
 21
66.95255999999999
 31
0.0
  0
LINE
  5
1D0
330
22
100
AcDbEntity
  8
0
100
AcDbLine
 10
-210.260193
 20
116.95256
 30
0.0
 11
-211.260193
 21
116.95256
 31
0.0
  0
LINE
  5
1D1
330
22
100
AcDbEntity
  8
0
100
AcDbLine
 10
-170.260208
 20
83.45255999999999
 30
0.0
 11
-170.260208
 21
86.45255999999999
 31
0.0
  0
LINE
  5
1D2
330
22
100
AcDbEntity
  8
0
100
AcDbLine
 10
-50.260208
 20
83.45255999999999
 30
0.0
 11
-50.260208
 21
86.45255999999999
 31
0.0
  0
LINE
  5
1D3
330
22
100
AcDbEntity
  8
0
100
AcDbLine
 10
-185.260208
 20
68.95255999999999
 30
0.0
 11
-211.260193
 21
68.95255999999999
 31
0.0
  0
LINE
  5
1D4
330
22
100
AcDbEntity
  8
0
100
AcDbLine
 10
-211.260193
 20
81.95255999999998
 30
0.0
 11
-190.260208
 21
81.95255999999998
 31
0.0
  0
LINE
  5
1D5
330
22
100
AcDbEntity
  8
0
100
AcDbLine
 10
-210.260193
 20
89.95255999999999
 30
0.0
 11
-211.260193
 21
89.95255999999999
 31
0.0
  0
LINE
  5
1D6
330
22
100
AcDbEntity
  8
0
100
AcDbLine
 10
190.739792
 20
89.95255999999999
 30
0.0
 11
189.739792
 21
89.95255999999999
 31
0.0
  0
LINE
  5
1D7
330
22
100
AcDbEntity
  8
0
  6
CENTER
 62
     2
100
AcDbLine
 10
-201.260208
 20
86.95255999999998
 30
0.0
 11
-201.260208
 21
76.95255999999999
 31
0.0
  0
LINE
  5
1D8
330
22
100
AcDbEntity
  8
0
100
AcDbLine
 10
-198.510208
 20
81.95255999999998
 30
0.0
 11
-198.510208
 21
78.95255999999999
 31
0.0
  0
LINE
  5
1D9
330
22
100
AcDbEntity
  8
0
100
AcDbLine
 10
-204.010193
 20
81.95255999999998
 30
0.0
 11
-204.010193
 21
78.95255999999999
 31
0.0
  0
LINE
  5
1DA
330
22
100
AcDbEntity
  8
0
100
AcDbLine
 10
-198.510208
 20
78.95255999999999
 30
0.0
 11
-204.010193
 21
78.95255999999999
 31
0.0
  0
LINE
  5
1DB
330
22
100
AcDbEntity
  8
0
100
AcDbLine
 10
190.739792
 20
81.95255999999998
 30
0.0
 11
169.739792
 21
81.95255999999998
 31
0.0
  0
LINE
  5
1DC
330
22
100
AcDbEntity
  8
0
  6
CENTER
 62
     2
100
AcDbLine
 10
180.739792
 20
86.95255999999998
 30
0.0
 11
180.739792
 21
76.95255999999999
 31
0.0
  0
LINE
  5
1DD
330
22
100
AcDbEntity
  8
0
100
AcDbLine
 10
183.489792
 20
81.95255999999998
 30
0.0
 11
183.489792
 21
78.95255999999999
 31
0.0
  0
LINE
  5
1DE
330
22
100
AcDbEntity
  8
0
100
AcDbLine
 10
177.989792
 20
81.95255999999998
 30
0.0
 11
177.989792
 21
78.95255999999999
 31
0.0
  0
LINE
  5
1DF
330
22
100
AcDbEntity
  8
0
100
AcDbLine
 10
183.489792
 20
78.95255999999999
 30
0.0
 11
177.989792
 21
78.95255999999999
 31
0.0
  0
LINE
  5
1E0
330
22
100
AcDbEntity
  8
0
100
AcDbLine
 10
-190.260208
 20
81.95255999999998
 30
0.0
 11
-190.260208
 21
86.45255999999999
 31
0.0
  0
LINE
  5
1E1
330
22
100
AcDbEntity
  8
0
100
AcDbLine
 10
169.739792
 20
81.95255999999998
 30
0.0
 11
169.739792
 21
86.45255999999999
 31
0.0
  0
LINE
  5
1E2
330
22
100
AcDbEntity
  8
0
100
AcDbLine
 10
-225.250198
 20
126.45256
 30
0.0
 11
-211.260193
 21
126.45256
 31
0.0
  0
LINE
  5
1E3
330
22
100
AcDbEntity
  8
0
100
AcDbLine
 10
204.739792
 20
126.45256
 30
0.0
 11
190.739792
 21
126.45256
 31
0.0
  0
LINE
  5
1E4
330
22
100
AcDbEntity
  8
0
100
AcDbLine
 10
135.239792
 20
56.95256
 30
0.0
 11
135.239792
 21
44.95256
 31
0.0
  0
LINE
  5
1E5
330
22
100
AcDbEntity
  8
0
100
AcDbLine
 10
-200.752533
 20
64.395859
 30
0.0
 11
-200.752533
 21
61.51586899999999
 31
0.0
  0
LINE
  5
1E6
330
22
100
AcDbEntity
  8
0
100
AcDbLine
 10
-195.752533
 20
64.395859
 30
0.0
 11
-195.752533
 21
61.51586899999999
 31
0.0
  0
LINE
  5
1E7
330
22
100
AcDbEntity
  8
0
100
AcDbLine
 10
-200.752518
 20
64.395866
 30
0.0
 11
-198.252518
 21
65.83586099999999
 31
0.0
  0
LINE
  5
1E8
330
22
100
AcDbEntity
  8
0
100
AcDbLine
 10
-198.252502
 20
60.075867
 30
0.0
 11
-195.752518
 21
61.51585799999999
 31
0.0
  0
LINE
  5
1E9
330
22
100
AcDbEntity
  8
0
100
AcDbLine
 10
-198.252533
 20
65.83586899999999
 30
0.0
 11
-195.752533
 21
64.395859
 31
0.0
  0
LINE
  5
1EA
330
22
100
AcDbEntity
  8
0
100
AcDbLine
 10
-200.752518
 20
61.515873
 30
0.0
 11
-198.252518
 21
60.075867
 31
0.0
  0
LINE
  5
1EB
330
22
100
AcDbEntity
  8
0
100
AcDbLine
 10
-206.752518
 20
40.395859
 30
0.0
 11
-206.752518
 21
37.515869
 31
0.0
  0
LINE
  5
1EC
330
22
100
AcDbEntity
  8
0
100
AcDbLine
 10
-201.752533
 20
40.395859
 30
0.0
 11
-201.752533
 21
37.515869
 31
0.0
  0
LINE
  5
1ED
330
22
100
AcDbEntity
  8
0
100
AcDbLine
 10
-206.752518
 20
40.39587
 30
0.0
 11
-204.252518
 21
41.835869
 31
0.0
  0
LINE
  5
1EE
330
22
100
AcDbEntity
  8
0
100
AcDbLine
 10
-204.252518
 20
36.075874
 30
0.0
 11
-201.752518
 21
37.515873
 31
0.0
  0
LINE
  5
1EF
330
22
100
AcDbEntity
  8
0
100
AcDbLine
 10
-204.252533
 20
41.835869
 30
0.0
 11
-201.752533
 21
40.39587
 31
0.0
  0
LINE
  5
1F0
330
22
100
AcDbEntity
  8
0
100
AcDbLine
 10
-206.752533
 20
37.515862
 30
0.0
 11
-204.252533
 21
36.075859
 31
0.0
  0
LINE
  5
1F1
330
22
100
AcDbEntity
  8
0
100
AcDbLine
 10
-194.752533
 20
40.395859
 30
0.0
 11
-194.752533
 21
37.515869
 31
0.0
  0
LINE
  5
1F2
330
22
100
AcDbEntity
  8
0
100
AcDbLine
 10
-189.752533
 20
40.395859
 30
0.0
 11
-189.752533
 21
37.515869
 31
0.0
  0
LINE
  5
1F3
330
22
100
AcDbEntity
  8
0
100
AcDbLine
 10
-194.7525179999999
 20
40.39586599999999
 30
0.0
 11
-192.252518
 21
41.835857
 31
0.0
  0
LINE
  5
1F4
330
22
100
AcDbEntity
  8
0
100
AcDbLine
 10
-192.252518
 20
36.075863
 30
0.0
 11
-189.752518
 21
37.515854
 31
0.0
  0
LINE
  5
1F5
330
22
100
AcDbEntity
  8
0
100
AcDbLine
 10
-192.252518
 20
41.835873
 30
0.0
 11
-189.752533
 21
40.395874
 31
0.0
  0
LINE
  5
1F6
330
22
100
AcDbEntity
  8
0
100
AcDbLine
 10
-194.752533
 20
37.51586500000001
 30
0.0
 11
-192.252533
 21
36.075871
 31
0.0
  0
LINE
  5
1F7
330
22
100
AcDbEntity
  8
0
100
AcDbLine
 10
175.24736
 20
64.395859
 30
0.0
 11
175.24736
 21
61.51586899999999
 31
0.0
  0
LINE
  5
1F8
330
22
100
AcDbEntity
  8
0
100
AcDbLine
 10
180.24736
 20
64.395859
 30
0.0
 11
180.24736
 21
61.51586899999999
 31
0.0
  0
LINE
  5
1F9
330
22
100
AcDbEntity
  8
0
100
AcDbLine
 10
175.247391
 20
64.395798
 30
0.0
 11
177.747345
 21
65.83577
 31
0.0
  0
LINE
  5
1FA
330
22
100
AcDbEntity
  8
0
100
AcDbLine
 10
177.747513
 20
60.07585899999999
 30
0.0
 11
180.247452
 21
61.515831
 31
0.0
  0
LINE
  5
1FB
330
22
100
AcDbEntity
  8
0
100
AcDbLine
 10
177.747467
 20
65.83586899999999
 30
0.0
 11
180.247421
 21
64.39589699999999
 31
0.0
  0
LINE
  5
1FC
330
22
100
AcDbEntity
  8
0
100
AcDbLine
 10
175.247345
 20
61.51594499999999
 30
0.0
 11
177.747528
 21
60.075848
 31
0.0
  0
LINE
  5
1FD
330
22
100
AcDbEntity
  8
0
100
AcDbLine
 10
169.24736
 20
40.395859
 30
0.0
 11
169.24736
 21
37.515869
 31
0.0
  0
LINE
  5
1FE
330
22
100
AcDbEntity
  8
0
100
AcDbLine
 10
174.24736
 20
40.395859
 30
0.0
 11
174.24736
 21
37.515869
 31
0.0
  0
LINE
  5
1FF
330
22
100
AcDbEntity
  8
0
100
AcDbLine
 10
169.247437
 20
40.395977
 30
0.0
 11
171.747406
 21
41.835957
 31
0.0
  0
LINE
  5
200
330
22
100
AcDbEntity
  8
0
100
AcDbLine
 10
171.747345
 20
36.075932
 30
0.0
 11
174.247284
 21
37.515903
 31
0.0
  0
LINE
  5
201
330
22
100
AcDbEntity
  8
0
100
AcDbLine
 10
171.747498
 20
41.835854
 30
0.0
 11
174.247452
 21
40.39588199999999
 31
0.0
  0
LINE
  5
202
330
22
100
AcDbEntity
  8
0
100
AcDbLine
 10
169.247391
 20
37.515919
 30
0.0
 11
171.747345
 21
36.075947
 31
0.0
  0
LINE
  5
203
330
22
100
AcDbEntity
  8
0
100
AcDbLine
 10
181.24736
 20
40.395859
 30
0.0
 11
181.24736
 21
37.515869
 31
0.0
  0
LINE
  5
204
330
22
100
AcDbEntity
  8
0
100
AcDbLine
 10
186.24736
 20
40.395859
 30
0.0
 11
186.24736
 21
37.515869
 31
0.0
  0
LINE
  5
205
330
22
100
AcDbEntity
  8
0
100
AcDbLine
 10
181.2473139999999
 20
40.395851
 30
0.0
 11
183.747467
 21
41.835953
 31
0.0
  0
LINE
  5
206
330
22
100
AcDbEntity
  8
0
100
AcDbLine
 10
183.747421
 20
36.075935
 30
0.0
 11
186.247375
 21
37.515907
 31
0.0
  0
LINE
  5
207
330
22
100
AcDbEntity
  8
0
100
AcDbLine
 10
183.747345
 20
41.835953
 30
0.0
 11
186.247498
 21
40.395859
 31
0.0
  0
LINE
  5
208
330
22
100
AcDbEntity
  8
0
100
AcDbLine
 10
181.247437
 20
37.515888
 30
0.0
 11
183.747391
 21
36.075916
 31
0.0
  0
LINE
  5
209
330
22
100
AcDbEntity
  8
0
 62
     4
100
AcDbLine
 10
-113.260208
 20
63.45256
 30
0.0
 11
-113.260208
 21
61.45255999999999
 31
0.0
  0
LINE
  5
20A
330
22
100
AcDbEntity
  8
0
 62
     4
100
AcDbLine
 10
-107.260208
 20
63.45256
 30
0.0
 11
-107.260208
 21
61.45255999999999
 31
0.0
  0
LINE
  5
20B
330
22
100
AcDbEntity
  8
0
100
AcDbLine
 10
130.739792
 20
44.95256
 30
0.0
 11
130.739792
 21
56.95256
 31
0.0
  0
LINE
  5
20C
330
22
100
AcDbEntity
  8
0
100
AcDbLine
 10
118.739792
 20
49.20256
 30
0.0
 11
118.739792
 21
52.70255999999999
 31
0.0
  0
LINE
  5
20D
330
22
100
AcDbEntity
  8
0
100
AcDbLine
 10
118.739792
 20
52.70255999999999
 30
0.0
 11
130.739792
 21
52.70255999999999
 31
0.0
  0
LINE
  5
20E
330
22
100
AcDbEntity
  8
0
100
AcDbLine
 10
118.739792
 20
49.20256
 30
0.0
 11
130.739792
 21
49.20256
 31
0.0
  0
LINE
  5
20F
330
22
100
AcDbEntity
  8
0
  6
CENTER
 62
     1
100
AcDbLine
 10
-114.160202
 20
63.45256
 30
0.0
 11
-106.320206
 21
63.45256
 31
0.0
  0
LINE
  5
210
330
22
100
AcDbEntity
  8
0
  6
CENTER
 62
     1
100
AcDbLine
 10
-114.160202
 20
61.45255999999999
 30
0.0
 11
-106.320206
 21
61.45255999999999
 31
0.0
  0
LINE
  5
211
330
22
100
AcDbEntity
  8
0
100
AcDbLine
 10
135.239792
 20
56.95256
 30
0.0
 11
130.739792
 21
56.95256
 31
0.0
  0
LINE
  5
212
330
22
100
AcDbEntity
  8
0
100
AcDbLine
 10
135.239792
 20
44.95256
 30
0.0
 11
130.739792
 21
44.95256
 31
0.0
  0
LINE
  5
213
330
22
100
AcDbEntity
  8
0
  6
DASHED
100
AcDbLine
 10
-211.260193
 20
44.95256
 30
0.0
 11
-211.260193
 21
56.95256
 31
0.0
  0
LINE
  5
214
330
22
100
AcDbEntity
  8
0
 62
     2
100
AcDbLine
 10
164.739792
 20
56.95256
 30
0.0
 11
135.239792
 21
56.95256
 31
0.0
  0
LINE
  5
215
330
22
100
AcDbEntity
  8
0
100
AcDbLine
 10
164.739792
 20
56.95256
 30
0.0
 11
190.739792
 21
56.95256
 31
0.0
  0
LINE
  5
216
330
22
100
AcDbEntity
  8
0
100
AcDbLine
 10
-185.260208
 20
56.95256
 30
0.0
 11
-211.260193
 21
56.95256
 31
0.0
  0
LINE
  5
217
330
22
100
AcDbEntity
  8
0
  6
PHANTOM
 62
     3
100
AcDbLine
 10
30.372803
 20
-51.829742
 30
0.0
 11
30.372803
 21
132.302551
 31
0.0
  0
LINE
  5
218
330
22
100
AcDbEntity
  8
0
100
AcDbLine
 10
-379.25
 20
-246.75
 30
0.0
 11
-67.25
 21
-246.75
 31
0.0
  0
LINE
  5
219
330
22
100
AcDbEntity
  8
0
100
AcDbLine
 10
-95.25
 20
-256.75
 30
0.0
 11
-95.25
 21
-236.75
 31
0.0
  0
LINE
  5
21A
330
22
100
AcDbEntity
  8
0
100
AcDbLine
 10
-123.25
 20
-236.75
 30
0.0
 11
-123.25
 21
-256.75
 31
0.0
  0
LINE
  5
21B
330
22
100
AcDbEntity
  8
0
100
AcDbLine
 10
-151.25
 20
-236.75
 30
0.0
 11
-151.25
 21
-256.75
 31
0.0
  0
LINE
  5
21C
330
22
100
AcDbEntity
  8
0
100
AcDbLine
 10
-179.25
 20
-236.75
 30
0.0
 11
-179.25
 21
-256.75
 31
0.0
  0
LINE
  5
21D
330
22
100
AcDbEntity
  8
0
100
AcDbLine
 10
-207.25
 20
-236.75
 30
0.0
 11
-207.25
 21
-256.75
 31
0.0
  0
LINE
  5
21E
330
22
100
AcDbEntity
  8
0
100
AcDbLine
 10
-379.25
 20
-236.75
 30
0.0
 11
-379.25
 21
-256.75
 31
0.0
  0
LINE
  5
21F
330
22
100
AcDbEntity
  8
0
100
AcDbLine
 10
-319.25
 20
-236.75
 30
0.0
 11
-319.25
 21
-256.75
 31
0.0
  0
LINE
  5
220
330
22
100
AcDbEntity
  8
0
100
AcDbLine
 10
-291.25
 20
-236.75
 30
0.0
 11
-291.25
 21
-256.75
 31
0.0
  0
LINE
  5
221
330
22
100
AcDbEntity
  8
0
100
AcDbLine
 10
-263.25
 20
-236.75
 30
0.0
 11
-263.25
 21
-256.75
 31
0.0
  0
LINE
  5
222
330
22
100
AcDbEntity
  8
0
100
AcDbLine
 10
-235.25
 20
-236.75
 30
0.0
 11
-235.25
 21
-256.75
 31
0.0
  0
LINE
  5
223
330
22
100
AcDbEntity
  8
0
100
AcDbLine
 10
-67.25
 20
-236.75
 30
0.0
 11
-67.25
 21
-256.75
 31
0.0
  0
LINE
  5
224
330
22
100
AcDbEntity
  8
0
100
AcDbLine
 10
-379.25
 20
-236.75
 30
0.0
 11
-67.25
 21
-236.75
 31
0.0
  0
LINE
  5
225
330
22
100
AcDbEntity
  8
0
100
AcDbLine
 10
-379.25
 20
-256.75
 30
0.0
 11
-67.25
 21
-256.75
 31
0.0
  0
LINE
  5
226
330
22
100
AcDbEntity
  8
0
100
AcDbLine
 10
399.799805
 20
276.25
 30
0.0
 11
399.799805
 21
-276.75
 31
0.0
  0
LINE
  5
227
330
22
100
AcDbEntity
  8
0
100
AcDbLine
 10
-399.25
 20
276.25
 30
0.0
 11
-399.25
 21
-276.75
 31
0.0
  0
LINE
  5
228
330
22
100
AcDbEntity
  8
0
100
AcDbLine
 10
-399.25
 20
276.25
 30
0.0
 11
399.799805
 21
276.25
 31
0.0
  0
LINE
  5
229
330
22
100
AcDbEntity
  8
0
100
AcDbLine
 10
-399.25
 20
-276.75
 30
0.0
 11
399.799805
 21
-276.75
 31
0.0
  0
LINE
  5
22A
330
22
100
AcDbEntity
  8
0
100
AcDbLine
 10
239.799988
 20
-251.75
 30
0.0
 11
399.799805
 21
-251.75
 31
0.0
  0
LINE
  5
22B
330
22
100
AcDbEntity
  8
0
100
AcDbLine
 10
239.799988
 20
251.25
 30
0.0
 11
399.799805
 21
251.25
 31
0.0
  0
LINE
  5
22C
330
22
100
AcDbEntity
  8
0
100
AcDbLine
 10
-399.25
 20
251.25
 30
0.0
 11
-239.25
 21
251.25
 31
0.0
  0
LINE
  5
22D
330
22
100
AcDbEntity
  8
0
100
AcDbLine
 10
239.799988
 20
-251.75
 30
0.0
 11
239.799988
 21
-276.75
 31
0.0
  0
LINE
  5
22E
330
22
100
AcDbEntity
  8
0
100
AcDbLine
 10
239.799988
 20
251.25
 30
0.0
 11
239.799988
 21
276.25
 31
0.0
  0
LINE
  5
22F
330
22
100
AcDbEntity
  8
0
100
AcDbLine
 10
-239.25
 20
276.25
 30
0.0
 11
-239.25
 21
251.25
 31
0.0
  0
ARC
  5
230
330
22
100
AcDbEntity
  8
0
 62
     1
100
AcDbCircle
 10
-82.49980200000001
 20
-116.137436
 30
0.0
 40
0.9995930000000001
100
AcDbArc
 50
323.112701
 51
36.88730200000001
  0
ARC
  5
231
330
22
100
AcDbEntity
  8
0
 62
     1
100
AcDbCircle
 10
-80.900818
 20
-114.937439
 30
0.0
 40
0.9995930000000001
100
AcDbArc
 50
143.112701
 51
216.887299
  0
ARC
  5
232
330
22
100
AcDbEntity
  8
0
 62
     1
100
AcDbCircle
 10
117.503708
 20
-122.137436
 30
0.0
 40
0.9973479999999998
100
AcDbArc
 50
323.015869
 51
36.984116
  0
ARC
  5
233
330
22
100
AcDbEntity
  8
0
 62
     1
100
AcDbCircle
 10
119.09697
 20
-120.937439
 30
0.0
 40
0.9973479999999998
100
AcDbArc
 50
143.015884
 51
216.9841160000001
  0
CIRCLE
  5
234
330
22
100
AcDbEntity
  8
0
 62
     4
100
AcDbCircle
 10
-107.252533
 20
-115.544128
 30
0.0
 40
1.5
  0
CIRCLE
  5
235
330
22
100
AcDbEntity
  8
0
 62
     4
100
AcDbCircle
 10
92.74736
 20
-121.544128
 30
0.0
 40
1.5
  0
ARC
  5
236
330
22
100
AcDbEntity
  8
0
100
AcDbCircle
 10
295.739746
 20
-7.947433
 30
0.0
 40
2.100006
100
AcDbArc
 50
0.0
 51
179.999954
  0
ARC
  5
237
330
22
100
AcDbEntity
  8
0
100
AcDbCircle
 10
305.339752
 20
-8.147429999999999
 30
0.0
 40
1.400001999999999
100
AcDbArc
 50
270.0
 51
90.0
  0
ARC
  5
238
330
22
100
AcDbEntity
  8
0
100
AcDbCircle
 10
301.73764
 20
-7.945525999999999
 30
0.0
 40
2.097874
100
AcDbArc
 50
34.826813
 51
180.0520939999999
  0
ARC
  5
239
330
22
100
AcDbEntity
  8
0
100
AcDbCircle
 10
299.992554
 20
123.955368
 30
0.0
 40
2.002809999999999
100
AcDbArc
 50
180.080322
 51
269.919678
  0
ARC
  5
23A
330
22
100
AcDbEntity
  8
0
100
AcDbCircle
 10
303.489258
 20
123.953049
 30
0.0
 40
2.000488
100
AcDbArc
 50
270.013977
 51
359.986023
  0
CIRCLE
  5
23B
330
22
100
AcDbEntity
  8
0
100
AcDbCircle
 10
296.742065
 20
50.955872
 30
0.0
 40
8.5
  0
CIRCLE
  5
23C
330
22
100
AcDbEntity
  8
0
 62
     2
100
AcDbCircle
 10
296.742065
 20
50.955872
 30
0.0
 40
6.25
  0
CIRCLE
  5
23D
330
22
100
AcDbEntity
  8
0
100
AcDbCircle
 10
296.742065
 20
50.955872
 30
0.0
 40
7.0
  0
ARC
  5
23E
330
22
100
AcDbEntity
  8
0
 62
     4
100
AcDbCircle
 10
301.739746
 20
-8.1521
 30
0.0
 40
2.049987999999999
100
AcDbArc
 50
0.0
 51
179.999969
  0
CIRCLE
  5
23F
330
22
100
AcDbEntity
  8
0
 62
     4
100
AcDbCircle
 10
301.739746
 20
-7.897429999999999
 30
0.0
 40
0.45
  0
CIRCLE
  5
240
330
22
100
AcDbEntity
  8
0
 62
     4
100
AcDbCircle
 10
301.739746
 20
-8.797424000000001
 30
0.0
 40
0.45
  0
CIRCLE
  5
241
330
22
100
AcDbEntity
  8
0
 62
     4
100
AcDbCircle
 10
301.739746
 20
-8.347426999999999
 30
0.0
 40
1.299998999999999
  0
CIRCLE
  5
242
330
22
100
AcDbEntity
  8
0
 62
     4
100
AcDbCircle
 10
301.739746
 20
-7.897429999999999
 30
0.0
 40
0.25
  0
CIRCLE
  5
243
330
22
100
AcDbEntity
  8
0
 62
     4
100
AcDbCircle
 10
301.739746
 20
-8.797424000000001
 30
0.0
 40
0.25
  0
ARC
  5
244
330
22
100
AcDbEntity
  8
0
 62
     4
100
AcDbCircle
 10
295.739746
 20
-8.1521
 30
0.0
 40
2.049987999999999
100
AcDbArc
 50
0.0
 51
179.999969
  0
CIRCLE
  5
245
330
22
100
AcDbEntity
  8
0
 62
     4
100
AcDbCircle
 10
295.739746
 20
-7.897429999999999
 30
0.0
 40
0.45
  0
CIRCLE
  5
246
330
22
100
AcDbEntity
  8
0
 62
     4
100
AcDbCircle
 10
295.739746
 20
-8.797424000000001
 30
0.0
 40
0.45
  0
CIRCLE
  5
247
330
22
100
AcDbEntity
  8
0
 62
     4
100
AcDbCircle
 10
295.739746
 20
-8.347426999999999
 30
0.0
 40
1.299998999999999
  0
CIRCLE
  5
248
330
22
100
AcDbEntity
  8
0
 62
     4
100
AcDbCircle
 10
295.739746
 20
-7.897429999999999
 30
0.0
 40
0.25
  0
CIRCLE
  5
249
330
22
100
AcDbEntity
  8
0
 62
     4
100
AcDbCircle
 10
295.739746
 20
-8.797424000000001
 30
0.0
 40
0.25
  0
CIRCLE
  5
24A
330
22
100
AcDbEntity
  8
0
100
AcDbCircle
 10
-316.252319
 20
102.455856
 30
0.0
 40
4.25
  0
CIRCLE
  5
24B
330
22
100
AcDbEntity
  8
0
 62
     2
100
AcDbCircle
 10
-316.252319
 20
102.455856
 30
0.0
 40
5.0
  0
CIRCLE
  5
24C
330
22
100
AcDbEntity
  8
0
100
AcDbCircle
 10
-311.252319
 20
50.955872
 30
0.0
 40
7.0
  0
CIRCLE
  5
24D
330
22
100
AcDbEntity
  8
0
 62
     2
100
AcDbCircle
 10
-311.252319
 20
50.955872
 30
0.0
 40
6.25
  0
CIRCLE
  5
24E
330
22
100
AcDbEntity
  8
0
100
AcDbCircle
 10
-311.252319
 20
50.955872
 30
0.0
 40
8.5
  0
CIRCLE
  5
24F
330
22
100
AcDbEntity
  8
0
 62
     2
100
AcDbCircle
 10
-321.252319
 20
63.455872
 30
0.0
 40
5.0
  0
CIRCLE
  5
250
330
22
100
AcDbEntity
  8
0
100
AcDbCircle
 10
-321.252319
 20
63.455872
 30
0.0
 40
4.25
  0
ARC
  5
251
330
22
100
AcDbEntity
  8
0
100
AcDbCircle
 10
-317.999512
 20
123.953049
 30
0.0
 40
2.000488
100
AcDbArc
 50
180.0139919999999
 51
269.986023
  0
ARC
  5
252
330
22
100
AcDbEntity
  8
0
100
AcDbCircle
 10
-314.502808
 20
123.955368
 30
0.0
 40
2.002809999999999
100
AcDbArc
 50
270.080322
 51
359.919678
  0
ARC
  5
253
330
22
100
AcDbEntity
  8
0
100
AcDbCircle
 10
-316.247894
 20
-7.945525999999999
 30
0.0
 40
2.097871
100
AcDbArc
 50
359.947876
 51
145.173172
  0
ARC
  5
254
330
22
100
AcDbEntity
  8
0
100
AcDbCircle
 10
-319.850006
 20
-8.147429999999999
 30
0.0
 40
1.400001999999999
100
AcDbArc
 50
90.0
 51
270.0
  0
ARC
  5
255
330
22
100
AcDbEntity
  8
0
100
AcDbCircle
 10
-310.25
 20
-7.947433
 30
0.0
 40
2.100006
100
AcDbArc
 50
0.0
 51
179.999954
  0
ARC
  5
256
330
22
100
AcDbEntity
  8
0
 62
     4
100
AcDbCircle
 10
-318.152832
 20
-8.174605999999998
 30
0.0
 40
0.097215
100
AcDbArc
 50
88.32704900000001
 51
181.665741
  0
ARC
  5
257
330
22
100
AcDbEntity
  8
0
 62
     4
100
AcDbCircle
 10
-318.149475
 20
-8.676895
 30
0.0
 40
0.100526
100
AcDbArc
 50
180.306015
 51
269.6869509999999
  0
ARC
  5
258
330
22
100
AcDbEntity
  8
0
 62
     4
100
AcDbCircle
 10
-316.255127
 20
-8.12973
 30
0.0
 40
2.044904999999999
100
AcDbArc
 50
127.501572
 51
179.935608
  0
ARC
  5
259
330
22
100
AcDbEntity
  8
0
 62
     4
100
AcDbCircle
 10
-316.248657
 20
-8.131591999999999
 30
0.0
 40
2.04868
100
AcDbArc
 50
0.116235
 51
52.44678100000001
  0
ARC
  5
25A
330
22
100
AcDbEntity
  8
0
 62
     4
100
AcDbCircle
 10
-314.352844
 20
-8.674590999999999
 30
0.0
 40
0.102874
100
AcDbArc
 50
271.580902
 51
358.421356
  0
ARC
  5
25B
330
22
100
AcDbEntity
  8
0
 62
     4
100
AcDbCircle
 10
-314.349548
 20
-8.176986999999998
 30
0.0
 40
0.099549
100
AcDbArc
 50
359.740936
 51
90.26346600000001
  0
ARC
  5
25C
330
22
100
AcDbEntity
  8
0
 62
     4
100
AcDbCircle
 10
-312.152832
 20
-8.174605999999998
 30
0.0
 40
0.097215
100
AcDbArc
 50
88.32704900000001
 51
181.665741
  0
ARC
  5
25D
330
22
100
AcDbEntity
  8
0
 62
     4
100
AcDbCircle
 10
-312.149475
 20
-8.676895
 30
0.0
 40
0.100526
100
AcDbArc
 50
180.306015
 51
269.6869509999999
  0
ARC
  5
25E
330
22
100
AcDbEntity
  8
0
 62
     4
100
AcDbCircle
 10
-310.255127
 20
-8.12973
 30
0.0
 40
2.044904999999999
100
AcDbArc
 50
127.501572
 51
179.935608
  0
ARC
  5
25F
330
22
100
AcDbEntity
  8
0
 62
     4
100
AcDbCircle
 10
-310.248657
 20
-8.131591999999999
 30
0.0
 40
2.04868
100
AcDbArc
 50
0.116235
 51
52.44678100000001
  0
ARC
  5
260
330
22
100
AcDbEntity
  8
0
 62
     4
100
AcDbCircle
 10
-308.352844
 20
-8.674590999999999
 30
0.0
 40
0.102874
100
AcDbArc
 50
271.580902
 51
358.421356
  0
ARC
  5
261
330
22
100
AcDbEntity
  8
0
 62
     4
100
AcDbCircle
 10
-308.349548
 20
-8.176986999999998
 30
0.0
 40
0.099549
100
AcDbArc
 50
359.740936
 51
90.26346600000001
  0
CIRCLE
  5
262
330
22
100
AcDbEntity
  8
0
100
AcDbCircle
 10
-50.260208
 20
-3.547439999999999
 30
0.0
 40
2.458499999999999
  0
CIRCLE
  5
263
330
22
100
AcDbEntity
  8
0
100
AcDbCircle
 10
-170.260208
 20
-3.547439999999999
 30
0.0
 40
2.458499999999999
  0
CIRCLE
  5
264
330
22
100
AcDbEntity
  8
0
100
AcDbCircle
 10
-170.260208
 20
62.45256
 30
0.0
 40
2.458499999999999
  0
CIRCLE
  5
265
330
22
100
AcDbEntity
  8
0
100
AcDbCircle
 10
-50.260208
 20
62.45256
 30
0.0
 40
2.458499999999999
  0
CIRCLE
  5
266
330
22
100
AcDbEntity
  8
0
 62
     2
100
AcDbCircle
 10
-50.252533
 20
62.455872
 30
0.0
 40
3.0
  0
CIRCLE
  5
267
330
22
100
AcDbEntity
  8
0
 62
     2
100
AcDbCircle
 10
-170.252533
 20
62.455872
 30
0.0
 40
3.0
  0
CIRCLE
  5
268
330
22
100
AcDbEntity
  8
0
100
AcDbCircle
 10
-218.252502
 20
114.455856
 30
0.0
 40
5.5
  0
CIRCLE
  5
269
330
22
100
AcDbEntity
  8
0
100
AcDbCircle
 10
-218.252502
 20
8.455871999999999
 30
0.0
 40
5.5
  0
CIRCLE
  5
26B
330
22
100
AcDbEntity
  8
0
100
AcDbCircle
 10
177.74736
 20
62.95587199999999
 30
0.0
 40
5.0
  0
CIRCLE
  5
26C
330
22
100
AcDbEntity
  8
0
100
AcDbCircle
 10
197.74736
 20
114.455856
 30
0.0
 40
5.5
  0
CIRCLE
  5
26D
330
22
100
AcDbEntity
  8
0
100
AcDbCircle
 10
197.74736
 20
8.455871999999999
 30
0.0
 40
5.5
  0
CIRCLE
  5
26F
330
22
100
AcDbEntity
  8
0
 62
     2
100
AcDbCircle
 10
-170.252533
 20
-3.544127999999999
 30
0.0
 40
3.0
  0
CIRCLE
  5
270
330
22
100
AcDbEntity
  8
0
 62
     2
100
AcDbCircle
 10
-50.252533
 20
-3.544127999999999
 30
0.0
 40
3.0
  0
CIRCLE
  5
271
330
22
100
AcDbEntity
  8
0
100
AcDbCircle
 10
-218.252502
 20
114.455856
 30
0.0
 40
3.5
  0
CIRCLE
  5
272
330
22
100
AcDbEntity
  8
0
100
AcDbCircle
 10
197.74736
 20
114.455856
 30
0.0
 40
3.5
  0
CIRCLE
  5
273
330
22
100
AcDbEntity
  8
0
100
AcDbCircle
 10
-198.252533
 20
62.95587199999999
 30
0.0
 40
5.0
  0
CIRCLE
  5
274
330
22
100
AcDbEntity
  8
0
100
AcDbCircle
 10
-198.252533
 20
62.95587199999999
 30
0.0
 40
5.0
  0
CIRCLE
  5
275
330
22
100
AcDbEntity
  8
0
100
AcDbCircle
 10
-198.252533
 20
62.95587199999999
 30
0.0
 40
4.307178999999999
  0
CIRCLE
  5
276
330
22
100
AcDbEntity
  8
0
100
AcDbCircle
 10
-204.252518
 20
38.955872
 30
0.0
 40
5.0
  0
CIRCLE
  5
277
330
22
100
AcDbEntity
  8
0
100
AcDbCircle
 10
-204.252518
 20
38.955872
 30
0.0
 40
4.307178999999999
  0
CIRCLE
  5
278
330
22
100
AcDbEntity
  8
0
100
AcDbCircle
 10
-192.252533
 20
38.955872
 30
0.0
 40
5.0
  0
CIRCLE
  5
279
330
22
100
AcDbEntity
  8
0
100
AcDbCircle
 10
-192.252533
 20
38.955872
 30
0.0
 40
4.307178999999999
  0
CIRCLE
  5
27A
330
22
100
AcDbEntity
  8
0
100
AcDbCircle
 10
177.74736
 20
62.95587199999999
 30
0.0
 40
5.0
  0
CIRCLE
  5
27B
330
22
100
AcDbEntity
  8
0
100
AcDbCircle
 10
177.74736
 20
62.95587199999999
 30
0.0
 40
4.307178999999999
  0
CIRCLE
  5
27C
330
22
100
AcDbEntity
  8
0
100
AcDbCircle
 10
171.74736
 20
38.955872
 30
0.0
 40
5.0
  0
CIRCLE
  5
27D
330
22
100
AcDbEntity
  8
0
100
AcDbCircle
 10
171.74736
 20
38.955872
 30
0.0
 40
4.307178999999999
  0
CIRCLE
  5
27E
330
22
100
AcDbEntity
  8
0
100
AcDbCircle
 10
183.74736
 20
38.955872
 30
0.0
 40
5.0
  0
CIRCLE
  5
27F
330
22
100
AcDbEntity
  8
0
100
AcDbCircle
 10
183.74736
 20
38.955872
 30
0.0
 40
4.307178999999999
  0
CIRCLE
  5
280
330
22
100
AcDbEntity
  8
0
 62
     4
100
AcDbCircle
 10
-110.252533
 20
-3.544127999999999
 30
0.0
 40
3.0
  0
ARC
  5
281
330
22
100
AcDbEntity
  8
0
 62
     4
100
AcDbCircle
 10
-110.260208
 20
63.45256
 30
0.0
 40
3.0
100
AcDbArc
 50
0.0
 51
180.0
  0
ARC
  5
282
330
22
100
AcDbEntity
  8
0
 62
     4
100
AcDbCircle
 10
-110.260208
 20
61.45255999999999
 30
0.0
 40
3.0
100
AcDbArc
 50
180.0
 51
0.0
  0
TEXT
  5
283
330
22
100
AcDbEntity
  8
0
100
AcDbText
 10
-94.499718
 20
-236.419998
 30
0.0
 40
6.299999999999999
  1
（ｍｍ）
 41
0.833333
100
AcDbText
  0
TEXT
  5
284
330
22
100
AcDbEntity
  8
0
100
AcDbText
 10
-371.739075
 20
-256.420013
 30
0.0
 40
6.299999999999999
  1
STRETCH
 41
1.052632
100
AcDbText
  0
TEXT
  5
285
330
22
100
AcDbEntity
  8
0
100
AcDbText
 10
-368.58905
 20
-246.419998
 30
0.0
 40
6.299999999999999
  1
STROKE
 41
1.052632
100
AcDbText
  0
TEXT
  5
286
330
22
100
AcDbEntity
  8
0
100
AcDbText
 10
-384.484375
 20
210.649994
 30
0.0
 40
9.0
  1
(WITH SENSOR SWITCH)
 41
1.052632
100
AcDbText
  0
TEXT
  5
287
330
22
100
AcDbEntity
  8
0
100
AcDbText
 10
-119.349716
 20
-256.420013
 30
0.0
 40
6.299999999999999
  1
500
 41
1.052632
100
AcDbText
  0
TEXT
  5
288
330
22
100
AcDbEntity
  8
0
100
AcDbText
 10
-119.349716
 20
-246.419998
 30
0.0
 40
6.299999999999999
  1
700
 41
1.052632
100
AcDbText
  0
TEXT
  5
289
330
22
100
AcDbEntity
  8
0
100
AcDbText
 10
-147.349716
 20
-256.420013
 30
0.0
 40
6.299999999999999
  1
400
 41
1.052632
100
AcDbText
  0
TEXT
  5
28A
330
22
100
AcDbEntity
  8
0
100
AcDbText
 10
-147.349716
 20
-246.419998
 30
0.0
 40
6.299999999999999
  1
600
 41
1.052632
100
AcDbText
  0
TEXT
  5
28B
330
22
100
AcDbEntity
  8
0
100
AcDbText
 10
-175.349716
 20
-256.420013
 30
0.0
 40
6.299999999999999
  1
300
 41
1.052632
100
AcDbText
  0
TEXT
  5
28C
330
22
100
AcDbEntity
  8
0
100
AcDbText
 10
-175.349716
 20
-246.419998
 30
0.0
 40
6.299999999999999
  1
500
 41
1.052632
100
AcDbText
  0
TEXT
  5
28D
330
22
100
AcDbEntity
  8
0
100
AcDbText
 10
-203.349716
 20
-256.420013
 30
0.0
 40
6.299999999999999
  1
200
 41
1.052632
100
AcDbText
  0
TEXT
  5
28E
330
22
100
AcDbEntity
  8
0
100
AcDbText
 10
-203.349716
 20
-246.419998
 30
0.0
 40
6.299999999999999
  1
400
 41
1.052632
100
AcDbText
  0
TEXT
  5
28F
330
22
100
AcDbEntity
  8
0
100
AcDbText
 10
-231.349716
 20
-256.420013
 30
0.0
 40
6.299999999999999
  1
150
 41
1.052632
100
AcDbText
  0
TEXT
  5
290
330
22
100
AcDbEntity
  8
0
100
AcDbText
 10
-231.349716
 20
-246.419998
 30
0.0
 40
6.299999999999999
  1
350
 41
1.052632
100
AcDbText
  0
TEXT
  5
291
330
22
100
AcDbEntity
  8
0
100
AcDbText
 10
-315.349731
 20
-246.419998
 30
0.0
 40
6.299999999999999
  1
200
 41
1.052632
100
AcDbText
  0
TEXT
  5
292
330
22
100
AcDbEntity
  8
0
100
AcDbText
 10
-287.349731
 20
-246.419998
 30
0.0
 40
6.299999999999999
  1
250
 41
1.052632
100
AcDbText
  0
TEXT
  5
293
330
22
100
AcDbEntity
  8
0
100
AcDbText
 10
-259.349731
 20
-246.419998
 30
0.0
 40
6.299999999999999
  1
300
 41
1.052632
100
AcDbText
  0
TEXT
  5
294
330
22
100
AcDbEntity
  8
0
100
AcDbText
 10
-309.049713
 20
-256.420013
 30
0.0
 40
6.299999999999999
  1
0
 41
1.052632
100
AcDbText
  0
TEXT
  5
295
330
22
100
AcDbEntity
  8
0
100
AcDbText
 10
-284.199707
 20
-256.420013
 30
0.0
 40
6.299999999999999
  1
50
 41
1.052632
100
AcDbText
  0
TEXT
  5
296
330
22
100
AcDbEntity
  8
0
100
AcDbText
 10
-259.349731
 20
-256.420013
 30
0.0
 40
6.299999999999999
  1
100
 41
1.052632
100
AcDbText
  0
TEXT
  5
297
330
22
100
AcDbEntity
  8
0
100
AcDbText
 10
-91.349716
 20
-246.419998
 30
0.0
 40
6.299999999999999
  1
800
 41
1.052632
100
AcDbText
  0
TEXT
  5
298
330
22
100
AcDbEntity
  8
0
100
AcDbText
 10
-91.349716
 20
-256.420013
 30
0.0
 40
6.299999999999999
  1
600
 41
1.052632
100
AcDbText
  0
TEXT
  5
299
330
22
100
AcDbEntity
  8
0
100
AcDbText
 10
-261.699707
 20
-234.419998
 30
0.0
 40
6.299999999999999
  1
STRETCH LIST
 41
1.052632
100
AcDbText
  0
TEXT
  5
29A
330
22
100
AcDbEntity
  8
0
100
AcDbText
 10
-384.785309
 20
224.149994
 30
0.0
 40
9.0
  1
MODEL:ORS25*ST(200)
 41
1.052632
100
AcDbText
  0
TEXT
  5
29B
330
22
100
AcDbEntity
  8
0
 62
     3
100
AcDbText
 10
-8.785807999999999
 20
138.732803
 30
0.0
 40
6.299999999999999
  1
STRETCH LINE
 41
1.052632
100
AcDbText
  0
TEXT
  5
29C
330
22
100
AcDbEntity
  8
0
100
AcDbText
 10
-392.285309
 20
256.649994
 30
0.0
 40
9.0
  1
RODLESS CYLINDER
 41
1.052632
100
AcDbText
  0
TEXT
  5
29D
330
22
100
AcDbEntity
  8
0
100
AcDbText
 10
242.014633
 20
-274.5
 30
0.0
 40
12.5
  1
KOGANEI CORP.
 41
1.052632
100
AcDbText
  0
TEXT
  5
29E
330
22
100
AcDbEntity
  8
0
100
AcDbText
 10
282.764496
 20
256.649994
 30
0.0
 40
9.0
  1
Ｖｅｒ．　１．１
 41
0.833333
100
AcDbText
  0
CIRCLE
  5
2B8
330
22
100
AcDbEntity
  8
0
  6
Continuous
100
AcDbCircle
 10
-218.250198
 20
8.45256
 30
0.0
 40
3.5
  0
CIRCLE
  5
2B9
330
22
100
AcDbEntity
  8
0
  6
Continuous
100
AcDbCircle
 10
197.739792
 20
8.45256
 30
0.0
 40
3.5
  0
VIEWPORT
  5
2A4
102
{ACAD_XDICTIONARY
360
2C3
102
}
330
1E
100
AcDbEntity
 67
     1
  8
0
  6
Continuous
100
AcDbViewport
 10
5.655416053111158
 20
3.94208322359821
 30
0.0
 40
12.37154599888118
 41
10.61141816485407
 68
     1
 69
     1
 12
5.655416053111158
 22
3.94208322359821
 13
0.0
 23
0.0
 14
10.0
 24
10.0
 15
10.0
 25
10.0
 16
0.0
 26
0.0
 36
1.0
 17
0.0
 27
0.0
 37
0.0
 42
50.0
 43
0.0
 44
0.0
 45
10.61141816485407
 50
0.0
 51
0.0
 72
   100
 90
    32800
  1

281
     0
 71
     1
 74
     0
110
0.0
120
0.0
130
0.0
111
1.0
121
0.0
131
0.0
112
0.0
122
1.0
132
0.0
 79
     0
146
0.0
  0
VIEWPORT
  5
2A7
102
{ACAD_XDICTIONARY
360
2C5
102
}
330
1E
100
AcDbEntity
 67
     1
  8
0
  6
Continuous
100
AcDbViewport
 10
5.653750051663616
 20
3.94041662141094
 30
0.0
 40
9.046000082661784
 41
6.304666594257505
 68
     2
 69
     2
 12
0.274902499999996
 22
-0.25
 13
0.0
 23
0.0
 14
1.0
 24
1.0
 15
0.0
 25
0.0
 16
0.0
 26
0.0
 36
1.0
 17
0.0
 27
0.0
 37
0.0
 42
50.0
 43
0.0
 44
0.0
 45
561.5826373917322
 50
0.0
 51
0.0
 72
   100
 90
    32800
  1

281
     0
 71
     1
 74
     0
110
0.0
120
0.0
130
0.0
111
1.0
121
0.0
131
0.0
112
0.0
122
1.0
132
0.0
 79
     0
146
0.0
  0
ENDSEC
  0
SECTION
  2
OBJECTS
  0
DICTIONARY
  5
C
330
0
100
AcDbDictionary
281
     1
  3
ACAD_COLOR
350
1B
  3
ACAD_GROUP
350
D
  3
ACAD_LAYOUT
350
19
  3
ACAD_MATERIAL
350
1A
  3
ACAD_MLINESTYLE
350
16
  3
ACAD_PLOTSETTINGS
350
18
  3
ACAD_PLOTSTYLENAME
350
E
  3
ACAD_TABLESTYLE
350
1C
  3
ACDBHEADERROUNDTRIPXREC
350
2BF
  3
AcDbVariableDictionary
350
2BA
  0
DICTIONARY
  5
2AB
330
2
100
AcDbDictionary
280
     1
281
     1
  3
ACAD_LAYERSTATES
360
2AC
  0
DICTIONARY
  5
2C3
330
2A4
100
AcDbDictionary
280
     1
281
     1
  3
ACAD_XREC_ROUNDTRIP
360
2C4
  0
DICTIONARY
  5
2C5
330
2A7
100
AcDbDictionary
280
     1
281
     1
  3
ACAD_XREC_ROUNDTRIP
360
2C6
  0
DICTIONARY
  5
1B
102
{ACAD_REACTORS
330
C
102
}
330
C
100
AcDbDictionary
281
     1
  0
DICTIONARY
  5
D
102
{ACAD_REACTORS
330
C
102
}
330
C
100
AcDbDictionary
281
     1
  0
DICTIONARY
  5
19
102
{ACAD_REACTORS
330
C
102
}
330
C
100
AcDbDictionary
281
     1
  3
Model
350
25
  3
レイアウト1
350
21
  0
DICTIONARY
  5
1A
102
{ACAD_REACTORS
330
C
102
}
330
C
100
AcDbDictionary
281
     1
  0
DICTIONARY
  5
16
102
{ACAD_REACTORS
330
C
102
}
330
C
100
AcDbDictionary
281
     1
  3
Standard
350
17
  0
DICTIONARY
  5
18
102
{ACAD_REACTORS
330
C
102
}
330
C
100
AcDbDictionary
281
     1
  0
ACDBDICTIONARYWDFLT
  5
E
102
{ACAD_REACTORS
330
C
102
}
330
C
100
AcDbDictionary
281
     1
  3
Normal
350
F
100
AcDbDictionaryWithDefault
340
F
  0
DICTIONARY
  5
1C
102
{ACAD_REACTORS
330
C
102
}
330
C
100
AcDbDictionary
281
     1
  3
Standard
350
1D
  0
DICTIONARY
  5
2BF
102
{ACAD_REACTORS
330
C
102
}
330
C
100
AcDbDictionary
281
     1
  0
DICTIONARY
  5
2BA
102
{ACAD_REACTORS
330
C
102
}
330
C
100
AcDbDictionary
281
     1
  3
CTABLESTYLE
350
2BB
  3
DIMASSOC
350
2BC
  3
PROJECTNAME
350
2BD
  0
DICTIONARY
  5
2AC
102
{ACAD_REACTORS
330
2AB
102
}
330
2AB
100
AcDbDictionary
281
     1
  0
XRECORD
  5
2C4
102
{ACAD_REACTORS
330
2C3
102
}
330
2C3
100
AcDbXrecord
280
     1
102
SHADEPLOT
 70
     0
  0
XRECORD
  5
2C6
102
{ACAD_REACTORS
330
2C5
102
}
330
2C5
100
AcDbXrecord
280
     1
102
SHADEPLOT
 70
     0
  0
LAYOUT
  5
25
102
{ACAD_XDICTIONARY
360
2C1
102
}
102
{ACAD_REACTORS
330
19
102
}
330
19
100
AcDbPlotSettings
  1

  2
DocuCentre Color f450
  4

  6

 40
0.0
 41
0.0
 42
0.0
 43
0.0
 44
0.0
 45
0.0
 46
0.0
 47
0.0
 48
0.0
 49
0.0
140
0.0
141
0.0
142
1.0
143
1.0
 70
  1712
 72
     0
 73
     0
 74
     0
  7

 75
     0
147
1.0
148
0.0
149
0.0
100
AcDbLayout
  1
Model
 70
     1
 71
     0
 10
0.0
 20
0.0
 11
12.0
 21
9.0
 12
0.0
 22
0.0
 32
0.0
 14
0.0
 24
0.0
 34
0.0
 15
0.0
 25
0.0
 35
0.0
146
0.0
 13
0.0
 23
0.0
 33
0.0
 16
1.0
 26
0.0
 36
0.0
 17
0.0
 27
1.0
 37
0.0
 76
     0
330
22
  0
LAYOUT
  5
21
102
{ACAD_XDICTIONARY
360
2AE
102
}
102
{ACAD_REACTORS
330
19
102
}
330
19
100
AcDbPlotSettings
  1

  2
DocuCentre Color f450
  4
A4
  6

 40
4.857749938964843
 41
4.942390441894531
 42
4.942413330078125
 43
4.857757568359375
 44
209.9733276367187
 45
297.0106506347656
 46
0.0
 47
0.0
 48
0.0
 49
0.0
140
0.0
141
0.0
142
1.0
143
1.0
 70
   688
 72
     0
 73
     1
 74
     5
  7

 75
    16
147
1.0
148
0.0
149
0.0
100
AcDbLayout
  1
レイアウト1
 70
     1
 71
     1
 10
-0.1912502979669045
 20
-0.1912499975970411
 11
11.50208240418922
 21
8.075416444793461
 12
0.0
 22
0.0
 32
0.0
 14
1.130750010332723
 24
0.7880833242821881
 34
0.0
 15
10.17675009299451
 25
7.092749918539693
 35
0.0
146
0.0
 13
0.0
 23
0.0
 33
0.0
 16
1.0
 26
0.0
 36
0.0
 17
0.0
 27
1.0
 37
0.0
 76
     0
330
1E
331
2A4
1001
ACAD_PSEXT
1000
DocuCentre Color f450
1000
FX DocuCentre Color f450
1000
192.168.41.214
1000

1070
     0
  0
MLINESTYLE
  5
17
102
{ACAD_REACTORS
330
16
102
}
330
16
100
AcDbMlineStyle
  2
STANDARD
 70
     0
  3

 62
   256
 51
90.0
 52
90.0
 71
     2
 49
0.5
 62
   256
  6
BYLAYER
 49
-0.5
 62
   256
  6
BYLAYER
  0
ACDBPLACEHOLDER
  5
F
102
{ACAD_REACTORS
330
E
102
}
330
E
  0
TABLESTYLE
  5
1D
102
{ACAD_REACTORS
330
1C
102
}
330
1C
100
AcDbTableStyle
  3
Standard
 70
     0
 71
     0
 40
0.06
 41
0.06
280
     0
281
     0
  7
STANDARD
140
0.18
170
     2
 62
     0
 63
     7
283
     0
274
    -2
284
     1
 64
     0
275
    -2
285
     1
 65
     0
276
    -2
286
     1
 66
     0
277
    -2
287
     1
 67
     0
278
    -2
288
     1
 68
     0
279
    -2
289
     1
 69
     0
  7
STANDARD
140
0.25
170
     5
 62
     0
 63
     7
283
     0
274
    -2
284
     1
 64
     0
275
    -2
285
     1
 65
     0
276
    -2
286
     1
 66
     0
277
    -2
287
     1
 67
     0
278
    -2
288
     1
 68
     0
279
    -2
289
     1
 69
     0
  7
STANDARD
140
0.18
170
     5
 62
     0
 63
     7
283
     0
274
    -2
284
     1
 64
     0
275
    -2
285
     1
 65
     0
276
    -2
286
     1
 66
     0
277
    -2
287
     1
 67
     0
278
    -2
288
     1
 68
     0
279
    -2
289
     1
 69
     0
  0
DICTIONARYVAR
  5
2BB
102
{ACAD_REACTORS
330
2BA
102
}
330
2BA
100
DictionaryVariables
280
     0
  1
STANDARD
  0
DICTIONARYVAR
  5
2BC
102
{ACAD_REACTORS
330
2BA
102
}
330
2BA
100
DictionaryVariables
280
     0
  1
1
  0
DICTIONARYVAR
  5
2BD
102
{ACAD_REACTORS
330
2BA
102
}
330
2BA
100
DictionaryVariables
280
     0
  1

  0
DICTIONARY
  5
2C1
330
25
100
AcDbDictionary
280
     1
281
     1
  3
ACAD_XREC_ROUNDTRIP
360
2C2
  0
DICTIONARY
  5
2AE
330
21
100
AcDbDictionary
280
     1
281
     1
  3
ACAD_XREC_ROUNDTRIP
360
2C0
  3
ADSK_XREC_LAYOUTTHUMBNAIL
360
2AF
  0
XRECORD
  5
2C2
102
{ACAD_REACTORS
330
2C1
102
}
330
2C1
100
AcDbXrecord
280
     1
102
SHADEPLOT
 70
     0
102
SHADEPLOTRESLEVEL
 70
     2
102
SHADEPLOTCUSTOMDPI
 70
   300
  0
XRECORD
  5
2C0
102
{ACAD_REACTORS
330
2AE
102
}
330
2AE
100
AcDbXrecord
280
     1
102
SHADEPLOT
 70
     0
102
SHADEPLOTRESLEVEL
 70
     2
102
SHADEPLOTCUSTOMDPI
 70
   300
  0
XRECORD
  5
2AF
102
{ACAD_REACTORS
330
2AE
102
}
330
2AE
100
AcDbXrecord
280
     1
310
28000000B40000007F00000001000800000000004C590000000000000000000000010000000000000000000000000000FFFFFF000000000000000000000000000000000000000000000000000000000000000000330000006600000099000000CC000000FF00000000330000333300006633000099330000CC330000FF3300
310
0000660000336600006666000099660000CC660000FF66000000990000339900006699000099990000CC990000FF99000000CC000033CC000066CC000099CC0000CCCC0000FFCC000000FF000033FF000066FF000099FF0000CCFF0000FFFF000000003300330033006600330099003300CC003300FF003300003333003333
310
33006633330099333300CC333300FF33330000663300336633006666330099663300CC663300FF66330000993300339933006699330099993300CC993300FF99330000CC330033CC330066CC330099CC3300CCCC3300FFCC330000FF330033FF330066FF330099FF3300CCFF3300FFFF330000006600330066006600660099
310
006600CC006600FF00660000336600333366006633660099336600CC336600FF33660000666600336666006666660099666600CC666600FF66660000996600339966006699660099996600CC996600FF99660000CC660033CC660066CC660099CC6600CCCC6600FFCC660000FF660033FF660066FF660099FF6600CCFF6600
310
FFFF660000009900330099006600990099009900CC009900FF00990000339900333399006633990099339900CC339900FF33990000669900336699006666990099669900CC669900FF66990000999900339999006699990099999900CC999900FF99990000CC990033CC990066CC990099CC9900CCCC9900FFCC990000FF99
310
0033FF990066FF990099FF9900CCFF9900FFFF99000000CC003300CC006600CC009900CC00CC00CC00FF00CC000033CC003333CC006633CC009933CC00CC33CC00FF33CC000066CC003366CC006666CC009966CC00CC66CC00FF66CC000099CC003399CC006699CC009999CC00CC99CC00FF99CC0000CCCC0033CCCC0066CC
310
CC0099CCCC00CCCCCC00FFCCCC0000FFCC0033FFCC0066FFCC0099FFCC00CCFFCC00FFFFCC000000FF003300FF006600FF009900FF00CC00FF00FF00FF000033FF003333FF006633FF009933FF00CC33FF00FF33FF000066FF003366FF006666FF009966FF00CC66FF00FF66FF000099FF003399FF006699FF009999FF00CC
310
99FF00FF99FF0000CCFF0033CCFF0066CCFF0099CCFF00CCCCFF00FFCCFF0000FFFF0033FFFF0066FFFF0099FFFF00CCFFFF00FFFFFF00000000000D0D0D001A1A1A00282828003535350043434300505050005D5D5D006B6B6B00787878008686860093939300A1A1A100AEAEAE00BBBBBB00C9C9C900D6D6D600E4E4E400
310
F1F1F100FFFFFF0000000000000000000000000000000000000000000000000000000000000000000000000000000000F5F5F5F5F5F5F5F5F5F5F5F5F5F5F5F5F5F5F5F5F5F5F5F5F5F5F5F5F5F5F5F5F5F5F5F5F5F5F5F5F5F5F5F5F5F5F5F5F5F5F5F5F5F5F5F5F5F5F5F5F5F5F5F5F5F5F5F5F5F5F5F5F5F5F5F5F5F5F5
310
F5F5F5F5F5F5F5F5F5F5F5F5F5F5F5F5F5F5F5F5F5F5F5F5F5F5F5F5F5F5F5F5F5F5F5F5F5F5F5F5F5F5F5F5F5F5F5F5F5F5F5F5F5F5F5F5F5F5F5F5F5F5F5F5F5F5F5F5F5F5F5F5F5F5F5F5F5F5F5F5F5F5F5F5F5F5F5F5F5F5F5F5F5F5F5F5F5F5F5F5F5F5E2E2E2E2E2E2E2E2E2E2E2E2E2E2E2E2E2E2E2E2E2E2E2E2E2
310
E2E2E2E2E2E2E2E2E2E2E2E2E2E2E2E2E2E2E2E2E2E2E2E2E2E2E2E2E2E2E2E2E2E2E2E2E2E2E2E2E2E2E2E2E2E2E2E2E2E2E2E2E2E2E2E2E2E2E2E2E2E2E2E2E2E2E2E2E2E2E2E2E2E2E2E2E2E2E2E2E2E2E2E2E2E2E2E2E2E2E2E2E2E2E2E2E2E2E2E2E2E2E2E2E2E2E2E2E2E2E2E2E2E2E2E2E2E2E2E2E2E2E2E2E2E2E2
310
E2E2E2E2E2E2E2E2E2E2E2E2E2E2E2E2E2E2E2E2E2E2E2E2E2F5F5F5E2E2E2E2E2E2E2E2E2E2E2E2E2E2E2E2E2E2E2E2E2E2E2E2E2E2E2E2E2E2E2E2E2E2E2E2E2E2E2E2E2E2E2E2E2E2E2E2E2E2E2E2E2E2E2E2E2E2E2E2E2E2E2E2E2E2E2E2E2E2E2E2E2E2E2E2E2E2E2E2E2E2E2E2E2E2E2E2E2E2E2E2E2E2E2E2E2E2E2
310
E2E2E2E2E2E2E2E2E2E2E2E2E2E2E2E2E2E2E2E2E2E2E2E2E2E2E2E2E2E2E2E2E2E2E2E2E2E2E2E2E2E2E2E2E2E2E2E2E2E2E2E2E2E2E2E2E2E2E2E2E2E2E2E2E2E2E2E2E2E2E2E2E2E2E2E2E2E2F5F5F5E2E2F5F5F5F5F5F5F5F5E2E2E2E2E2E2E2E2E2F5F5F5F5F5F5F5F5F5F5F5F5F5F5F5F5E2E2E2E2E2E2E2E2E2F5F5
310
F5F5F5F5F5F5F5F5F5F5F5F5F5F5E2E2E2E2E2E2E2E2F5F5F5F5F5F5F5F5F5F5F5F5F5F5F5F5E2E2E2E2E2E2E2E2E2F5F5F5F5F5F5F5F5F5F5F5F5F5F5F5F5E2E2E2E2E2E2E2E2F5F5F5F5F5F5F5F5F5F5F5F5F5F5F5F5E2E2E2E2E2E2E2E2E2F5F5F5F5F5F5F5F5F5F5F5F5F5F5F5F5E2E2E2E2E2E2E2E2E2F5F5F5F5F5F5
310
F5F5E2E2F5F5F5E2E2F5E2E2E2E2E2E2E2E2E2E2E2E2E2E2E2E2E2E2E2E2E2E2E2E2E2E2E2E2E2E2E2E2E2E2E2E2E2E2E2E2E2E2E2E2E2E2E2E2E2E2E2E2E2E2E2E2E2E2E2E2E2E2E2E2E2E2E2E2E2E2E2E2E2E2E2E2E2E2E2E2E2E2E2E2E2E2E2E2E2E2E2E2E2E2E2E2E2E2E2E2E2E2E2E2E2E2E2E2E2E2E2E2E2E2E2E2E2
310
E2E2E2E2E2E2E2E2E2E2E2E2E2E2E2E2E2E2E2E2E2E2E2E2E2E2E2E2E2E2E2E2E2E2E2E2E2E2E2E2E2E2E2E2E2E2E2E2E2E2E2E2E2E2F5E2E2F5F5F5E2E2F5E2E2E2E2E2E2E2E2E2E2E2E2E2E2E2E2E2E2E2E2E2E2E2E2E2E2E2E2E2E2E2E2E2E2E2E2E2E2E2E2E2E2E2E2E2E2E2E2E2E2E2E2E2E2E2E2E2E2E2E2E2E2E2E2
310
E2E2E2E2E2E2E2E2E2E2E2E2E2E2E2E2E2E2E2E2E2E2E2E2E2E2E2E2E2E2E2E2E2E2E2E2E2E2E2E2E2E2E2E2E2E2E2E2E2E2E2E2E2E2E2E2E2E2E2E2E2E2E2E2E2E2E2E2E2E2E2E2E2E2E2E2E2E2E2E2E2E2E2E2E2E2E2E2E2E2E2E2E2E2E2E2E2E2E2E2E2E2E2E2E2E2E2F5E2E2F5F5F5E2E2F5E2E2E2E2E2E2E2E2E2E2E2
310
E2E2E2E2E2E2E2E2E2E2E2E2E2E2E2E2E2E2E2E2E2E2E2E2E2E2E2E2E2E2E2E2E2E2E2E2E2E2E2E2E2E2E2E2E2E2E2E2E2E2E2E2E2E2E2E2E2E2E2E2E2E2E2E2E2E2E2E2E2E2E2E2E2E2E2E2E2E2E2E2E2E2E2E2E2E2E2E2E2E2E2E2E2E2E2E2E2E2E2E2E2E2E2E2E2E2E2E2E2E2E2E2E2E2E2E2E2E2E2E2E2E2E2E2E2E2E2
310
E2E2E2E2E2E2E2E2E2E2E2E2E2E2E2E2E2E2E2E2E2E2E2E2E2E2E2E2E2E2E2E2E2F5E2E2F5F5F5E2E2F5E2E2E2E2E2E2E2E2E2E2E2E2E2E2E2E2E2E2E2E2E2E2E2E2E2E2E2E2E2E2E2E2E2E2E2E2E2E2E2E2E2E2E2E2E2E2E2E2E2E2E2E2E2E2E2E2E2E2E2E2E2E2E2E2E2E2E2E2E2E2E2E2E2E2E2E2E2E2E2E2E2E2E2E2E2
310
E2E2E2E2E2E2E2E2E2E2E2E2E2E2E2E2E2E2E2E2E2E2E2E2E2E2E2E2E2E2E2E2E2E2E2E2E2E2E2E2E2E2E2E2E2E2E2E2E2E2E2E2E2E2E2E2E2E2E2E2E2E2E2E2E2E2E2E2E2E2E2E2E2E2E2E2E2E2E2E2E2E2E2E2E2E2F5E2E2F5F5F5E2E2F5E2E2E2E2E2E2E2E2E2E2E2E2E2E2E2E2E2E2E2E2E2E2E2E2E2E2E2E2E2E2E2E2
310
E2E2E2E2E2E2E2E2E2E2E2E2E2E2E2E2E2E2E2E2E2E2E2E2E2E2E2E2E2E2E2E2E2E2E2E2E2E2E2E2E2E2E2E2E2E2E2E2E2E2E2E2E2E2E2E2E2E2E2E2E2E2E2E2E2E2E2E2E2E2E2E2E2E2E2E2E2E2E2E2E2E2E2E2E2E2E2E2E2E2E2E2E2E2E2E2E2E2E2E2E2E2E2E2E2E2E2E2E2E2E2E2E2E2E2E2E2E2E2E2E2E2E2E2E2E2E2
310
E2E2E2E2E2E2E2E2E2E2E2E2F5E2E2F5F5F5E2E2F5E2E2E2E2E2E2E2E2E2E2E2E2E2E2E2E2E2E2E2E2E2E2E2E2E2E2E2E2E2E2E2E2E2E2E2E2E2E2E2E2E2E2E2E2E2E2E2E2E2E2E2E2E2E2E2E2E2E2E2E2E2E2E2E2E2E2E2E2E2E2E2E2E2E2E2E2E2E2E2E2E2E2E2E2E2E2E2E2E2E2E2E2E2E2E2E2E2E2E2E2E2E2E2E2E2E2
310
E2E2E2E2E2E2E2E2E2E2E2E2E2E2E2E2E2E2E2E2E2E2E2E2E2E2E2E2E2E2E2E2E2E2E2E2E2E2E2E2E2E2E2E2E2E2E2E2E2E2E2E2E2E2E2E2E2E2E2E2E2E2E2E2E2F5E2E2F5F5F5E2E2F5E2E2E2E2E2E2E2E2E2E2E2E2E2E2E2E2E2E2E2E2E2E2E2E2E2E2E2E2E2E2E2E2E2E2E2E2E2E2E2E2E2E2E2E2E2E2E2E2E2E2E2E2E2
310
E2E2E2E2E2E2E2E2E2E2E2E2E2E2E2E2E2E2E2E2E2E2E2E2E2E2E2E2E2E2E2E2E2E2E2E2E2E2E2E2E2E2E2E2E2E2E2E2E2E2E2E2E2E2E2E2E2E2E2E2E2E2E2E2E2E2E2E2E2E2E2E2E2E2E2E2E2E2E2E2E2E2E2E2E2E2E2E2E2E2E2E2E2E2E2E2E2E2E2E2E2E2E2E2E2E2E2E2E2E2E2E2E2E2E2E2E2E2F5E2E2F5F5F5E2E2E2
310
E2E2E2E2E2E2E2E2E2E2E2E2E2E2E2E2E2E2E2E2E2E2E2E2E2E2E2E2E2E2E2E2E2E2E2E2E2E2E2E2E2E2E2E2E2E2E2E2E2E2E2E2E2E2E2E2E2E2E2E2E2E2E2E2E2E2E2E2E2E2E2E2E2E2E2E2E2E2E2E2E2E2E2E2E2E2E2E2E2E2E2E2E2E2E2E2E2E2E2E2E2E2E2E2E2E2E2E2E2E2E2E2E2E2E2E2E2E2E2E2E2E2E2E2E2E2E2
310
E2E2E2E2E2E2E2E2E2E2E2E2E2E2E2E2E2E2E2E2E2E2E2E2E2E2E2E2E2E2E2E2E2E2E2E2E2E2E2E2E2E2E2E2E2E2E2F5F5F5E2E2E2E2E2E2E2E2E2E2E2E2E2E2E2E2E2E2E2E2E2E2E2E2E2E2E2E2E2E2E2E2E2E2E2E2E2E2E2E2E2E2E2E2E2E2E2E2E2E2E2E2E2E2E2E2E2E2E2E2E2E2E2E2E2E2E2E2E2E2E2E2E2E2E2E2E2
310
E2E2E2E2E2E2E2E2E2E2E2E2E2E2E2E2E2E2E2E2E2E2E2E2E2E2E2E2E2E2E2E2E2E2E2E2E2E2E2E2E2E2E2E2E2E2E2E2E2E2E2E2E2E2E2E2E2E2E2E2E2E2E2E2E2E2E2E2E2E2E2E2E2E2E2E2E2E2E2E2E2E2E2E2E2E2E2E2E2E2E2E2E2E2E2E2E2E2E2E2F5F5F5E2E2E2E2E2E2E2E2E2E2E2E2E2E2E2E2E2E2E2E2E2E2E2E2
310
E2E2E2E2E2E2E2E2E2E2E2E2E2E2E2E2E2E2E2E2E2E2E2E2E2E2E2E2E2E2E2E2E2E2E2E2E2E2E2E2E2E2E2E2E2E2E2E2E2E2E2E2E2E2E2E2E2E2E2E2E2E2E2E2E2E2E2E2E2E2E2E2E2E2E2E2E2E2E2E2E2E2E2E2E2E2E2E2E2E2E2E2E2E2E2E2E2E2E2E2E2E2E2E2E2E2E2E2E2E2E2E2E2E2E2E2E2E2E2E2E2E2E2E2E2E2E2
310
E2E2E2E2E2E2E2E2E2E2E2E2E2E2E2E2E2E2E2E2E2E2E2E2E2E2F5F5F5E2E2E2E2E2E2E2E2E2E2E2E2E2E2E2E2E2E2E2E2E2E2E2E2E2E2E2E2E2E2E2E2E2E2E2E2E2E2E2E2E2E2E2E2E2E2E2E2E2E2E2E2E2E2E2E2E2E2E2E2E2E2E2E2E2E2E2E2E2E2E2E2E2E2E2E2E2E2E2E2E2E2E2E2E2E2E2E2E2E2E2E2E2E2E2E2E2E2
310
E2E2E2E2E2E2E2E2E2E2E2E2E2E2E2E2E2E2E2E2E2E2E2E2E2E2E2E2E2E2E2E2E2E2E2E2E2E2E2E2E2E2E2E2E2E2E2E2E2E2E2E2E2E2E2E2E2E2E2E2E2E2E2E2E2E2E2E2E2E2E2E2E2E2E2E2E2E2E2F5F5F5E2E2E2E2E2E2E2E2E2E2E2E2E2E2E2E2E2E2E2F5F5F5F5F5F5F5F5F5F5F5F5F5F5F5F5F5F5F5F5F5F5F5F5F5F5
310
F5F5F5F5F5F5F5F5F5F5F5F5F5F5F5F5F5F5F5F5F5F5F5F5F5F5F5F5F5F5F5F5F5F5F5F5F5F5F5F5F5F5F5F5F5F5F5F5F5F5F5F5F5F5F5F5F5F5F5F5F5F5F5F5F5F5F5F5F5F5F5F5F5F5F5F5F5F5F5F5F5F5F5F5F5F5F5F5F5F5F5F5F5F5F5F5F5F5F5F5F5F5F5F5F5F5F5F5F5F5F5F5E2E2E2E2E2E2E2E2E2E2E2E2E2E2E2
310
E2E2E2E2E2F5F5F5E2E2E2E2E2E2E2E2E2E2E2E2E2E2E2E2E2E2E2F5F5F5F5F5F5F5F5F5F5F5F5F5F5F5F5F5F5F5F5F5F5F5F5F5F5F5F5F5F5F5F5F5F5F5F5F5F5F5F5F5F5F5F5F5F5F5F5F5F5F5F5F5F5F5F5F5F5F5F5F5F5F5F5F5F5F5F5F5F5F5F5F5F5F5F5F5F5F5F5F5F5F5F5F5F5F5F5F5F5F5F5F5F5F5F5F5F5F5F5
310
F5F5F5F5F5F5F5F5F5F5F5F5F5F5F5F5F5F5F5F5F5F5F5F5F5F5F5F5F5F5F5F5F5F5F5F5F5F5E2E2E2E2E2E2E2E2E2E2E2E2E2E2E2E2E2E2E2E2F5F5F5E2E2E2E2E2E2E2E2E2E2E2E2E2E2E2E2E2E2E2F5F5E2E2E2E2E2E2E2E2E2E2E2E2E2E2E2E2E2E2E2E2E2E2E2E2E2E2E2E2E2E2E2E2E2E2E2E2E2E2E2E2E2E2E2E2E2
310
E2E2E2E2E2E2E2E2E2E2E2E2E2E2E2E2E2E2E2E2E2E2E2E2E2E2E2E2E2E2E2E2E2E2E2E2E2E2E2E2E2E2E2E2E2E2E2E2E2E2E2E2E2E2E2E2E2E2E2E2E2E2E2F5E2F5E2F5F5F5F5F5F5F5F5F5E2F5E2F5E2F5E2F5F5F5F5F5E2E2F5E2E2E2E2E2E2E2E2E2E2E2E2E2E2E2E2E2E2E2E2F5F5F5E2E2E2E2E2E2E2E2E2E2E2E2E2
310
E2E2E2E2E2E2F5F5E2E2E2E2E2E2E2E2E2E2E2E2E2E2E2E2E2E2E2E2E2E2E2E2E2E2E2E2E2E2E2E2E2E2E2E2E2E2E2E2E2E2E2E2E2E2E2E2E2E2E2E2E2E2E2E2E2E2E2E2E2E2E2E2E2E2E2E2E2E2E2E2E2E2E2E2E2E2E2E2E2E2E2E2E2E2E2E2E2E2E2E2E2E2E2E2E2E2E2E2E2E2E2E2E2E2E2E2F5F5F5F5F5F5F5F5E2F5F5
310
F5F5F5F5E2F5F5F5F5F5F5F5F5F5E2E2F5E2E2E2E2E2E2E2E2E2E2E2E2E2E2E2E2E2E2E2E2F5F5F5E2E2E2E2E2E2E2E2E2E2E2E2E2E2E2E2E2E2E2F5F5E2E2E2F5F5F5F5F5F5F5F5F5F5F5F5F5F5F5F5F5F5F5F5F5F5F5F5F5F5F5F5F5F5F5F5F5F5F5F5F5F5F5F5F5F5F5F5F5F5F5F5F5F5F5F5F5F5E2E2E2E2E2E2E2E2E2
310
E2E2E2E2E2E2E2E2E2E2E2E2E2E2E2E2E2E2E2E2E2E2E2E2E2E2E2E2E2E2E2E2E2E2E2E2E2E2E2E2E2E2F5E2E2E2E2E2E2E2E2E2E2E2E2E2E2E2E2E2E2E2E2E2E2E2E2E2E2F5E2E2E2E2E2E2E2E2E2E2E2E2E2E2E2E2E2E2E2E2F5F5F5E2E2F5E2E2E2E2E2E2E2E2E2E2E2E2E2E2E2E2F5F5E2E2E2F5F5F5F5F5F5F5F5F5F5
310
F5E2F5E2E2F5F5F5F5F5F5F5F5E2F5F5F5F5E2F5F5F5F5E2F5F5F5F5F5E2F5F5F5F5F5F5F5E2F5F5F5F5E2F5E2E2E2E2E2E2E2E2E2E2E2E2E2E2E2E2E2E2E2E2E2E2E2E2E2E2E2E2E2E2E2E2E2E2E2E2E2E2E2E2E2E2E2E2E2E2E2E2E2E2E2F5F5F5F5F5F5F5F5F5F5F5F5F5F5F5F5F5F5F5F5F5F5F5F5F5F5F5F5E2E2E2E2
310
E2E2E2E2E2E2E2E2E2E2E2E2E2F5E2E2F5F5F5E2E2F5E2E2E2E2E2E2E2E2E2E2E2E2E2E2E2E2F5F5E2E2E2F5F5F5F5F5F5F5F5F5F5F5F5F5F5F5F5F5F5F5F5F5F5F5F5F5F5F5F5F5F5F5F5F5F5F5F5F5F5F5F5F5F5F5F5F5F5F5F5F5F5F5F5F5F5E2E2E2E2E2E2E2E2E2E2E2E2E2E2E2E2E2E2E2E2E2E2E2E2E2E2E2E2E2E2
310
E2E2E2E2E2E2E2E2E2E2E2E2E2E2E2E2E2E2E2E2E2E2E2E2E2E2E2E2E2E2E2E2E2E2E2E2E2E2E2E2E2E2E2E2E2E2E2E2F5E2E2E2E2E2E2E2E2E2E2E2E2E2E2E2E2E2F5E2E2F5F5F5E2E2F5E2E2E2E2E2E2E2E2E2E2E2E2E2E2E2E2F5F5E2E2E2F5F5F5F5F5F5F5F5F5F5F5F5F5F5F5F5F5F5F5F5F5F5F5F5F5F5F5F5F5F5F5
310
F5F5F5F5F5F5F5F5F5F5F5F5F5F5F5F5F5F5F5F5F5F5F5E2E2E2E2E2E2E2E2E2E2E2E2E2E2E2E2E2E2E2E2E2E2E2E2E2E2E2E2E2E2E2E2E2E2E2E2E2E2E2E2E2E2E2E2E2E2E2E2E2E2E2E2E2E2E2E2E2E2E2E2E2E2E2E2E2E2E2E2E2E2E2E2E2E2E2E2E2E2F5E2E2E2E2E2E2E2E2E2E2E2E2E2E2E2E2E2F5E2E2F5F5F5E2E2
310
F5E2E2E2E2E2E2E2E2E2E2E2E2E2E2E2E2F5F5E2E2E2E2E2E2E2E2E2E2E2E2E2E2E2E2E2E2E2E2E2E2E2F5F5F5F5F5F5F5F5F5F5F5F5F5E2E2E2E2E2E2E2E2E2E2E2E2E2E2E2F5F5F5F5F5E2E2E2E2E2E2E2E2E2E2E2E2E2E2E2E2E2E2E2E2E2E2E2E2E2E2E2E2E2E2E2E2E2E2E2E2E2E2E2E2E2E2E2E2E2E2E2E2E2E2E2E2
310
E2E2E2E2E2E2E2E2E2E2E2E2E2E2E2E2E2E2E2E2E2E2E2E2E2E2E2F5E2E2E2E2E2E2E2E2E2E2E2E2E2E2E2E2E2F5E2E2F5F5F5E2E2F5E2E2E2E2E2E2E2E2E2E2E2E2E2E2E2E2F5F5E2E2E2E2E2E2E2E2E2E2E2E2E2E2E2E2E2E2E2E2E2E2E2F5F5F5F5F5F5F5F5F5F5F5F5F5E2E2E2E2E2E2E2E2E2E2E2E2E2E2E2E2F5E2F5
310
E2E2E2E2E2E2E2E2E2E2E2E2E2E2E2E2E2E2E2E2E2E2E2E2E2E2E2E2E2E2E2E2E2E2E2E2E2E2E2E2E2E2E2E2E2E2E2E2E2E2E2E2E2E2E2E2E2E2E2E2E2E2E2E2E2E2E2E2E2E2E2E2E2E2E2E2E2E2E2E2F5E2E2E2E2E2E2E2E2E2E2E2E2E2E2E2E2E2F5E2E2F5F5F5E2E2F5E2E2E2E2E2E2E2E2E2E2E2E2E2E2E2E2F5F5E2E2
310
E2E2E2E2E2E2E2E2E2E2E2E2E2E2E2E2E2E2E2E2E2E2E2E2E2E2E2E2E2E2E2E2E2E2E2E2E2E2E2E2E2E2E2E2E2E2E2E2E2E2E2E2E2E2E2E2E2E2E2E2E2E2E2E2E2E2E2E2E2E2E2E2E2E2E2E2E2E2E2E2E2E2E2E2E2E2E2E2E2E2E2E2E2E2E2E2E2E2E2E2E2E2E2E2E2E2E2E2E2E2E2E2E2E2E2E2E2E2E2E2E2E2E2E2E2E2E2
310
E2E2E2E2E2E2F5E2E2E2E2E2E2E2E2E2E2E2E2E2E2E2E2E2F5E2E2F5F5F5E2E2F5E2E2E2E2E2E2E2E2E2E2E2E2E2E2E2E2F5F5E2E2E2E2E2E2E2E2E2E2E2E2E2E2E2E2E2E2E2E2E2E2E2E2E2E2E2E2E2E2E2E2E2E2E2E2E2E2E2E2E2E2E2E2E2E2E2E2E2E2E2E2E2E2E2E2E2E2E2E2E2E2E2E2E2E2E2E2E2E2E2E2E2E2E2E2
310
E2E2E2E2E2E2E2E2E2E2E2E2E2E2E2E2E2E2E2E2E2E2E2E2E2E2E2E2E2E2E2E2E2E2E2E2E2E2E2E2E2E2E2E2E2E2E2E2E2E2E2E2E2E2E2E2E2E2E2F5E2E2E2E2E2E2E2E2E2E2E2E2E2E2E2E2E2F5E2E2F5F5F5E2E2F5E2E2E2E2E2E2E2E2E2E2E2E2E2E2E2E2F5F5E2E2E2E2E2E2E2E2E2E2E2E2E2E2E2E2E2E2E2E2E2E2E2
310
E2E2E2E2E2E2E2E2E2E2E2E2E2E2E2E2E2E2E2E2E2E2E2E2E2E2E2E2E2E2E2E2E2E2E2E2E2E2E2E2E2E2E2E2E2E2E2E2E2E2E2E2E2E2E2E2E2E2E2E2E2E2E2E2E2E2E2E2E2E2E2E2E2E2E2E2E2E2E2E2E2E2E2E2E2E2E2E2E2E2E2E2E2E2E2E2E2E2E2E2E2E2E2E2E2E2E2E2E2E2E2E2F5E2E2E2E2E2E2E2E2E2E2E2E2E2E2
310
E2E2E2F5E2E2F5F5F5E2E2F5E2E2E2E2E2E2E2E2E2E2E2E2E2E2E2E2F5F5E2E2E2E2E2E2E2E2E2E2E2E2E2E2E2E2E2E2E2E2E2E2E2E2E2E2E2E2E2E2E2E2E2E2E2E2E2E2E2E2E2E2E2E2E2E2E2E2E2E2E2E2E2E2E2E2E2E2E2E2E2E2E2E2E2E2E2E2E2E2E2E2E2E2E2E2E2E2E2E2E2E2E2E2E2E2E2E2E2E2E2E2E2E2E2E2E2
310
E2E2E2E2E2E2E2E2E2E2E2E2E2E2E2E2E2E2E2E2E2E2E2E2E2E2E2E2E2E2E2E2E2E2E2E2E2E2F5E2E2E2E2E2E2E2E2E2E2E2E2E2E2E2E2E2F5E2E2F5F5F5E2E2F5E2E2E2E2E2E2E2E2E2E2E2E2E2E2E2E2F5F5E2E2E2E2E2E2E2E2E2E2E2E2E2E2E2E2E2E2E2E2E2E2E2E2E2E2E2E2E2E2E2E2E2E2E2E2E2E2E2E2E2E2E2E2
310
E2E2E2E2E2E2E2E2E2E2E2E2E2E2E2E2E2E2E2E2E2E2E2E2E2E2E2E2E2E2E2E2E2E2E2E2E2E2E2E2E2E2E2E2E2E2E2E2E2E2E2E2E2E2E2E2E2E2E2E2E2E2E2E2E2E2E2E2E2E2E2E2E2E2E2E2E2E2E2E2E2E2E2E2E2E2E2E2E2E2E2F5E2E2E2E2E2E2E2E2E2E2E2E2E2E2E2E2E2F5E2E2F5F5F5E2E2F5E2E2E2E2E2E2E2E2E2
310
E2E2E2E2E2E2E2F5F5E2E2E2E2E2E2E2E2E2E2E2E2E2E2E2E2E2E2E2E2E2E2E2E2E2E2E2E2E2E2E2E2E2E2E2E2E2E2E2E2E2E2E2E2E2E2E2E2E2E2E2E2E2E2E2E2E2E2E2E2E2E2E2E2E2E2E2E2E2E2E2E2E2E2E2E2E2E2E2E2E2E2E2E2E2E2E2E2E2E2E2E2E2E2E2E2E2E2E2E2E2E2E2E2E2E2E2E2E2E2E2E2E2E2E2E2E2E2
310
E2E2E2E2E2E2E2E2E2E2E2E2E2E2E2E2E2F5E2E2E2E2E2E2E2E2E2E2E2E2E2E2E2E2E2F5E2E2F5F5F5E2E2F5E2E2E2E2E2E2E2E2E2E2E2E2E2E2E2E2F5F5E2E2E2E2E2E2E2E2E2E2E2E2E2E2E2E2E2E2E2E2E2E2E2E2E2E2E2E2E2E2E2E2E2E2E2E2E2E2E2E2E2E2E2E2E2E2E2E2E2E2E2E2E2E2E2E2E2E2E2E2E2E2E2E2E2
310
E2E2E2E2E2E2E2E2E2E2E2E2E2E2E2E2E2E2E2E2E2E2E2E2E2E2E2E2E2E2E2E2E2E2E2E2E2E2E2E2E2E2E2E2E2E2E2E2E2E2E2E2E2E2E2E2E2E2E2E2E2E2E2E2E2E2E2E2E2E2F5E2E2E2E2E2E2E2E2E2E2E2E2E2E2E2E2E2F5E2E2F5F5F5E2E2F5E2E2E2E2E2E2E2E2E2E2E2E2E2E2E2E2F5F5E2E2E2E2E2E2E2E2E2E2E2E2
310
E2E2E2E2E2E2E2E2E2E2E2E2E2E2E2E2E2E2E2E2E2E2E2E2E2E2E2E2E2E2E2E2E2E2E2E2E2E2E2E2E2E2E2E2E2E2E2E2E2E2E2E2E2E2E2E2E2E2E2E2E2E2E2E2E2E2E2E2E2E2E2E2E2E2E2E2E2E2E2E2E2E2E2E2E2E2E2E2E2E2E2E2E2E2E2E2E2E2E2E2E2E2E2E2E2E2E2E2E2E2E2E2E2E2E2E2E2E2E2E2E2E2E2F5E2E2E2
310
E2E2E2E2E2E2E2E2E2E2E2E2E2E2F5E2E2F5F5F5E2E2F5E2E2E2E2E2E2E2E2E2E2E2E2E2E2E2E2F5F5E2E2E2E2E2E2E2E2E2E2E2E2E2E2E2E2E2E2E2E2E2E2E2E2E2E2E2E2E2E2E2E2E2E2E2E2E2E2E2E2E2E2E2E2E2E2E2E2E2E2E2E2E2E2E2E2E2E2E2E2E2E2E2E2E2E2E2E2E2E2E2E2E2E2E2E2E2E2E2E2E2E2E2E2E2E2
310
E2E2E2E2E2E2E2E2E2E2E2E2E2E2E2E2E2E2E2E2E2E2E2E2E2E2E2E2E2E2E2E2E2E2E2E2E2E2E2E2E2E2E2E2E2E2E2E2E2F5E2E2E2E2E2E2E2E2E2E2E2E2E2E2E2E2E2F5E2E2F5F5F5E2E2F5E2E2E2E2E2E2E2E2E2E2E2E2E2E2E2E2F5F5E2E2E2E2E2E2E2E2E2E2E2E2E2E2E2E2E2E2E2E2E2E2E2E2E2E2E2E2E2E2E2E2E2
310
E2E2E2E2E2E2E2E2E2E2E2E2E2E2E2E2E2E2E2E2E2E2E2E2E2E2E2E2E2E2E2E2E2E2E2E2E2E2E2E2E2E2E2E2E2E2E2E2E2E2E2E2E2E2E2E2E2E2E2E2E2E2E2E2E2E2E2E2E2E2E2E2E2E2E2E2E2E2E2E2E2E2E2E2E2E2E2E2E2E2E2E2E2E2E2E2E2E2E2E2E2E2F5E2E2E2E2E2E2E2E2E2E2E2E2E2E2E2E2E2F5E2E2F5F5F5E2
310
E2E2E2E2E2E2E2E2E2E2E2E2E2E2E2E2E2E2F5F5E2E2E2E2E2E2E2E2E2E2E2E2E2E2E2E2E2E2E2E2E2E2E2E2E2E2E2E2E2E2E2E2E2E2E2E2E2E2E2E2E2E2E2E2E2E2E2E2E2E2E2E2E2E2E2E2E2E2E2E2E2E2E2E2E2E2E2E2E2E2E2E2E2E2E2E2E2E2E2E2E2E2E2E2E2E2E2E2E2E2E2E2E2E2E2E2E2E2E2E2E2E2E2E2E2E2E2
310
E2E2E2E2E2E2E2E2E2E2E2E2E2E2E2E2E2E2E2E2E2E2E2E2E2E2E2E2F5E2E2E2E2E2E2E2E2E2E2E2E2E2E2E2E2E2E2E2E2F5F5F5E2E2E2E2E2E2E2E2E2E2E2E2E2E2E2E2E2E2E2F5F5E2E2E2E2E2E2E2E2E2E2E2E2E2E2E2E2E2E2E2E2E2E2E2E2E2E2E2E2E2E2E2E2E2E2E2E2E2E2E2E2E2E2E2E2E2E2E2E2E2E2E2E2E2E2
310
E2E2E2E2E2E2E2E2E2E2E2E2E2E2E2E2E2E2E2E2E2E2E2E2E2E2E2E2E2E2E2E2E2E2E2E2E2E2E2E2E2E2E2E2E2E2E2E2E2E2E2E2E2E2E2E2E2E2E2E2E2E2E2E2E2E2E2E2E2E2E2E2E2E2E2E2E2E2E2E2E2F5E2E2E2E2E2E2E2E2E2E2E2E2E2E2E2E2E2E2E2E2F5F5F5E2E2E2E2E2E2E2E2E2E2E2E2E2E2E2E2E2E2E2F5F5E2
310
E2E2E2E2E2E2E2E2E2E2E2E2E2E2E2E2E2E2E2E2E2E2E2E2E2E2E2E2E2E2E2E2E2E2E2E2E2E2E2E2E2E2E2E2E2E2E2E2E2E2E2E2E2E2E2E2E2E2E2E2E2E2E2E2E2E2E2E2E2E2E2E2E2E2E2E2E2E2E2E2E2E2E2E2E2E2E2E2E2E2E2E2E2E2E2E2E2E2E2E2E2E2E2E2E2E2E2E2E2E2E2E2E2E2E2E2E2E2E2E2E2E2E2E2E2E2E2
310
E2E2E2E2E2E2E2F5E2E2E2E2E2E2E2E2E2E2E2E2E2E2E2E2E2E2E2E2F5F5F5E2E2E2E2E2E2E2E2E2E2E2E2E2E2E2E2E2E2E2F5F5E2E2E2E2E2E2E2E2E2E2E2E2E2E2E2E2E2E2E2E2E2E2E2E2E2E2E2E2E2E2DCE2E2E2E2E2E2E2E2E2E2E2E2E2E2E2E2E2DCE2E2E2E2E2E2E2E2E2E2E2E2E2E2E2E2E2E2E2E2E2E2E228E2E2
310
E2E2E2E2E2E2E2E2E2E2E2E2E2E2E2E2E2E2E2E2E2E2E2E2E2E2E2E2E2E2E2E2E2E2E2E2E2E2E2E2E2E2E2E2E2E2E2E2E2E2E2E2E2E2E2E2E2E2E2E2F5E2E2E2E2E2E2E2E2E2E2E2E2E2E2E2E2E2E2E2E2F5F5F5E2E2E2E2E2E2E2E2E2E2E2E2E2E2E2E2E2E2E2F5F5E2E2E2E2E2E2E2E2E2E2E2E2E2E2E2E2E2E2E2E2E2E2
310
E2E2E2E2E2E2E2F5F5F5F5F5F5F5F5F5F5F5F5F5F5F5F5F5F5F5DCF5F5F5F5F5F5F5F5F5F5F5F5F5F5F5F5F5F5F5F5F5F5F528F5F5F5F5F5F5F5F5F5F5F5F5F5F5F5F5F5F5F5F5F5F5F5F5F5F5F5F5F5F5E2E2E2E2E2E2E2E2E2E2E2E2E2E2E2E2E2E2E2E2E2E2E2E2E2E2E2E2E2E2E2E2F5E2E2E2E2E2E2E2E2E2E2E2E2E2
310
E2E2E2E2E2E2E2F5F5F5E2E2E2E2E2E2E2E2E2E2E2E2E2E2E2E2E2E2E2F5F5E2E2E2E2E2E2E2E2E2E2E2E2E2E2E2E2E2E2E2E2E2E2E2E2E2E2E2E2E2F5DCF5E2E2E2E2E2E2E2E2E2E2E2E2E2E2E2E2DCE2E2E2E2E2E2E2E2E2E2E2E2E2E2E2E2E2E2E2E2E2E2E228E2E2E2E2E2E2E2E2E2E2E2E2E2E2E2E2E2E2E2E2E2E2E2
310
E2E2E2F5E2E2F5E2E2E2E2E2E2E2E2E2E2E2E2E2E2E2E2E2E2E2E2E2E2E2E2E2E2E2E2E2E2E2E2F5E2E2E2E2E2E2E2E2E2E2E2E2E2E2E2E2E2E2E2E2F5F5F5E2E2E2E2E2E2E2E2E2E2E2E2E2E2E2E2E2E2E2F5F5E2E2E2E2E2E2E2E2E2E2E2E2E2E2E2E2E2E2E2E2E2E2E2E2E2E2E2E2E2F5F5F5E2E2E2E2E2E2E2E2E2E2E2
310
E2E2E2E2E2DCE2E2E2E2E2E2E2E2E2E2E2E2E2E2E2E2E2E2E2E2E2E2E228E2E2E2E2E2E2E2E2E2E2E2E2E2E2E2E2E2E2E2E2E2E2E2E2E2E2F5F5F5F5E2E2E2E2E2E2E2E2E2E2E2E2E2E2E2E2E2E2E2E2E2E2E2E2E2E2E2E2E2E2E2E2F5E2E2E2E2E2E2E2E2E2E2E2E2E2E2E2E2E2E2E2E2F5F5F5E2E2E2E2E2E2E2E2E2E2E2
310
E2E2E2E2E2E2E2E2F5F5E2E2E2E2E2E2E2E2E2E2E2E2E2E2E2E2E2E2E2E2E2E2E2E2E2E2E2E2E2F5E2F5F5F5F5F5F5F5F5F5F5F5F5F5F5F5F5F5F5F5F5F5F5F5F5F5F5F5F5F5F5F5F5F5F5F5F5F5F5F5F5F528F5F5F5F5F5F5F5F5F52D2DF5F52DBEF5F5F5F5F5F5F5F5F5F5F5F5E2E2F5E2E2E2E2E2E2E2E2E2E2E2E2E2E2
310
E2E2E2E2E2E2E2E2E2E2E2E2E2E2E2E2E2E2F5E2E2E2E2E2E2E2E2E2E2E2E2E2E2E2E2E2E2E2E2F5F5F5E2E2E2E2E2E2E2E2E2E2E2E2E2E2E2E2E2E2E2F5F5E2E2E2E2E2E2E2E2E2E2E2E2E2E2E2E2E2E2E2E2E2E2E2E2E2E2E2E2E2F5E2F5F5F5F5F5F5F5F5F5F5F5F5F5F5F5F5F52D2DF5F52DBEF5F5F5F5F5F5F5F5F5F5
310
F5F5F5F5F5F5F5F528F5F5F5F5F5F5F5F5F5F5F5F5F5F5F5F5F5F5F5F5F5F5F5F5F5F5F5E2E2F5E2E2E2E2E2E2E2E2E2E2E2E2E2E2E2E2E2E2E2E2E2E2E2E2E2E2E2E2E2E2E2E2F5E2E2E2E2E2E2E2E2E2E2E2E2E2E2E2E2E2E2E2E2F5F5F5E2E2F5E2E2E2E2E2E2E2E2E2E2E2E2E2E2E2E2F5F5E2E2E2E2E2E2E2E2E2E2E2
310
E2E2E2E2E2E2E2E2E2E2E2E2E2E2E2E2E2E2F5F5F5F5F5F5F5DCDCF5F5F5F5F5F5F5F5F5F5F5F5F5F5F5F5F5F5F5F5F5F5F5F5F5F5F5F5F5F5F5F5F5F528F5F5F5F5F5F5F5F5F5F5F5F5F5F5F5F5F5F5DCDCDCDCDCF5F5F5F5F5F5F5E2E2E2E2E2E2E2E2E2E2E2E2E2E2E2E2E2E2E2E2E2E2E2E2E2E2E2E2E2E2E2E2F5E2E2
310
E2E2E2E2E2E2E2E2E2E2E2E2E2E2E2F5E2E2F5F5F5E2E2F5E2E2E2E2E2E2E2E2E2E2E2E2E2E2E2E2F5F5E2E2E2E2E2E2E2E2E2E2E2E2E2E2E2E2E2E2E2E2E2E2E2E2E2E2E2E2E2F5F5F5F5F5F5F5F5E2E2E2E2E2E2E2E2E2E2E2DCE2E2E2E2E2E2E2E2E2E2E2F5F5F5F5F5F5F5F5F5F5F5F528F5F5F5F5F5F5F5F5F5F5F5F5
310
F5F5F5F5F5F5F5F5F5F5F5F5F5F5F5F5F5F5E2E2E2E2E2E2E2E2E2E2E2E2E2E2E2E2E2E2E2E2E2E2E2E2E2E2E2E2E2E2E2E2F5E2E2E2E2E2E2E2E2E2E2E2E2E2E2E2E2E2F5E2E2F5F5F5E2E2F5E2E2E2E2E2E2E2E2E2E2E2E2E2E2E2E2F5F5E2E2E2E2E2E2E2E2E2E2E2E2E2E2E2E2E2E2E2E2E2E2E2E2E2E2E2E2E2E2E2E2
310
E2E2E2E2F5F5F5F5F5F5F5F5F5F5F5F5F5F5F5F5F5F5F5F5F5F5F5F5F5E2E2E2E2E2E2E2E2E2E2E228E2E2E2E2E2E2E2E2E2E2E2E2E2E2E2E2E2E2E2E2E2E2E2E2E2E2E2E2E2E2E2E2E2E2E2E2E2E2E2E2E2E2E2E2E2E2E2E2E2E2E2E2E2E2E2E2E2E2E2E2E2E2F5E2E2E2E2E2E2E2E2E2E2E2E2E2E2E2E2E2F5E2E2F5F5F5
310
E2E2F5E2E2E2E2E2E2E2E2E2E2E2E2E2E2E2E2F5F5E2E2E2E2E2E2E2E2E2E2E2E2E2E2E2E2E2E2E2E2E2E2E2E2E2E2E2E2E2E2E2E2E2E2E2E2E2E2E2E2E2E2E2E2E2E2E2E2E2E2E2E2E2E2E2E2E2E2E2E2E2E2E2E2E2E2E2E2E2E2E2E228E2E2E2E2E2E2E2E2E2E2E2E2E2E2E2E2E2E2E2E2E2E2E2E2E2E2E2E2E2E2E2E2E2
310
E2E2E2E2E2E2E2E2E2E2E2E2E2E2E2E2E2E2E2E2E2E2E2E2E2E2E2E2E2F5E2E2E2E2E2E2E2E2E2E2E2E2E2E2E2E2E2F5E2E2F5F5F5E2E2F5E2E2E2E2E2E2E2E2E2E2E2E2E2E2E2E2F5F5E2E2E2E2E2E2E2E2E2E2E2E2E2E2E2E2E2E2E2E2E2E2E2E2E2E2E2E2E2E2E2E2E2E2E2E2E2E2E2E2E2E2E2E2E2E2E2E2E2E2E2E2E2
310
E2E2E2E2E2E2E2E2E2E2E2E2E2E2E2E2E2E2E228E2E2E2E2E2E2E2E2E2E2E2E2E2E2E2E2E2E2E2E2E2E2E2E2E2E2E2E2E2E2E2E2E2E2E2E2E2E2E2E2E2E2E2E2E2E2E2E2E2E2E2E2E2E2E2E2E2E2E2E2E2E2F5E2E2E2E2E2E2E2E2E2E2E2E2E2E2E2E2E2F5E2E2F5F5F5E2E2F5E2E2E2E2E2E2E2E2E2E2E2E2E2E2E2E2F5F5
310
E2E2E2E2E2E2E2E2E2E2E2E2E2E2E2E2E2E2E2E2E2E2E2E2E2E2E2E2E2E2E2E2E2E2E2E2E2E2E2E2E2E2E2E2E2E2E2E2E2E2E2E2E2E2E2E2E2E2E2E2E2E2E2E2E2E2E2E2E2E2E2E228E2E2E2E2E2E2E2E2E2E2E2E2E2E2E2E2E2E2E2E2E2E2E2E2E2E2E2E2E2E2E2E2E2E2E2E2E2E2E2E2E2E2E2E2E2E2E2E2E2E2E2E2E2E2
310
E2E2E2E2E2E2E2E2F5E2E2E2E2E2E2E2E2E2E2E2E2E2E2E2E2E2F5E2E2F5F5F5E2E2F5E2E2E2E2E2E2E2E2E2E2E2E2E2E2E2E2F5F5E2E2E2E2E2E2E2E2E2E2E2E2E2E2E2E2E2E2E2E2E2E2E2E2E2E2E2E2E2E2E2E2E2E2E2E2E2E2E2E2E2E2E2E2E2E2E2E2E2E2E2E2E2E2E2E2E2E2E2E2E2E2E2E2E2E2E2E2E2E2E2E228E2
310
E2E2E2E2E2E2E2E2E2E2E2E2E2E2E2E2E2E2E2E2E2E2E2E2E2E2E2E2E2E2E2E2E2E2E2E2E2E2E2E2E2E2E2E2E2E2E2E2E2E2E2E2E2E2E2E2E2E2E2E2E2F5E2E2E2E2E2E2E2E2E2E2E2E2E2E2E2E2E2F5E2E2F5F5F5E2E2F5E2E2E2E2E2E2E2E2E2E2E2E2E2E2E2E2F5F5E2E2E2E2E2E2E2E2E2E2E2E2E2E2E2E2E2E2E2E2E2
310
E2E2E2E2E2E2E2E2E2E2E2E2E2E2E2E2E2E2E2E2E2E2E2E2E2E2E2E2E2E2E2E2E2E2E2E2E2E2E2E2E2E2E2E2E2E2E2E2E2E2E228E2E2E2E2E2E2E2E2E2E2E2E2E2E2E2E2E2E2E2E2E2E2E2E2E2E2E2E2E2E2E2E2E2E2E2E2E2E2E2E2E2E2E2E2E2E2E2E2E2E2E2E2E2E2E2E2E2E2E2E2E2E2F5E2E2E2E2E2E2E2E2E2E2E2E2
310
E2E2E2E2E2F5E2E2F5F5F5E2E2F5E2E2E2E2E2E2E2E2E2E2E2E2E2E2E2E2F5F5E2E2E2E2E2E2E2E2E2E2E2E2E2E2E2E2E2E2E2E2E2E2E2E2E2E2E2E2E2E2E2E2E2E2E2E2E2E2E2E2E2E2E2E2E2E2E2E2E2E2E2E2E2E2E2E2E2E2E2E2E2E2E2E2E2E2E2E2E2E2E2E228E2E2E2E2E2E2E2E2E2E2E2E2E2E2E2E2E2E2E2E2E2E2
310
E2E2E2E2E2E2E2E2E2E2E2E2E2E2E2E2E2E2E2E2E2E2E2E2E2E2E2E2E2E2E2E2E2E2E2E2E2E2E2E2F5E2E2E2E2E2E2E2E2E2E2E2E2E2E2E2E2E2F5E2E2F5F5F5E2E2F5E2E2E2E2E2E2E2E2E2E2E2E2E2E2E2E2F5F5E2E2E2E2E2E2E2E2E2E2E2E2E2E2E2E2E2E2E2E2E2E2E2E2E2E2E2E2E2E2E2E2E2E2E2E2E2E2E2E2E2E2
310
E2E2E2E2E2E2E2E2E2E2E2E2E2E2E2E2E2E2E2E2E2E2E2E2E2E2E2E2E2E228E2E2E2E2E2E2E2E2E2E2E2E2E2E2E2E2E2E2E2E2E2E2E2E2E2E2E2E2E2E2E2E2E2E2E2E2E2E2E2E2E2E2E2E2E2E2E2E2E2E2E2E2E2E2E2E2E2E2E2E2E2E2F5E2E2E2E2E2E2E2E2E2E2E2E2E2E2E2E2E2F5E2E2F5F5F5E2E2F5E2E2E2E2E2E2E2
310
E2E2E2E2E2E2E2E2E2F5F5E2E2E2E2E2E2E2E2E2E2E2E2E2E2E2E2E2E2E2E2E2E2E2E2E2E2E2E2E2E2E2E2E2E2E2E2E2E2E2E2E2E2E2E2E2E2E2E2E2E2E2E2E2E2E2E2E2E2E2E2E2E2E2E2E2E2E2E2E2E2E2E228E2E2E2E2E2E2E2E2E2E2E2E2E2E2E2E2E2E2E2E2E2E2E2E2E2E2E2E2E2E2E2E2E2E2E2E2E2E2E2E2E2E2E2
310
E2E2E2E2E2E2E2E2E2E2E2E2E2E2E2E2E2E2E2F5E2E2E2E2E2E2E2E2E2E2E2E2E2E2E2E2E2F5E2E2F5F5F5E2E2F5E2E2E2E2E2E2E2E2E2E2E2E2E2E2E2E2F5F5E2E2E2E2E2E2E2E2E2E2E2E2E2E2E2E2E2E2E2E2E2E2E2E2E2E2E2E2E2E2E2E2E2E2E2E2E2E2E2E2E2E2E2E2E2E2E2E2E2E2E2E2E2E2E2E2E2E2E2E2E2E2E2
310
E2E2E2E2E2E2E2E2E228E2E2E2E2E2E2E2E2E2E2E2E2E2E2E2E2E2E2E2E2E2E2E2E2E2E2E2E2E2E2E2E2E2E2E2E2E2E2E2E2E2E2E2E2E2E2E2E2E2E2E2E2E2E2E2E2E2E2E2E2E2E2F5E2E2E2E2E2E2E2E2E2E2E2E2E2E2E2E2E2F5E2E2F5F5F5E2E2F5E2E2E2E2E2E2E2E2E2E2E2E2E2E2E2E2F5F5E2E2E2E2E2E2E2E2E2E2
310
E2E2E2E2E2E2E2E2E2E2E2E2E2E2E2E2E2E2E2E2E2E2E2E2E2E2E2E2E2E2E2E2E2E2E2E2E2E2E2E2E2E2E2E2E2E2E2E2E2E2E2E2E2E2E2E2E2E2E2E2E2E228E2E2E2E2E2E2E2E2E2E2E2E2E2E2E2E2E2E2E2E2E2E2E2E2E2E2E2E2E2E2E2E2E2E2E2E2E2E2E2E2E2E2E2E2E2E2E2E2E2E2E2E2E2E2E2E2E2E2E2E2E2E2F5E2
310
E2E2E2E2E2E2E2E2E2E2E2E2E2E2E2E2F5E2E2F5F5F5E2E2F5E2E2E2E2E2E2E2E2E2E2E2E2E2E2E2E2F5F5E2E2E2E2E2E2E2E2E2E2E2E2E2E2E2E2E2E2E2E2E2E2E2E2E2E2E2E2E2E2E2E2E2E2E2E2E2E2E2E2E2E2E2E2E2E2E2E2E2E2E2E2E2E2E2E2E2E2E2E2E2E2E2E2E2E2E2E2E2E2E2E228E2E2E2E2E2E2E2E2E2E2E2
310
E2E2E2E2E2E2E2E2E2E2E2E2E2E2E2E2E2E2E2E2E2E2E2E2E2E2E2E2E2E2E2E2E2E2E2E2E2E2E2E2E2E2E2E2E2E2E2E2E2E2E2F5E2E2E2E2E2E2E2E2E2E2E2E2E2E2E2E2E2F5E2E2F5F5F5E2E2F5E2E2E2E2E2E2E2E2E2E2E2E2E2E2E2E2F5F5E2E2E2E2E2E2E2E2E2E2E2E2E2E2E2E2E2E2E2E2E2E2E2E2E2E2E2E2E2E2E2
310
E2E2E2E2E2E2E2E2E2E2E2E2E2E2E2E2E2E2E2E2E2E2E2E2E2E2E2E2E2E2E2E2E2E2E2E2E2E2E2E2E228E2E2E2E2E2E2E2E2E2E2E2E2E2E2E2E2E2E2E2E2E2E2E2E2E2E2E2E2E2E2E2E2E2E2E2E2E2E2E2E2E2E2E2E2E2E2E2E2E2E2E2E2E2E2E2E2E2E2E2E2E2E2F5E2E2E2E2E2E2E2E2E2E2E2E2E2E2E2E2E2F5E2E2F5F5
310
F5E2E2E2E2E2E2E2E2E2E2E2E2E2E2E2E2E2E2E2F5F5E2E2E2E2E2E2E2E2E2E2E2E2E2E2E2E2E2E2E2E2E2E2E2E2E2E2E2E2E2E2E2E2E2E2E2E2E2E2E2E2E2E2E2E2E2E2E2E2DCE2E2E2E2E2E2E2E2E2E2E2E2E2E2E2E2E2E2E2E2E2E2E228E2E2E2E2E2E2E2E2E2DCE2E2E2E2E2E2E2E2E2E2E2E2E2E2E2E2E2E2E2E2E2E2
310
E2E2E2E2E2E2E2E2E2E2E2E2E2E2E2E2E2E2E2E2E2E2E2E2E2E2E2E2E2E2F5E2E2E2E2E2E2E2E2E2E2E2E2E2E2E2E2E2E2E2E2F5F5F5E2E2E2E2E2E2E2E2E2E2E2E2E2E2E2E2E2E2E2F5F5E2E2E2E2E2E2E2E2E2E2E2E2E2E2E2E2E2E2E2E2E2E2E2E2E2E2E2E2E2E2E2E2E2E2E2E2E2E2E2E2E2E2E2E2E2E2E2E2DCE2E2E2
310
E2E2E2E2E2E2E2E2E2E2E2E2E2E2E2E2E2E2E2E228E2E2E2E2E2E2E2E2E2DCE2E2E2E2E2E2E2E2E2E2E2E2E2E2E2E2E2E2E2E2E2E2E2E2E2E2E2E2E2E2E2E2E2E2E2E2E2E2E2E2E2E2E2E2E2E2E2E2E2E2E2E2F5E2E2E2E2E2E2E2E2E2E2E2E2E2E2E2E2E2E2E2E2F5F5F5E2E2E2E2E2E2E2E2E2E2E2E2E2E2E2E2E2E2E2F5
310
F5E2E2E2E2E2E2E2E2E2E2F5F5F5F52D2DF5F5E2E2E2E2E2E2E2E2E2E2E2F5F5F5F5F5F5F5F5F5DCF5F5F5F5F5F5F5F5F5DCF5F5F5F5F5F5F5F5F5DCF5F5F5F5F5F5F5F5F5F5F5F5F528F5F5F5F5F5F5F5F5F5DCF5F5F5F5F5F5F5F5F5F5F5F5F5F5F5F5F5F5F5F5E2E2E2E2E2E2E2E2E2E2E2F5F5F52D2DF5F5F5E2E2E2E2
310
E2E2E2E2E2E2E2E2E2F5E2E2E2E2E2E2E2E2E2E2E2E2E2E2E2E2E2E2E2E2F5F5F5E2E2E2E2E2E2E2E2E2E2E2E2E2E2E2E2E2E2E2F5F5E2E2E2E2E2E2E2E2E2E2F5E2F52D2D2DE2F5E2E2E2E2E2E2E2E2E2E2E2F5E2F5F5F5F5F5F5DCDCDCDCDCDCDCDCDCDCDC2D2DDCDCDCDCDCDCDCDCDCDCF5F5F5F5F5F5F5F5F5F5F5F528
310
F5F5F5F5F5F5F5F5F5DCF5F5F5F5F5F5F5F5F5F5F5F5F5F5F5F5F5E2E2F5E2E2E2E2E2E2E2E2E2E2E2F5F5E22D2DF5E2F5E2E2E2E2E2E2E2E2E2E2E2E2E2F5E2E2E2E2E2E2E2E2E2E2E2E2E2E2E2E2E2E2E2E2F5F5F5E2E2E2E2E2E2E2E2E2E2E2E2E2E2E2E2E2E2E2F5F5E2E2E2E2E2E2E2E2E2E2F5DCDCBEBEE2E2F5E2E2
310
E2E2E2E2E2E2E2E2E2F5DCF5E2E2E2E2F5E2DCE2E2E2E2E2E2E2E2E22D2DE2E2E2E2E2E2E2E2DCDCF5E2E2E2E2E2E2E2E2E2E2E228E2E2E2E2E2E2E2E2E2DCE2E2E2E2E2E2E2E2E2E2E2E2E2E2E2E2F5DCE2F5E2E2E2E2E2E2E2E2E2E2E2F5F5E2BEBEE2DCDCE2E2E2E2E2E2E2E2E2E2E2E2E2F5E2E2E2E2E2E2E2E2E2E2E2
310
E2E2E2E2E2E2E2E2E2F5F5F5E2E2E2E2E2E2E2E2E2E2E2E2E2E2E2E2E2E2E2F5F5E2E2E2E2E2E2E2E2E2E2F5DCDCE2E2E2E2F5E2E2E2E2E2E2E2E2E2E2E2F5F5F5F5F5F5F5F5E2DCE2E2E2E2E2E2E2E2E2DCE2E2E2E2E2E2E2E2E2DCE2F5E2E2E2E2E2E2E2E2E2E2E228E2E2E2E2E2E2E2E2E2DCE2E2E2E2E2E2E2E2E2E2E2
310
E2F5F5F5F5F5F5F5DCE2E2E2E2E2E2E2E2E2E2E2F5F5E2E2E2DCDCDCDCE2E2E2E2E2E2E2E2E2E2E2E2F5E2E2E2E2E2E2E2E2E2E2E2E2E2E2E2E2E2E2E2E2F5F5F5E2E2E2E2E2E2E2E2E2E2E2E2E2E2E2E2E2E2E2F5F5E2E2E2E2E2E2E2E2E2E2F5DCDCE2E2E2E2F5E2E2E2E2E2E2E2E2E2E2E2F5F5F5E2E2E2E2F5E2DCE2E2
310
E2E2E2E2E2E2E2DCE2E2E2E2E2E2E2E2E2DCE2F5F5F5F5F5F5F5F5F5F5F5F528F5F5F5F5F5F5F5F5F5DCF5F5F5F5F5F5F5F5F5F5F5F5F5E2E2E2F5F5F5F5E2E2E2E2E2E2E2E2E2E2E2F5F5E2E2E2E2DCDCE2E2E2E2E2E2E2E2E2E2E2E2E2F5E2E2E2E2E2E2E2E2E2E2E2E2E2E2E2E2E2E2E2E2F5F5F5E2E2E2E2E2E2E2E2E2
310
E2E2E2E2E2E2E2E2E2E2F5F5E2E2E2E2E2E2E2E2E2E2F5E2E2E2E2E2E2F5E2E2E2E2E2E2E2E2E2E2E2F5DCF5E2E2E2E2F5E2DCE2E2E2E2E2E2E2E2E2DCE2E2E2E2E2E2E2E2E2DCE2F5E2E2E2E2E2E2E2E2E2E2E228E2E2E2E2E2E2E2E2E2DCE2E2E2E2E2E2E2E2E2E2E2E2F5E2E2E2F5DCE2F5E2E2E2E2E2E2E2E2E2E2E2F5
310
F5E2E2E2E2E2DCE2E2E2E2E2E2E2E2E2E2E2E2E2F5E2E2E2E2E2E2E2E2E2E2E2E2E2E2E2E2E2E2E2E2F5F5F5E2E2E2E2E2E2E2E2E2E2E2E2E2E2E2E2E2E2E2F5F5E2E2E2E2E2E2E2E2E2E2F5E2E2E2E2E2E2F5E2E2E2E2E2E2E2E2E2E2E2F5DCF5E2E2E2E2F5E2DCE2E2E2E2E2E2E2E2E2DCE2E2E2E2E2E2E2E2E2DCE2F5E2
310
E2E2E2E2E2E2E2E2E2E228E2E2E2E2E2E2E2E2E2DCE2E2E2E2E2E2E2E2E2E2E2E2F5E2E2E2F5DCE2F5E2E2E2E2E2E2E2E2E2E2E2F5F5E2E2E2E2E2DCE2E2E2E2E2E2E2E2E2E2E2E2E2F5E2E2E2E2E2E2E2E2E2E2E2E2E2E2E2E2E2E2E2E2F5F5F5E2E2F5E2E2E2E2E2E2E2E2E2E2E2E2E2E2E2E2F5F5E2E2E2E2E2E2E2E2E2
310
E2F5E2E2E2E2E2E2F5E2E2E2E2E2E2E2E2E2E2E2F5DCF5E2E2E2E2F5E2DCE2E2E2E2E2E2E2E2E2DCE2E2E2E2E2E2E2E2E2DCE2F5F5F5F5F5F5F5F5F5F5F5F528F5F5F5F5F5F5F5F5F5DCF5F5F5F5F5F5F5F5F5F5F5F5F5E2E2E2F5DCE2F5E2E2E2E2E2E2E2E2E2E2E2F5F5E2E2E2E2E2DCE2E2E2E2E2E2E2E2E2E2E2E2E2F5
310
E2E2E2E2E2E2E2E2E2E2E2E2E2E2E2E2E2F5E2E2F5F5F5E2E2F5E2E2E2E2E2E2E2E2E2E2E2E2E2E2E2E2F5F5E2E2E2E2E2E2E2E2E2E2F5E2E2E2E2E2E2F5E2E2E2E2E2E2E2E2E2E2E2F5DCF5F5F5F5F5F5E2DCE2E2E2E2E2E2E2E2E2DCE2E2E2E2E2E2E2E2E2DCE2F5F5F5F5F5F5F5F5F5F5F5F528F5F5F5F5F5F5F5F5F5F5
310
F5F5F5F5F5F5F5F5F5F5F5F5F5F5F5F5F5DCE2F5E2E2E2E2E2E2E2E2E2E2E2F5F5E2E2E2E2E2DCE2E2E2E2E2E2E2E2E2E2E2E2E2F5E2E2E2E2E2E2E2E2E2E2E2E2E2E2E2E2E2F5E2E2F5F5F5E2E2F5E2E2E2E2E2E2E2E2E2E2E2E2E2E2E2E2F5F5E2E2E2E2E2E2E2E2E2E2F5E2E2E2F5E2E2F5E2E2E2E2E2E2E2E2E2E2E2F5
310
DCF5F5F5F5F5F5E2DCE2E2E2E2E2E2E2E2E2DCE2E2E2E2E2E2E2E2E2DCE2F5F5F5F5F5F5F5F5F5F5F5F528F5F5F5F5F5F5F5F5F5F5F5F5F5F5F5F5F5F5F5F5F5F5F5F5F5F5F5DCE2F5E2E2E2E2E2E2E2E2E2E2E2F5F5E2F5E2E2E2DCE2E2E2E2E2E2E2E2E2E2E2E2E2F5E2E2E2E2E2E2E2E2E2E2E2E2E2E2E2E2E2F5E2E2F5
310
F5F5E2E2F5E2E2E2E2E2E2E2E2E2E2E2E2E2E2E2E2F5F5E2E2E2E2E2E2E2E2E2E2F5E2E2F5DCF5E2F5E2E2E2E2E2E2E2E2E2E2E2F5DCF5F5E2F5E2F5E2DCE2E2E2E2E2E2E2E2E2DCE2E2E2E2E2E2E2E2E2DCE2F5E2E2E2E2E2E2E2E2E2E2E228E2E2E2E2E2E2E2E2E2DCE2E2E2E2F5F5F5F5F5F5F5F5F5F5E2F5F5DCE2F5E2
310
E2E2E2E2E2E2E2E2E2E2F5F5F5F5F5E2E2DCE2E2E2E2E2E2E2E2E2E2E2E2E2F5E2E2E2E2E2E2E2E2E2E2E2E2E2E2E2E2E2F5E2E2F5F5F5E2E2F5E2E2E2E2E2E2E2E2E2E2E2E2E2E2E2E2F5F5E2E2E2E2E2E2E2E2E2E2F5DCDCF5F5DCF5F5E2E2E2E2E2E2E2E2E2E2E2F5DCF5E2E2E2E2F5E2DCE2E2E2E2E2E2E2E2E2DCE2E2
310
E2E2E2E2E2E2E2DCE2F5E2E2E2E2E2E2E2E2E2E2E228E2E2E2E2E2E2E2E2E2DCE2E2DCDCF5F5F5F5DCDCDCDCDCDCDCDCDCDCDCF5E2E2E2E2E2E2E2E2E2E2E2F5DCF5DCF5F5DCDCE2E2E2E2E2E2E2E2E2E2E2E2E2F5E2E2E2E2E2E2E2E2E2E2E2E2E2E2E2E2E2F5E2E2F5F5F5E2E2F5E2E2E2E2E2E2E2E2E2E2E2E2E2E2E2E2
310
F5F5E2E2E2E2E2E2E2E2E2E2F5DCF5F5F5F5E2F5E2E2E2E2E2E2E2E2E2E2E2F5DCF5F5F5F5F5F5E2DCE2E2E2E2E2E2E2E2E22D2DE2E2E2E2E2E2E2E2DCDCF5F5F5F5F5F5F5F5F5F5F5F528F5F5F5F5F5F5F5F5F5F5F5F5F5F5F5F5F5DCDCDCDCDCF5F5F5F5F5DCE2F5E2E2E2E2E2E2E2E2E2E2E2F5F5F5F5F5DCDCDCDCE2E2
310
E2E2E2E2E2E2E2E2E2E2F5E2E2E2E2E2E2E2E2E2E2E2E2E2E2E2E2E2F5E2E2F5F5F5E2E2F5E2E2E2E2E2E2E2E2E2E2E2E2E2E2E2E2F5F5E2E2E2E2E2E2E2E2E2E2F5DCF5F5DCE2E2F5E2E2E2E2E2E2E2E2E2E2E2F5DCF5E2F5F5E2F5DCDCDCDCDCDCDCDCDCDCDC2D2DDCDCDCDCDCDCDCDCDCDCF5F5F5F5F5F5F5F5F5F5F5F5
310
28F5F5F5F5F5F5F5F5F5F5F5F5F5F5F5F5F5F5F5F5F5F5F5F5F5F5F5DCE2F5E2E2E2E2E2E2E2E2E2E2E2F5F5E2DCE2E2DCDCE2E2E2E2E2E2E2E2E2E2E2E2E2F5E2E2E2E2E2E2E2E2E2E2E2E2E2E2E2E2E2F5E2E2F5F5F5E2E2F5E2E2E2E2E2E2E2E2E2E2E2E2E2E2E2E2F5F5E2E2E2E2E2E2E2E2E2E2F5E2DCF5E2E2E2F5E2
310
E2E2E2E2E2E2E2E2E2E2F5DCF5F5F5F5F5F5E2DCE2E2E2E2E2E2E2E2E2DCE2E2E2E2E2E2E2E2E2DCE2F5F5F5F5F5F5F5F5F5F5F5F528F5F5F5F5F5F5F5F5F5F5F5F5F5F5F5F5F5F5F5F5F5F5F5F5F5F5F5DCE2F5E2E2E2E2E2E2E2E2E2E2E2F5F5E2E2E2E2E2F5E2E2E2E2E2E2E2E2E2E2E2E2E2F5E2E2E2E2E2E2E2E2E2E2
310
E2E2E2E2E2E2E2F5E2E2F5F5F5E2E2F5E2E2E2E2E2E2E2E2E2E2E2E2E2E2E2E2F5F5E2E2E2E2E2E2E2E2E2E2F5E2E2E2E2E2E2F5E2E2E2E2E2E2E2E2E2E2E2F5DCF5E2DCE2E2F5E2E2E2E2E2E2E2E2E2E2E2DCE2E2E2E2E2E2E2E2E2E2E2F5E2E2E2E2E2E2E2E2E2E2E228E2E2E2E2E2E2E2E2E2DCE2E2E2E2E2E2E2E2E2E2
310
E2E2E2E2E2DCF5DCE2F5E2E2E2E2E2E2E2E2E2E2E2F5F5E2E2E2E2E2F5E2E2E2E2E2E2E2E2E2E2E2E2E2F5E2E2E2E2E2E2E2E2E2E2E2E2E2E2E2E2E2F5E2E2F5F5F5E2E2F5E2E2E2E2E2E2E2E2E2E2E2E2E2E2E2E2F5F5E2E2E2E2E2E2E2E2E2E2F5E2E2E2E2E2E2F5E2E2E2E2E2E2E2E2E2E2E2F5DCF5F5F5F5F5F5F5F5F5
310
F5F5F5F5F5F5F5F5F5F5F5F5F5F5F5F5F5F5F5F5F5E2E2E2E2E2E2E2E2E2E2E228E2E2E2E2E2E2E2E2E2DCE2E2E2E2E2E2E2E2E2E2E2E2E2F5F5F5F5DCE2F5E2E2E2E2E2E2E2E2E2E2E2F5F5E2E2E2E2E2F5E2E2E2E2E2E2E2E2E2E2E2E2E2F5E2E2E2E2E2E2E2E2E2E2E2E2E2E2E2E2E2F5E2E2F5F5F5E2E2F5E2E2E2E2E2
310
E2E2E2E2E2E2E2E2E2E2E2F5F5E2E2E2E2E2E2E2E2E2E2F5E2E2E2E2E2E2F5E2E2E2E2E2E2E2E2E2E2E2F5DCF5F5DCF5F5F5F5F5F5F5F5F5F5F5F5F5F5F5F5F5F5F5F5F5F5F5F5F5F5F5F5F5F5F5F5F5F5F5F5F5F528F5F5F5F5F5F5F5F5F5F5F5F5F5F5F5F5F5F5F5F5F5F5F5F5F5DCF5DCE2F5E2E2E2E2E2E2E2E2E2E2E2
310
E2F5E2E2E2E2E2F5E2E2E2E2E2E2E2E2E2E2E2E2E2F5E2E2E2E2E2E2E2E2E2E2E2E2E2E2E2E2E2F5E2E2F5F5F5E2E2F5E2E2E2E2E2E2E2E2E2E2E2E2E2E2E2E2F5F5E2E2E2E2E2E2E2E2E2E2F5E2E2DCE2E2E2F5E2E2E2E2E2E2E2E2E2E2E2F5DCF5F5F5F5F5F5F5F5F5F5F5F5F5F5F5F5F5F5F5F5F5F5F5F5F5F5F5F5F5F5
310
F5F5F5F5F5F5F5F5F5F5F528F5F5F5F5F5F5F5F5F5F5F5F5F5F5F5F5F5F5F5F5F5F5F5F5F5F5F5DCE2F5E2E2E2E2E2E2E2E2E2E2E2E2F5E2E2E2E2E2F5E2E2E2E2E2E2E2E2E2E2E2E2E2F5E2E2E2E2E2E2E2E2E2E2E2E2E2E2E2E2E2F5E2E2F5F5F5E2E2F5E2E2E2E2E2E2E2E2E2E2E2E2E2E2E2E2F5F5E2E2E2E2E2E2E2E2
310
E2E2F5E2E2DCDCE2E2F5E2E2E2E2E2E2E2E2E2E2E2F5DCF5E2E2E2E2E2E2E2E2E2E2E2E2E2E2E2E2DCE2E2E2E2E2E2E2E2E2E2E2E2E2E2E2E2E2E2E2E2E2E2E228E2E2E2E2E2E2E2E2E2DCE2E2E2E2E2E2E2E2E2E2E2E2E2E2E2E2F5DCE2F5E2E2E2E2E2E2E2E2E2E2E2E2F5E2E2E2E2E2F5E2E2E2E2E2E2E2E2E2E2E2E2E2
310
F5E2E2E2E2E2E2E2E2E2E2E2E2E2E2E2E2E2F5E2E2F5F5F5E2E2F5E2E2E2E2E2E2E2E2E2E2E2E2E2E2E2E2F5F5E2E2E2E2E2E2E2E2E2E2F5E2DCDCDCDCE2F5E2E2E2E2E2E2E2E2E2E2E2F5DCF5E2E2E2E2E2E2E2E2E2E2E2E2E2E2E2E2DCE2E2E2E2E2E2E2E2E2E2E2E2E2E2E2E2E2E2E2E2E2E2E228E2E2E2E2E2E2E2E2E2
310
DCE2E2E2E2E2E2E2E2E2E2E2E2E2E2E2E2F5DCE2F5E2E2E2E2E2E2E2E2E2E2E2E2F5E2E2E2E2E2F5E2E2E2E2E2E2E2E2E2E2E2E2E2F5E2E2E2E2E2E2E2E2E2E2E2E2E2E2E2E2E2F5E2E2F5F5F5E2E2F5E2E2E2E2E2E2E2E2E2E2E2E2E2E2E2E2F5F5E2E2E2E2E2E2E2E2E2E2F5E2E2DCE2E2E2F5E2E2E2E2E2E2E2E2E2E2E2
310
F5F5F5F5F5F5F5F5F5F5F5F5F5F5F5F5F5F5F5F5F5F5F5F5F5F5F5F5F5F5F5F5F5F5F5F5F5F5F5F5F5F5F528F5F5F5F5F5F5F5F5F5F5F5F5F5F5F5F5F5F5F5F5F5F5F5F5F5F5F5F5F5F5E2E2E2E2E2E2E2E2E2E2E2E2F5E2E2E2E2E2F5E2E2E2E2E2E2E2E2E2E2E2E2E2F5E2E2E2E2E2E2E2E2E2E2E2E2E2E2E2E2E2F5E2E2
310
F5F5F5E2E2E2E2E2E2E2E2E2E2E2E2E2E2E2E2E2E2E2F5F5E2E2E2E2E2E2E2E2E2E2F5DCE2E2E2E2E2F5E2E2E2E2E2E2E2E2E2E2E2F5F5F5F5F5F5F5F5F5F5F5F5F5F5F5F5F5F5F5F5F5F5F5F5F5F5F5F5F5F5F5F5F5F5F5F5F5F5F5F5F5F5F528F5F5F5F5F5F5F5F5F5F5F5F5F5F5F5F5F5F5F5F5F5F5F5F5F5F5F5F5F5DC
310
E2E2E2E2E2E2E2E2E2E2E2E2F5E2E2E2E2E2F5DCE2E2E2E2E2E2E2E2E2E2E2E2F5E2E2E2E2E2E2E2E2E2E2E2E2E2E2E2E2E2E2E2E2F5F5F5E2E2E2E2E2E2E2E2E2E2E2E2E2E2E2E2E2E2E2F5F5E2E2E2E2E2E2E2E2E2E2F5E2E2F5F5E2E2F5E2E2E2E2E2E2E2E2E2E2E2F5F5F5F5F5F5F5F5F5F5F5F5F5F5F5F5F5F5F5F5F5
310
F5F5F5F5F5F5F5F5F5F5F5F5F5F5F5F5F5F5F5F5F5F528F5F5F5F5F5F5F5F5F5DCF5F5F5F5F5F5F5F5F5F5F5F5F5F5F5F5F5F5E2F5E2E2E2E2E2E2E2E2E2E2E2E2F5E2F5F5F5E2F5E2E2E2E2E2E2E2E2E2E2E2E2E2F5E2E2E2E2E2E2E2E2E2E2E2E2E2E2E2E2E2E2E2E2F5F5F5E2E2E2E2E2E2E2E2E2E2E2E2E2E2E2E2E2E2
310
E2F5F5E2E2E2E2E2E2E2E2E2E2F5F5F5F5F5F5F5F5E2E2E2E2E2E2E2E2E2E2E2F5F5F5F5F5F5F5F5F5F5F5F5F5F5F5F5F5F5F5F5F5F5F5F5F5F5F5F5F5F5F5F5F5F5F5F5F5F5F5F5F5F5F528F5F5F5F5F5F5F5F5F5F5F5F5F5F5F5F5F5F5F5F5F5F5F5F5F5F5F5F5F5F5E2E2E2E2E2E2E2E2E2E2E2E2F5F5F5F5F5F5F5E2E2
310
E2E2E2E2E2E2E2E2E2E2E2F5E2E2E2E2E2E2E2E2E2E2E2E2E2E2E2E2E2E2E2E2F5F5F5E2E2E2E2E2E2E2E2E2E2E2E2E2E2E2E2E2E2E2F5F5E2E2E2E2E2E2E2E2E2E2E2E2E2E2E2E2E2E2E2E2E2E2E2E2E2E2E2E2E2E2E2E2E2E2E2E2E2E2E2E2E2E2E2E2E2E2E2E2DCE2E2E2E2E2E2E2E2E2E2E2E2E2E2E2E2E2E2E2E2E2E2
310
E228E2E2E2E2E2E2E2E2E2DCE2E2E2E2E2E2E2E2E2E2E2E2E2E2E2E2E2E2E2E2E2E2E2E2E2E2E2E2E2E2E2E2E2E2E2E2E2E2E2E2E2E2E2E2E2E2E2E2E2E2E2E2F5E2E2E2E2E2E2E2E2E2E2E2E2E2E2E2E2E2E2E2E2F5F5F5E2E2E2E2E2E2E2E2E2E2E2E2E2E2E2E2E2E2E2F5F5E2E2E2E2E2E2E2E2E2E2E2E2E2E2E2E2E2E2
310
E2E2E2E2E2E2E2E2E2E2E2E2E2E2E2E2E2E2E2E2E2E2E2E2E2E2E2E2E2E2E2E2E2E2E2E2E2E2E2E2E2E2E2E2E2E2E22828282828282828282828282828E2E2E2E2E2E2E2E2E2E2E2E2E2E2E2E2E2E2E2E2E2E2E2E2E2E2E2E2E2E2E2E2E2E2E2E2E2E2E2E2E2E2E2E2E2E2E2E2E2E2E2E2E2E2E2E2F5E2E2E2E2E2E2E2E2E2
310
E2E2E2E2E2E2E2E2E2E2E2F5F5F5E2E2E2E2E2E2E2E2E2E2E2E2E2E2E2E2E2E2E2F5F5E2E2E2E2E2E2E2E2E2E2E2E2E2E2E2E2E2E2E2E2E2E2E2E2E2E2E2E2E2E2E2E2E2E2E2E2E2E2E2E2E2E2E2E2E2E2E2E2E2E2E2E2E2E2E2E2E2E2E2E2E2E2E2E2E22828282828282828282828282828E2E2E2E2E2E2E2E2E2E2E2E2E2
310
E2E2E2E2E2E2E2E2E2E2E2E2E2E2E2E2E2E2E2E2E2E2E2E2E2E2E2E2E2E2E2E2E2E2E2E2E2E2E2E2E2E2E2F5E2E2E2E2E2E2E2E2E2E2E2E2E2E2E2E2E2E2E2E2F5F5F5E2E2E2E2E2E2E2E2E2E2E2E2E2E2E2E2E2E2E2F5F5E2E2E2E2E2E2E2E2E2E2E2E2E2E2E2E2E2E2E2E2E2E2E2E2E2E2E2E2E2E2E2E2E2E2E2E2E2E2E2
310
E2E2E2E2E2E2E2E2E2E2E2E2E2E2E2E2E2E2E2E2E2E2E2E2E2E2E2E2E2E2E2E2E2E2E2E2E2E2E2E2E2E2E2E2E2E2E2E2E2E2E2E2E2E2E2E2E2E2E2E2E2E2E2E2E2E2E2E2E2E2E2E2E2E2E2E2E2E2E2E2E2E2E2E2E2E2E2E2E2E2E2E2E2E2E2E2F5E2E2E2E2E2E2E2E2E2E2E2E2E2E2E2E2E2E2E2E2F5F5F5E2E2E2E2E2E2E2
310
E2E2E2E2E2E2E2E2E2E2E2E2F5F5E2E2E2E2E2E2E2E2E2E2E2E2E2E2E2E2E2E2E2E2E2E2E2E2E2E2E2E2E2E2E2E2E2E2E2E2E2E2E2E2E2E2E2E2E2E2E2E2E2E2E2E2E2E2E2E2E2E2E2E2E2E2E2E2E2E2E2E2E2E2E2E2E2E2E2E2E2E2E2E2E2E2E2E2E2E2E2E2E2E2E2E2E2E2E2E2E2E2E2E2E2E2E2E2E2E2E2E2E2E2E2E2E2
310
E2E2E2E2E2E2E2E2E2E2E2E2E2E2E2E2E2E2E2E2E2E2F5E2E2E2E2E2E2E2E2E2E2E2E2E2E2E2E2E2E2E2E2F5F5F5E2E2E2E2E2E2E2E2E2E2E2E2E2E2E2E2E2E2E2F5F5E2E2E2E2E2E2E2E2E2E2E2E2E2E2E2E2E2E2E2E2E2E2E2E2E2E2E2E2E2E2E2E2E2E2E2E2E2E2E2E2E2E2E2E2E2E2E2E2E2E2E2E2E2E2E2E2E2E2E2E2
310
E2E2E2E2E2E2E2E2E2E2E2E2E2E2E2E2E2E2E2E2E2E2E2E2E2E2E2E2E2E2E2E2E2E2E2E2E2E2E2E2E2E2E2E2E2E2E2E2E2E2E2E2E2E2E2E2E2E2E2E2E2E2E2E2E2E2E2E2E2E2E2E2E2E2E2F5E2E2E2E2E2E2E2E2E2E2E2E2E2E2E2E2E2E2E2E2F5F5F5E2E2F5E2E2E2E2E2E2E2E2E2E2E2E2E2E2E2E2F5F5E2E2E2E2E2E2E2
310
E2E2E2E2E2E2E2E2E2E2E2E2E2E2E2E2E2E2E2E2E2E2E2E2E2E2E2E2E2E2E2E2E2E2E2E2E2E2E2E2E2E2E2E2E2E2E2E2E2E2E2E2E2E2E2E2E2E2E2E2E2E2E2E2E2E2E2E2E2E2E2E2E2E2E2E2E2E2E2E2E2E2E2E2E2E2E2E2E2E2E2E2E2E2E2E2E2E2E2E2E2E2E2E2E2E2E2E2E2E2E2E2E2E2E2E2E2E2E2E2E2E2E2E2E2E2E2
310
E2F5E2E2E2E2E2E2E2E2E2E2E2E2E2E2E2E2E2F5E2E2F5F5F5E2E2F5E2E2E2E2E2E2E2E2E2E2E2E2E2E2E2E2F5F5E2E2E2E2E2E2E2E2E2E2E2E2E2E2E2E2E2E2E2E2E2E2E2E2E2E2E2E2E2E2E2E2E2E2E2E2E2E2E2E2E2E2E2E2E2E2E2E2E2E2E2E2E2E2E2E2E2E2E2E2E2E2E2E2E2E2E2E2E2E2E2E2E2E2E2E2E2E2E2E2E2
310
E2E2E2E2E2E2E2E2E2E2E2E2E2E2E2E2E2E2E2E2E2E2E2E2E2E2E2E2E2E2E2E2E2E2E2E2E2E2E2E2E2E2E2E2E2E2E2E2E2E2E2E2E2E2F5E2E2E2E2E2E2E2E2E2E2E2E2E2E2E2E2E2F5E2E2F5F5F5E2E2F5E2E2E2E2E2E2E2E2E2E2E2E2E2E2E2E2F5F5E2E2E2E2E2E2E2E2E2E2E2E2E2E2E2E2E2E2E2E2E2E2E2E2E2E2E2E2
310
E2E2E2E2E2E2E2E2E2E2E2E2E2E2E2E2E2E2E2E2E2E2E2E2E2E2E2E2E2E2E2E2E2E2E2E2E2E2E2E2E2E2E2E2E2E2E2E2E2E2E2E2E2E2E2E2E2E2E2E2E2E2E2E2E2E2E2E2E2E2E2E2E2E2E2E2E2E2E2E2E2E2E2E2E2E2E2E2E2E2E2E2E2E2E2E2E2E2E2E2E2E2E2E2E2E2E2F5E2E2E2E2E2E2E2E2E2E2E2E2E2E2E2E2E2F5E2
310
E2F5F5F5E2E2F5E2E2E2E2E2E2E2E2E2E2E2E2E2E2E2E2F5F5E2E2E2E2E2E2E2E2E2E2E2E2E2E2E2E2E2E2E2E2E2E2E2E2E2E2E2E2E2E2E2E2E2E2E2E2E2E2E2E2E2E2E2E2E2E2E2E2E2E2E2E2E2E2E2E2E2E2E2E2E2E2E2E2E2E2E2E2E2E2E2E2E2E2E2E2E2E2E2E2E2E2E2E2E2E2E2E2E2E2E2E2E2E2E2E2E2E2E2E2E2E2
310
E2E2E2E2E2E2E2E2E2E2E2E2E2E2E2E2E2E2E2E2E2E2E2E2E2E2E2E2E2E2E2E2E2F5E2E2E2E2E2E2E2E2E2E2E2E2E2E2E2E2E2F5E2E2F5F5F5E2E2F5E2E2E2E2E2E2E2E2E2E2E2E2E2E2E2E2F5F5E2E2E2E2E2E2E2E2E2E2E2E2E2E2E2E2E2E2E2E2E2E2E2E2E2E2E2E2E2E2E2E2E2E2E2E2E2E2E2E2E2E2E2E2E2E2E2E2E2
310
E2E2E2E2E2E2E2E2E2E2E2E2E2E2E2E2E2E2E2E2E2E2E2E2E2E2E2E2E2E2E2E2E2E2E2E2E2E2E2E2E2E2E2E2E2E2E2E2E2E2E2E2E2E2E2E2E2E2E2E2E2E2E2E2E2E2E2E2E2E2E2E2E2E2E2E2E2E2E2E2E2E2E2E2E2E2F5E2E2E2E2E2E2E2E2E2E2E2E2E2E2E2E2E2F5E2E2F5F5F5E2E2F5E2E2E2E2E2E2E2E2E2E2E2E2E2E2
310
E2E2F5F5E2E2E2E2E2E2E2E2E2E2E2E2E2E2E2E2E2E2E2E2E2E2E2E2E2E2E2E2E2E2E2E2E2E2E2E2E2E2E2E2E2E2E2E2E2E2E2E2E2E2E2E2E2E2E2E2E2E2E2E2E2E2E2E2E2E2E2E2E2E2E2E2E2E2E2E2E2E2E2E2E2E2E2E2E2E2E2E2E2E2E2E2E2E2E2E2E2E2E2E2E2E2E2E2E2E2E2E2E2E2E2E2E2E2E2E2E2E2E2E2E2E2E2
310
E2E2E2E2E2E2E2E2E2E2E2E2F5E2E2E2E2E2E2E2E2E2E2E2E2E2E2E2E2E2F5E2E2F5F5F5E2E2F5E2E2E2E2E2E2E2E2E2E2E2E2E2E2E2E2F5F5E2E2E2E2E2E2E2E2E2E2E2E2E2E2E2E2E2E2E2E2E2E2E2E2E2E2E2E2E2E2E2E2E2E2E2E2E2E2E2E2E2E2E2E2E2E2E2E2E2E2E2E2E2E2E2E2E2E2E2E2E2E2E2E2E2E2E2E2E2E2
310
E2E2E2E2E2E2E2E2E2E2E2E2E2E2E2E2E2E2E2E2E2E2E2E2E2E2E2E2E2E2E2E2E2E2E2E2E2E2E2E2E2E2E2E2E2E2E2E2E2E2E2E2E2E2E2E2E2E2E2E2E2E2E2E2E2F5E2E2E2E2E2E2E2E2E2E2E2E2E2E2E2E2E2F5E2E2F5F5F5E2E2F5E2E2E2E2E2E2E2E2E2E2E2E2E2E2E2E2F5F5E2E2F5F5F5F5F5F5F5F5F5F5F5F5F5F5F5
310
F5F5F5E2F5F5F5F5F5F5F5F5F5F5F5E2E2E2E2E2E2E2E2E2E2E2E2E2E2E2E2E2E2E2E2E2E2E2E2E2E2E2E2E2E2E2E2E2E2E2E2E2E2E2E2E2E2E2E2E2E2E2E2E2E2E2E2E2E2E2E2E2E2E2E2E2E2E2E2E2E2E2E2E2E2E2E2E2E2E2E2E2E2E2E2E2E2E2E2E2E2E2E2E2E2E2E2E2E2E2E2E2E2E2E2E2E2E2F5E2E2E2E2E2E2E2E2
310
E2E2E2E2E2E2E2E2E2F5E2E2F5F5F5E2E2F5E2E2E2E2E2E2E2E2E2E2E2E2E2E2E2E2F5F5E2E2F5F5F5F5E2F5F5F5F5F5F5E2F5F5F5F5F5F5E2F5F5F5F5F5F5F5F5F5F5F5E2E2E2E2E2E2E2E2E2E2E2E2E2E2E2E2E2E2E2E2E2E2E2E2E2E2E2E2E2E2E2E2E2E2E2E2E2E2E2E2E2E2E2E2E2E2E2E2E2E2E2E2E2E2E2E2E2E2E2
310
E2E2E2E2E2E2E2E2E2E2E2E2E2E2E2E2E2E2E2E2E2E2E2E2E2E2E2E2E2E2E2E2E2E2E2E2E2E2E2E2E2E2E2E2F5E2E2E2E2E2E2E2E2E2E2E2E2E2E2E2E2E2F5E2E2F5F5F5E2E2F5E2E2E2E2E2E2E2E2E2E2E2E2E2E2E2E2F5F5E2E2F5F5E2F5F5F5F5F5E2F5F5F5F5F5F5F5F5F5E2F5F5F5F5F5F5F5F5F5F5F5E2E2E2E2E2E2
310
E2E2E2E2E2E2E2E2E2E2E2E2E2E2E2E2E2E2E2E2E2E2E2E2E2E2E2E2E2E2E2E2E2E2E2E2E2E2E2E2E2E2E2E2E2E2E2E2E2E2E2E2E2E2E2E2E2E2E2E2E2E2E2E2E2E2E2E2E2E2E2E2E2E2E2E2E2E2E2E2E2E2E2E2E2E2E2E2E2E2E2E2E2E2E2E2E2F5E2E2E2E2E2E2E2E2E2E2E2E2E2E2E2E2E2F5E2E2F5F5F5E2E2F5E2E2E2
310
E2E2E2E2E2E2E2E2E2E2E2E2E2F5F5E2E2F5F5F5F5F5F5F5F5F5F5F5F5F5F5F5F5F5F5F5F5F5F5F5F5F5F5F5F5E2E2E2E2E2E2E2E2E2E2E2E2E2E2E2E2E2E2E2E2E2E2E2E2E2E2E2E2E2E2E2E2E2E2E2E2E2E2E2E2E2E2E2E2E2E2E2E2E2E2E2E2E2E2E2E2E2E2E2E2E2E2E2E2E2E2E2E2E2E2E2E2E2E2E2E2E2E2E2E2E2E2
310
E2E2E2E2E2E2E2E2E2E2E2E2E2E2E2E2E2E2E2E2E2E2E2F5E2E2E2E2E2E2E2E2E2E2E2E2E2E2E2E2E2F5E2E2F5F5F5E2E2F5E2E2E2E2E2E2E2E2E2E2E2E2E2E2E2E2F5F5E2E2F5F5F5F5F5F5F5E2F5F5F5F5F5F5F5F5F5F5F5F5F5F5F5F5F5F5F5F5E2E2E2E2E2E2E2E2E2E2E2E2E2E2E2E2E2E2E2E2E2E2E2E2E2E2E2E2E2
310
E2E2E2E2E2E2E2E2E2E2E2E2E2E2E2E2E2E2E2E2E2E2E2E2E2E2E2E2E2E2E2E2E2E2E2E2E2E2E2E2E2E2E2E2E2E2E2E2E2E2E2E2E2E2E2E2E2E2E2E2E2E2E2E2E2E2E2E2E2E2E2E2E2E2E2E2F5E2E2E2E2E2E2E2E2E2E2E2E2E2E2E2E2E2F5E2E2F5F5F5E2E2F5E2E2E2E2E2E2E2E2E2E2E2E2E2E2E2E2F5F5E2E2E2E2E2E2
310
E2E2E2E2E2E2E2E2E2E2E2E2E2E2E2E2E2E2E2E2E2E2E2E2E2E2E2E2E2E2E2E2E2E2E2E2E2E2E2E2E2E2E2E2E2E2E2E2E2E2E2E2E2E2E2E2E2E2E2E2E2E2E2E2E2E2E2E2E2E2E2E2E2E2E2E2E2E2E2E2E2E2E2E2E2E2E2E2E2E2E2E2E2E2E2E2E2E2E2E2E2E2E2E2E2E2E2E2E2E2E2E2E2E2E2E2E2E2E2E2E2E2E2E2E2E2E2
310
E2E2F5E2E2E2E2E2E2E2E2E2E2E2E2E2E2E2E2E2F5E2E2F5F5F5E2E2F5E2E2E2E2E2E2E2E2E2E2E2E2E2E2E2E2F5F5E2E2E2E2E2E2E2E2E2E2E2E2E2E2E2E2E2E2E2E2E2E2E2E2E2E2E2E2E2E2E2E2E2E2E2E2E2E2E2E2E2E2E2E2E2E2E2E2E2E2E2E2E2E2E2E2E2E2E2E2E2E2E2E2E2E2E2E2E2E2E2E2E2E2E2E2E2E2E2E2
310
E2E2E2E2E2E2E2E2E2E2E2E2E2E2E2E2E2E2E2E2E2E2E2E2E2E2E2E2E2E2E2E2E2E2E2E2E2E2E2E2E2E2E2E2E2E2E2E2E2E2E2E2E2E2E2F5E2E2E2E2E2E2E2E2E2E2E2E2E2E2E2E2E2F5E2E2F5F5F5E2E2F5E2E2E2E2E2E2E2E2E2E2E2E2E2E2E2E2F5F5F5F5F5F5F5F5F5F5F5F5F5F5F5F5F5F5F5F5F5F5F5F5F5F5F5F5F5
310
E2E2E2E2E2E2E2E2E2E2E2E2E2E2E2E2E2E2E2E2E2E2E2E2E2E2E2E2E2E2E2E2E2E2E2E2E2E2E2E2E2E2E2E2E2E2E2E2E2E2E2E2E2E2E2E2E2E2E2E2E2E2E2E2E2E2E2E2E2E2E2E2E2E2E2E2E2E2E2E2E2F5F5F5F5F5F5F5F5F5F5F5F5F5F5F5F5F5F5F5F5F5F5F5F5F5F5F5F5E2E2E2E2E2E2E2E2E2E2E2E2E2E2E2E2E2F5
310
E2E2F5F5F5E2E2E2E2E2E2E2E2E2E2E2E2E2E2E2E2E2E2E2F5F5E2F5F5F5F5F5F5F5F5F5F5F5E2F5F5F5F5F5F5F5F5F5F5F5E2F5F5E2E2E2E2E2E2E2E2E2E2E2E2E2E2E2E2E2E2E2E2E2E2E2E2E2E2E2E2E2E2E2E2E2E2E2E2E2E2E2E2E2E2E2E2E2E2E2E2E2E2E2E2E2E2E2E2E2E2E2E2E2E2E2E2E2E2E2E2E2E2E2E2E2E2
310
E2E2E2E2E2E2E2F5E2E2E2E2E2E2F5E2F5F5F5F5E2E2F5F5E2F5E2E2E2E2E2E2E2E2F5E2E2E2E2E2E2E2E2E2E2E2E2E2E2E2E2E2E2E2E2F5F5F5E2E2E2E2E2E2E2E2E2E2E2E2E2E2E2E2E2E2E2F5F5E2F5F5F5F5F5E2F5F5F5F5F5E2F5F5F5F5E2F5F5F5F5F5F5F5F5F5E2E2E2E2E2E2E2E2E2E2E2E2E2E2E2E2E2E2E2E2E2
310
E2E2E2E2E2E2E2E2E2E2E2E2E2E2E2E2E2E2E2E2E2E2E2E2E2E2E2E2E2E2E2E2E2E2E2E2E2E2E2E2E2E2E2E2E2E2E2E2E2E2E2E2E2E2E2E2E2E2E2E2F5E2E2E2E2E2E2F5F5F5F5F5E2E2E2F5E2E2F5E2E2E2E2E2E2E2E2F5E2E2E2E2E2E2E2E2E2E2E2E2E2E2E2E2E2E2E2E2F5F5F5E2E2E2E2E2E2E2E2E2E2E2E2E2E2E2E2
310
E2E2E2F5F5E2F5F5F5F5F5E2F5F5F5F5F5E2F5F5F5F5E2F5F5F5F5F5F5F5E2F5E2E2E2E2E2E2E2E2E2E2E2E2E2E2E2E2E2E2E2E2E2E2E2E2E2E2E2E2E2E2E2E2E2E2E2E2E2E2E2E2E2E2E2E2E2E2E2E2E2E2E2E2E2E2E2E2E2E2E2E2E2E2E2E2E2E2E2E2E2E2E2E2E2E2E2E2E2E2E2E2E2F5E2E2E2E2E2E2F5F5E2E2E2E2E2
310
E2F5E2E2F5E2E2E2E2E2E2E2E2F5E2E2E2E2E2E2E2E2E2E2E2E2E2E2E2E2E2E2E2E2F5F5F5E2E2E2E2E2E2E2E2E2E2E2E2E2E2E2E2E2E2E2F5F5F5F5F5F5F5F5F5F5F5F5F5F5F5F5F5F5F5F5F5F5F5F5F5F5F5F5F5F5F5F5F5F5F5F5F5F5F5F5F5F5F5F5F5F5F5F5F5F5F5F5F5F5F5F5F5F5F5F5F5F5F5F5F5F5F5F5F5F5F5
310
F5F5F5F5F5F5F5F5F5F5F5F5F5F5F5F5F5F5F5F5F5F5F5F5F5F5F5F5F5F5F5F5F5F5F5F5F5F5F5F5F5F5F5F5F5F5F5F5F5F5F5F5F5F5F5F5F5F5F5F5F5F5F5F5F5F5F5E2E2E2E2E2E2E2E2E2E2E2E2E2E2E2E2E2E2E2E2F5F5F5E2E2E2E2E2E2E2E2E2E2E2E2E2E2E2E2E2E2E2F5F5F5F5F5F5F5F5F5F5F5F5F5F5F5F5F5F5
310
F5F5F5F5F5F5F5F5F5F5F5F5F5F5F5F5F5F5F5F5F5F5F5F5F5F5F5F5F5F5F5F5F5F5F5F5F5F5F5F5F5F5F5F5F5F5F5F5F5F5F5F5F5F5F5F5F5F5F5F5F5F5F5F5F5F5F5F5F5F5F5F5F5F5F5F5F5F5F5F5F5F5F5F5F5F5F5F5F5F5F5F5F5F5F5F5F5F5F5F5F5F5F5F5F5F5F5F5F5F5F5F5F5F5F5F5F5F5F5F5E2E2E2E2E2E2E2
310
E2E2E2E2E2E2E2E2E2E2E2E2E2F5F5F5E2E2E2E2E2E2E2E2E2E2E2E2E2E2E2E2E2E2E2E2E2E2E2E2E2E2E2E2E2E2E2E2E2E2E2E2E2E2E2E2E2E2E2E2E2E2E2E2E2E2E2E2E2E2E2E2E2E2E2E2E2E2E2E2E2E2E2E2E2E2E2E2E2E2E2E2E2E2E2E2E2E2E2E2E2E2E2E2E2E2E2E2E2E2E2E2E2E2E2E2E2E2E2E2E2E2E2E2E2E2E2
310
E2E2E2E2E2E2E2E2E2E2E2E2E2E2E2E2E2E2E2E2E2E2E2E2E2E2E2E2E2E2E2E2E2E2E2E2E2E2E2E2E2E2E2E2E2E2E2E2E2E2E2E2E2E2E2E2E2E2E2E2E2E2E2E2E2E2F5F5F5E2E2E2E2E2E2E2E2E2E2E2E2E2E2E2E2E2E2E2E2E2E2E2E2E2E2E2E2E2E2E2E2E2E2E2E2E2E2E2E2E2E2E2E2E2E2E2E2E2E2E2E2E2E2E2E2E2E2
310
E2E2E2E2E2E2E2E2E2E2E2E2E2E2E2E2E2E2E2E2E2E2E2E2E2E2E2E2E2E2E2E2E2E2E2E2E2E2E2E2E2E2E2E2E2E2E2E2E2E2E2E2E2E2E2E2E2E2E2E2E2E2E2E2E2E2E2E2E2E2E2E2E2E2E2E2E2E2E2E2E2E2E2E2E2E2E2E2E2E2E2E2E2E2E2E2E2E2E2E2E2E2E2E2E2E2E2E2E2E2E2E2E2E2E2E2E2E2E2F5F5F5E2E2E2E2E2
310
E2E2E2E2E2E2E2E2E2E2E2E2E2E2E2E2E2E2E2E2E2E2E2E2E2E2E2E2E2E2E2E2E2E2E2E2E2E2E2E2E2E2E2E2E2E2E2E2E2E2E2E2E2E2E2E2E2E2E2E2E2E2E2E2E2E2E2E2E2E2E2E2E2E2E2E2E2E2E2E2E2E2E2E2E2E2E2E2E2E2E2E2E2E2E2E2E2E2E2E2E2E2E2E2E2E2E2E2E2E2E2E2E2E2E2E2E2E2E2E2E2E2E2E2E2E2E2
310
E2E2E2E2E2E2E2E2E2E2E2E2E2E2E2E2E2E2E2E2E2E2E2E2E2E2E2E2E2E2E2E2E2E2E2E2E2E2E2E2E2E2E2E2E2F5F5F5E2E2E2E2E2E2E2E2E2E2E2E2E2E2E2E2E2E2E2E2E2E2E2E2E2E2E2E2E2E2E2E2E2E2E2E2E2E2E2E2E2E2E2E2E2E2E2E2E2E2E2E2E2E2E2E2E2E2E2E2E2E2E2E2E2E2E2E2E2E2E2E2E2E2E2E2E2E2E2
310
E2E2E2E2E2E2E2E2E2E2E2E2E2E2E2E2E2E2E2E2E2E2E2E2E2E2E2E2E2E2E2E2E2E2E2E2E2E2E2E2E2E2E2E2E2E2E2E2E2E2E2E2E2E2E2E2E2E2E2E2E2E2E2E2E2E2E2E2E2E2E2E2E2E2E2E2E2E2E2E2E2E2E2E2E2E2E2E2E2E2E2E2E2E2E2E2E2E2F5F5F5E2E2F5E2E2E2E2E2E2E2E2E2E2E2E2E2E2E2E2E2E2E2E2E2E2E2
310
E2E2E2E2E2E2E2E2E2E2E2E2E2E2E2E2E2E2E2E2E2E2E2E2E2E2E2E2E2E2E2E2E2E2E2E2E2E2E2E2E2E2E2E2E2E2E2E2E2E2E2E2E2E2E2E2E2E2E2E2E2E2E2E2E2E2E2E2E2E2E2E2E2E2E2E2E2E2E2E2E2E2E2E2E2E2E2E2E2E2E2E2E2E2E2E2E2E2E2E2E2E2E2E2E2E2E2E2E2E2E2E2E2E2E2E2E2E2E2E2E2E2E2E2E2E2E2
310
E2E2E2E2E2E2E2E2E2E2E2E2E2E2E2E2E2E2E2E2E2F5E2E2F5F5F5E2E2F5E2E2E2E2E2E2E2E2E2E2E2E2E2E2E2E2E2E2E2E2E2E2E2E2E2E2E2E2E2E2E2E2E2E2E2E2E2E2E2E2E2E2E2E2E2E2E2E2E2E2E2E2E2E2E2E2E2E2E2E2E2E2E2E2E2E2E2E2E2E2E2E2E2E2E2E2E2E2E2E2E2E2E2E2E2E2E2E2E2E2E2E2E2E2E2E2E2
310
E2E2E2E2E2E2E2E2E2E2E2E2E2E2E2E2E2E2E2E2E2E2E2E2E2E2E2E2E2E2E2E2E2E2E2E2E2E2E2E2E2E2E2E2E2E2E2E2E2E2E2E2E2E2E2E2E2E2E2E2E2E2E2E2E2E2E2E2E2E2E2E2E2E2F5E2E2F5F5F5E2E2F5E2E2E2E2E2E2E2E2E2E2E2E2E2E2E2E2E2E2E2E2E2E2E2E2E2E2E2E2E2E2E2E2E2E2E2E2E2E2E2E2E2E2E2E2
310
E2E2E2E2E2E2E2E2E2E2E2E2E2E2E2E2E2E2E2E2E2E2E2E2E2E2E2E2E2E2E2E2E2E2E2E2E2E2E2E2E2E2E2E2E2E2E2E2E2E2E2E2E2E2E2E2E2E2E2E2E2E2E2E2E2E2E2E2E2E2E2E2E2E2E2E2E2E2E2E2E2E2E2E2E2E2E2E2E2E2E2E2E2E2E2E2E2E2E2E2E2E2E2E2E2E2E2E2E2E2E2E2E2E2E2E2E2E2E2E2E2E2E2E2E2E2E2
310
F5E2E2F5F5F5E2E2F5E2E2E2E2E2E2E2E2E2E2E2E2E2E2E2E2E2E2E2E2E2E2E2E2E2E2E2E2E2E2E2E2E2E2E2E2E2E2E2E2E2E2E2E2E2E2E2E2E2E2E2E2E2E2E2E2E2E2E2E2E2E2E2E2E2E2E2E2E2E2E2E2E2E2E2E2E2E2E2E2E2E2E2E2E2E2E2E2E2E2E2E2E2E2E2E2E2E2E2E2E2E2E2E2E2E2E2E2E2E2E2E2E2E2E2E2E2E2
310
E2E2E2E2E2E2E2E2E2E2E2E2E2E2E2E2E2E2E2E2E2E2E2E2E2E2E2E2E2E2E2E2E2E2E2E2E2E2E2E2E2E2E2E2E2E2E2E2E2E2E2E2E2F5E2E2F5F5F5E2E2F5E2E2E2E2E2E2E2E2E2E2E2E2E2E2E2E2E2E2E2E2E2E2E2E2E2E2E2E2E2E2E2E2E2E2E2E2E2E2E2E2E2E2E2E2E2E2E2E2E2E2E2E2E2E2E2E2E2E2E2E2E2E2E2E2E2
310
E2E2E2E2E2E2E2E2E2E2E2E2E2E2E2E2E2E2E2E2E2E2E2E2E2E2E2E2E2E2E2E2E2E2E2E2E2E2E2E2E2E2E2E2E2E2E2E2E2E2E2E2E2E2E2E2E2E2E2E2E2E2E2E2E2E2E2E2E2E2E2E2E2E2E2E2E2E2E2E2E2E2E2E2E2E2E2E2E2E2E2E2E2E2E2E2E2E2E2E2E2E2E2E2E2E2F5E2E2F5F5F5E2E2F5E2E2E2E2E2E2E2E2E2E2E2E2
310
E2E2E2E2E2E2E2E2E2E2E2E2E2E2E2E2E2E2E2E2E2E2E2E2E2E2E2E2E2E2E2E2E2E2E2E2E2E2E2E2E2E2E2E2E2E2E2E2E2E2E2E2E2E2E2E2E2E2E2E2E2E2E2E2E2E2E2E2E2E2E2E2E2E2E2E2E2E2E2E2E2E2E2E2E2E2E2E2E2E2E2E2E2E2E2E2E2E2E2E2E2E2E2E2E2E2E2E2E2E2E2E2E2E2E2E2E2E2E2E2E2E2E2E2E2E2E2
310
E2E2E2E2E2E2E2E2E2E2E2E2E2E2E2E2E2E2E2E2E2E2E2E2E2E2E2E2E2E2E2E2F5E2E2F5F5F5E2E2F5E2E2E2E2E2E2E2E2E2E2E2E2E2E2E2E2E2E2E2E2E2E2E2E2E2E2E2E2E2E2E2E2E2E2E2E2E2E2E2E2E2E2E2E2E2E2E2E2E2E2E2E2E2E2E2E2E2E2E2E2E2E2E2E2E2E2E2E2E2E2E2E2E2E2E2E2E2E2E2E2E2E2E2E2E2E2
310
E2E2E2E2E2E2E2E2E2E2E2E2E2E2E2E2E2E2E2E2E2E2E2E2E2E2E2E2E2E2E2E2E2E2E2E2E2E2E2E2E2E2E2E2E2E2E2E2E2E2E2E2E2E2E2E2E2E2E2E2E2E2E2E2E2E2E2E2E2E2E2E2E2E2E2E2E2E2E2E2E2E2E2E2E2F5E2E2F5F5F5E2E2F5F5F5F5F5F5F5F5E2E2E2E2E2E2E2E2E2F5F5F5F5F5F5F5F5F5F5F5F5F5F5F5F5E2
310
E2E2E2E2E2E2E2E2F5F5F5F5F5F5F5F5F5F5F5F5F5F5F5F5E2E2E2E2E2E2E2E2F5F5F5F5F5F5F5F5F5F5F5F5F5F5F5F5E2E2E2E2E2E2E2E2E2F5F5F5F5F5F5F5F5F5F5F5F5F5F5F5F5E2E2E2E2E2E2E2E2F5F5F5F5F5F5F5F5F5F5F5F5F5F5F5F5E2E2E2E2E2E2E2E2E2F5F5F5F5F5F5F5F5F5F5F5F5F5F5F5F5E2E2E2E2E2
310
E2E2E2E2F5F5F5F5F5F5F5F5E2E2F5F5F5E2E2E2E2E2E2E2E2E2E2E2E2E2E2E2E2E2E2E2E2E2E2E2E2E2E2E2E2E2E2E2E2E2E2E2E2E2E2E2E2E2E2E2E2E2E2E2E2E2E2E2E2E2E2E2E2E2E2E2E2E2E2E2E2E2E2E2E2E2E2E2E2E2E2E2E2E2E2E2E2E2E2E2E2E2E2E2E2E2E2E2E2E2E2E2E2E2E2E2E2E2E2E2E2E2E2E2E2E2E2
310
E2E2E2E2E2E2E2E2E2E2E2E2E2E2E2E2E2E2E2E2E2E2E2E2E2E2E2E2E2E2E2E2E2E2E2E2E2E2E2E2E2E2E2E2E2E2E2E2E2E2E2E2E2E2E2E2E2E2E2E2E2E2E2E2E2E2E2F5F5F5E2E2E2E2E2E2E2E2E2E2E2E2E2E2E2E2E2E2E2E2E2E2E2E2E2E2E2E2E2E2E2E2E2E2E2E2E2E2E2E2E2E2E2E2E2E2E2E2E2E2E2E2E2E2E2E2E2
310
E2E2E2E2E2E2E2E2E2E2E2E2E2E2E2E2E2E2E2E2E2E2E2E2E2E2E2E2E2E2E2E2E2E2E2E2E2E2E2E2E2E2E2E2E2E2E2E2E2E2E2E2E2E2E2E2E2E2E2E2E2E2E2E2E2E2E2E2E2E2E2E2E2E2E2E2E2E2E2E2E2E2E2E2E2E2E2E2E2E2E2E2E2E2E2E2E2E2E2E2E2E2E2E2E2E2E2E2E2E2E2E2E2E2E2E2E2E2E2E2F5EFF5F5F5F5F5
310
F5F5F5F5F5F5F5F5F5F5F5F5F5F5F5F5F5F5F5F5F5F5F5F5F5F5F5F5F5F5F5F5F5F5F5F5F5F5F5F5F5F5F5F5F5F5F5F5F5F5F5F5F5F5F5F5F5F5F5F5F5F5F5F5F5F5F5F5F5F5F5F5F5F5F5F5F5F5F5F5F5F5F5F5F5F5F5F5F5F5F5F5F5F5F5F5F5F5F5F5F5F5F5F5F5F5F5F5F5F5F5F5F5F5F5F5F5F5F5F5F5F5F5F5F5F5F5
310
F5F5F5F5F5F5F5F5F5F5F5F5F5F5F5F5F5F5F5F5F5F5F5F5F5F5F5F5F5F5F5F5F5F5F5F5F5F5F5F5F5F5F5F5F5F5F5EF
  0
ENDSEC
  0
EOF
