  0
SECTION
  2
HEADER
  9
$ACADVER
  1
AC1015
  9
$ACADMAINTVER
 70
    20
  9
$DWGCODEPAGE
  3
ANSI_932
  9
$INSBASE
 10
0.0
 20
0.0
 30
0.0
  9
$EXTMIN
 10
-399.25
 20
-276.75
 30
0.0
  9
$EXTMAX
 10
399.799805
 20
276.25
 30
0.0
  9
$LIMMIN
 10
0.0
 20
0.0
  9
$LIMMAX
 10
12.0
 20
9.0
  9
$ORTHOMODE
 70
     0
  9
$REGENMODE
 70
     1
  9
$FILLMODE
 70
     1
  9
$QTEXTMODE
 70
     0
  9
$MIRRTEXT
 70
     0
  9
$LTSCALE
 40
1.0
  9
$ATTMODE
 70
     1
  9
$TEXTSIZE
 40
0.2
  9
$TRACEWID
 40
0.05
  9
$TEXTSTYLE
  7
STANDARD
  9
$CLAYER
  8
0
  9
$CELTYPE
  6
CONTINUOUS
  9
$CECOLOR
 62
   256
  9
$CELTSCALE
 40
1.0
  9
$DISPSILH
 70
     0
  9
$DIMSCALE
 40
1.0
  9
$DIMASZ
 40
0.18
  9
$DIMEXO
 40
0.0625
  9
$DIMDLI
 40
0.38
  9
$DIMRND
 40
0.0
  9
$DIMDLE
 40
0.0
  9
$DIMEXE
 40
0.18
  9
$DIMTP
 40
0.0
  9
$DIMTM
 40
0.0
  9
$DIMTXT
 40
0.18
  9
$DIMCEN
 40
0.09
  9
$DIMTSZ
 40
0.0
  9
$DIMTOL
 70
     0
  9
$DIMLIM
 70
     0
  9
$DIMTIH
 70
     1
  9
$DIMTOH
 70
     1
  9
$DIMSE1
 70
     0
  9
$DIMSE2
 70
     0
  9
$DIMTAD
 70
     0
  9
$DIMZIN
 70
     0
  9
$DIMBLK
  1

  9
$DIMASO
 70
     1
  9
$DIMSHO
 70
     1
  9
$DIMPOST
  1

  9
$DIMAPOST
  1

  9
$DIMALT
 70
     0
  9
$DIMALTD
 70
     2
  9
$DIMALTF
 40
25.4
  9
$DIMLFAC
 40
1.0
  9
$DIMTOFL
 70
     0
  9
$DIMTVP
 40
0.0
  9
$DIMTIX
 70
     0
  9
$DIMSOXD
 70
     0
  9
$DIMSAH
 70
     0
  9
$DIMBLK1
  1

  9
$DIMBLK2
  1

  9
$DIMSTYLE
  2
Standard
  9
$DIMCLRD
 70
     0
  9
$DIMCLRE
 70
     0
  9
$DIMCLRT
 70
     0
  9
$DIMTFAC
 40
1.0
  9
$DIMGAP
 40
0.09
  9
$DIMJUST
 70
     0
  9
$DIMSD1
 70
     0
  9
$DIMSD2
 70
     0
  9
$DIMTOLJ
 70
     1
  9
$DIMTZIN
 70
     0
  9
$DIMALTZ
 70
     0
  9
$DIMALTTZ
 70
     0
  9
$DIMUPT
 70
     0
  9
$DIMDEC
 70
     4
  9
$DIMTDEC
 70
     4
  9
$DIMALTU
 70
     2
  9
$DIMALTTD
 70
     2
  9
$DIMTXSTY
  7
STANDARD
  9
$DIMAUNIT
 70
     0
  9
$DIMADEC
 70
     0
  9
$DIMALTRND
 40
0.0
  9
$DIMAZIN
 70
     0
  9
$DIMDSEP
 70
    46
  9
$DIMATFIT
 70
     3
  9
$DIMFRAC
 70
     0
  9
$DIMLDRBLK
  1

  9
$DIMLUNIT
 70
     2
  9
$DIMLWD
 70
    -2
  9
$DIMLWE
 70
    -2
  9
$DIMTMOVE
 70
     0
  9
$LUNITS
 70
     2
  9
$LUPREC
 70
     4
  9
$SKETCHINC
 40
0.1
  9
$FILLETRAD
 40
0.0
  9
$AUNITS
 70
     0
  9
$AUPREC
 70
     0
  9
$MENU
  1
.
  9
$ELEVATION
 40
0.0
  9
$PELEVATION
 40
0.0
  9
$THICKNESS
 40
0.0
  9
$LIMCHECK
 70
     0
  9
$CHAMFERA
 40
0.0
  9
$CHAMFERB
 40
0.0
  9
$CHAMFERC
 40
0.0
  9
$CHAMFERD
 40
0.0
  9
$SKPOLY
 70
     0
  9
$TDCREATE
 40
2454160.470656459
  9
$TDUCREATE
 40
2454160.095656459
  9
$TDUPDATE
 40
2454160.471830509
  9
$TDUUPDATE
 40
2454160.096830509
  9
$TDINDWG
 40
0.0011745949
  9
$TDUSRTIMER
 40
0.0011745949
  9
$USRTIMER
 70
     1
  9
$ANGBASE
 50
0.0
  9
$ANGDIR
 70
     0
  9
$PDMODE
 70
     0
  9
$PDSIZE
 40
0.0
  9
$PLINEWID
 40
0.0
  9
$SPLFRAME
 70
     0
  9
$SPLINETYPE
 70
     6
  9
$SPLINESEGS
 70
     8
  9
$HANDSEED
  5
2D5
  9
$SURFTAB1
 70
     6
  9
$SURFTAB2
 70
     6
  9
$SURFTYPE
 70
     6
  9
$SURFU
 70
     6
  9
$SURFV
 70
     6
  9
$UCSBASE
  2

  9
$UCSNAME
  2

  9
$UCSORG
 10
0.0
 20
0.0
 30
0.0
  9
$UCSXDIR
 10
1.0
 20
0.0
 30
0.0
  9
$UCSYDIR
 10
0.0
 20
1.0
 30
0.0
  9
$UCSORTHOREF
  2

  9
$UCSORTHOVIEW
 70
     0
  9
$UCSORGTOP
 10
0.0
 20
0.0
 30
0.0
  9
$UCSORGBOTTOM
 10
0.0
 20
0.0
 30
0.0
  9
$UCSORGLEFT
 10
0.0
 20
0.0
 30
0.0
  9
$UCSORGRIGHT
 10
0.0
 20
0.0
 30
0.0
  9
$UCSORGFRONT
 10
0.0
 20
0.0
 30
0.0
  9
$UCSORGBACK
 10
0.0
 20
0.0
 30
0.0
  9
$PUCSBASE
  2

  9
$PUCSNAME
  2

  9
$PUCSORG
 10
0.0
 20
0.0
 30
0.0
  9
$PUCSXDIR
 10
1.0
 20
0.0
 30
0.0
  9
$PUCSYDIR
 10
0.0
 20
1.0
 30
0.0
  9
$PUCSORTHOREF
  2

  9
$PUCSORTHOVIEW
 70
     0
  9
$PUCSORGTOP
 10
0.0
 20
0.0
 30
0.0
  9
$PUCSORGBOTTOM
 10
0.0
 20
0.0
 30
0.0
  9
$PUCSORGLEFT
 10
0.0
 20
0.0
 30
0.0
  9
$PUCSORGRIGHT
 10
0.0
 20
0.0
 30
0.0
  9
$PUCSORGFRONT
 10
0.0
 20
0.0
 30
0.0
  9
$PUCSORGBACK
 10
0.0
 20
0.0
 30
0.0
  9
$USERI1
 70
     0
  9
$USERI2
 70
     0
  9
$USERI3
 70
     0
  9
$USERI4
 70
     0
  9
$USERI5
 70
     0
  9
$USERR1
 40
0.0
  9
$USERR2
 40
0.0
  9
$USERR3
 40
0.0
  9
$USERR4
 40
0.0
  9
$USERR5
 40
0.0
  9
$WORLDVIEW
 70
     1
  9
$SHADEDGE
 70
     3
  9
$SHADEDIF
 70
    70
  9
$TILEMODE
 70
     1
  9
$MAXACTVP
 70
    64
  9
$PINSBASE
 10
0.0
 20
0.0
 30
0.0
  9
$PLIMCHECK
 70
     0
  9
$PEXTMIN
 10
1.130750010332723
 20
0.7880833242821881
 30
0.0
  9
$PEXTMAX
 10
10.17675009299451
 20
7.092749918539693
 30
0.0
  9
$PLIMMIN
 10
-0.1912502979669045
 20
-0.1912499975970411
  9
$PLIMMAX
 10
11.50208240418922
 20
8.075416444793461
  9
$UNITMODE
 70
     0
  9
$VISRETAIN
 70
     1
  9
$PLINEGEN
 70
     0
  9
$PSLTSCALE
 70
     1
  9
$TREEDEPTH
 70
  3020
  9
$CMLSTYLE
  2
Standard
  9
$CMLJUST
 70
     0
  9
$CMLSCALE
 40
1.0
  9
$PROXYGRAPHICS
 70
     1
  9
$MEASUREMENT
 70
     0
  9
$CELWEIGHT
370
    -1
  9
$ENDCAPS
280
     0
  9
$JOINSTYLE
280
     0
  9
$LWDISPLAY
290
     0
  9
$INSUNITS
 70
     0
  9
$HYPERLINKBASE
  1

  9
$STYLESHEET
  1

  9
$XEDIT
290
     1
  9
$CEPSNTYPE
380
     0
  9
$PSTYLEMODE
290
     1
  9
$FINGERPRINTGUID
  2
{F495BA4A-B820-42EA-A992-3CB2B2A4AFC8}
  9
$VERSIONGUID
  2
{82FC28A2-3A7B-47DB-A468-6239850CCE44}
  9
$EXTNAMES
290
     1
  9
$PSVPSCALE
 40
0.0
  9
$OLESTARTUP
290
     0
  0
ENDSEC
  0
SECTION
  2
CLASSES
  0
CLASS
  1
ACDBDICTIONARYWDFLT
  2
AcDbDictionaryWithDefault
  3
ObjectDBX Classes
 90
        0
280
     0
281
     0
  0
CLASS
  1
TABLESTYLE
  2
AcDbTableStyle
  3
ObjectDBX Classes
 90
     2047
280
     0
281
     0
  0
CLASS
  1
DICTIONARYVAR
  2
AcDbDictionaryVar
  3
ObjectDBX Classes
 90
        0
280
     0
281
     0
  0
CLASS
  1
ACDBPLACEHOLDER
  2
AcDbPlaceHolder
  3
ObjectDBX Classes
 90
        0
280
     0
281
     0
  0
CLASS
  1
LAYOUT
  2
AcDbLayout
  3
ObjectDBX Classes
 90
        0
280
     0
281
     0
  0
ENDSEC
  0
SECTION
  2
TABLES
  0
TABLE
  2
VPORT
  5
8
330
0
100
AcDbSymbolTable
 70
     3
  0
VPORT
  5
2CC
330
8
100
AcDbSymbolTableRecord
100
AcDbViewportTableRecord
  2
*Active
 70
     0
 10
0.0
 20
0.0
 11
1.0
 21
1.0
 12
366.7894404360968
 22
143.4841911888073
 13
0.0
 23
0.0
 14
1.0
 24
1.0
 15
0.0
 25
0.0
 16
0.0
 26
0.0
 36
1.0
 17
0.0
 27
0.0
 37
0.0
 40
278.4404704077481
 41
1.165871121718377
 42
50.0
 43
0.0
 44
0.0
 50
0.0
 51
0.0
 71
     0
 72
   100
 73
     1
 74
     1
 75
     0
 76
     0
 77
     0
 78
     0
281
     0
 65
     1
110
0.0
120
0.0
130
0.0
111
1.0
121
0.0
131
0.0
112
0.0
122
1.0
132
0.0
 79
     0
146
0.0
  0
ENDTAB
  0
TABLE
  2
LTYPE
  5
5
330
0
100
AcDbSymbolTable
 70
    23
  0
LTYPE
  5
13
330
5
100
AcDbSymbolTableRecord
100
AcDbLinetypeTableRecord
  2
ByBlock
 70
     0
  3

 72
    65
 73
     0
 40
0.0
  0
LTYPE
  5
14
330
5
100
AcDbSymbolTableRecord
100
AcDbLinetypeTableRecord
  2
ByLayer
 70
     0
  3

 72
    65
 73
     0
 40
0.0
  0
LTYPE
  5
15
330
5
100
AcDbSymbolTableRecord
100
AcDbLinetypeTableRecord
  2
CONTINUOUS
 70
     0
  3
Solid line
 72
    65
 73
     0
 40
0.0
  0
LTYPE
  5
26
330
5
100
AcDbSymbolTableRecord
100
AcDbLinetypeTableRecord
  2
DASHED
 70
     0
  3
__ __ __ __ __ __ __ __ __ __ __ __ __ __ __
 72
    65
 73
     2
 40
3.5
 49
2.0
 74
     0
 49
-1.5
 74
     0
  0
LTYPE
  5
27
330
5
100
AcDbSymbolTableRecord
100
AcDbLinetypeTableRecord
  2
CENTER
 70
     0
  3
____ _ ____ _ ____ _ ____ _ ____ _ ____ _ ____
 72
    65
 73
     4
 40
17.5
 49
13.0
 74
     0
 49
-1.5
 74
     0
 49
1.5
 74
     0
 49
-1.5
 74
     0
  0
LTYPE
  5
28
330
5
100
AcDbSymbolTableRecord
100
AcDbLinetypeTableRecord
  2
PHANTOM
 70
     0
  3
_____ _ _ _____ _ _ _____ _ _ _____ _ _ ____  
 72
    65
 73
     6
 40
15.5
 49
8.0
 74
     0
 49
-1.5
 74
     0
 49
1.5
 74
     0
 49
-1.5
 74
     0
 49
1.5
 74
     0
 49
-1.5
 74
     0
  0
LTYPE
  5
29
330
5
100
AcDbSymbolTableRecord
100
AcDbLinetypeTableRecord
  2
DASHED1
 70
     0
  3
__ __ __ __ __ __ __ __ __ __ __ __ __ __ __
 72
    65
 73
     2
 40
1.5
 49
1.0
 74
     0
 49
-0.5
 74
     0
  0
LTYPE
  5
2A
330
5
100
AcDbSymbolTableRecord
100
AcDbLinetypeTableRecord
  2
DASHED2
 70
     0
  3
__ __ __ __ __ __ __ __ __ __ __ __ __ __ __
 72
    65
 73
     2
 40
3.5
 49
2.5
 74
     0
 49
-1.0
 74
     0
  0
LTYPE
  5
2B
330
5
100
AcDbSymbolTableRecord
100
AcDbLinetypeTableRecord
  2
DASHED3
 70
     0
  3
__ __ __ __ __ __ __ __ __ __ __ __ __ __ __
 72
    65
 73
     2
 40
6.0
 49
4.0
 74
     0
 49
-2.0
 74
     0
  0
LTYPE
  5
2C
330
5
100
AcDbSymbolTableRecord
100
AcDbLinetypeTableRecord
  2
DASHED4
 70
     0
  3
__ __ __ __ __ __ __ __ __ __ __ __ __ __ __
 72
    65
 73
     2
 40
12.0
 49
10.0
 74
     0
 49
-2.0
 74
     0
  0
LTYPE
  5
2D
330
5
100
AcDbSymbolTableRecord
100
AcDbLinetypeTableRecord
  2
DASHED5
 70
     0
  3
__ __ __ __ __ __ __ __ __ __ __ __ __ __ __
 72
    65
 73
     2
 40
17.0
 49
15.0
 74
     0
 49
-2.0
 74
     0
  0
LTYPE
  5
2E
330
5
100
AcDbSymbolTableRecord
100
AcDbLinetypeTableRecord
  2
DASHED6
 70
     0
  3
__ __ __ __ __ __ __ __ __ __ __ __ __ __ __
 72
    65
 73
     2
 40
29.0
 49
27.0
 74
     0
 49
-2.0
 74
     0
  0
LTYPE
  5
2F
330
5
100
AcDbSymbolTableRecord
100
AcDbLinetypeTableRecord
  2
PHANTOM1
 70
     0
  3
_____ _ _ _____ _ _ _____ _ _ _____ _ _ ____  
 72
    65
 73
     6
 40
31.0
 49
25.0
 74
     0
 49
-1.5
 74
     0
 49
1.0
 74
     0
 49
-1.0
 74
     0
 49
1.0
 74
     0
 49
-1.5
 74
     0
  0
LTYPE
  5
30
330
5
100
AcDbSymbolTableRecord
100
AcDbLinetypeTableRecord
  2
PHANTOM2
 70
     0
  3
_____ _ _ _____ _ _ _____ _ _ _____ _ _ ____  
 72
    65
 73
     6
 40
36.0
 49
27.0
 74
     0
 49
-1.5
 74
     0
 49
2.5
 74
     0
 49
-1.0
 74
     0
 49
2.5
 74
     0
 49
-1.5
 74
     0
  0
LTYPE
  5
31
330
5
100
AcDbSymbolTableRecord
100
AcDbLinetypeTableRecord
  2
PHANTOM3
 70
     0
  3
_____ _ _ _____ _ _ _____ _ _ _____ _ _ ____  
 72
    65
 73
     6
 40
78.0
 49
64.0
 74
     0
 49
-2.0
 74
     0
 49
4.0
 74
     0
 49
-2.0
 74
     0
 49
4.0
 74
     0
 49
-2.0
 74
     0
  0
LTYPE
  5
32
330
5
100
AcDbSymbolTableRecord
100
AcDbLinetypeTableRecord
  2
CENTER1
 70
     0
  3
____ _ ____ _ ____ _ ____ _ ____ _ ____ _ ____
 72
    65
 73
     4
 40
19.0
 49
14.0
 74
     0
 49
-1.0
 74
     0
 49
3.0
 74
     0
 49
-1.0
 74
     0
  0
LTYPE
  5
33
330
5
100
AcDbSymbolTableRecord
100
AcDbLinetypeTableRecord
  2
CENTER2
 70
     0
  3
____ _ ____ _ ____ _ ____ _ ____ _ ____ _ ____
 72
    65
 73
     4
 40
28.5
 49
25.0
 74
     0
 49
-1.0
 74
     0
 49
1.5
 74
     0
 49
-1.0
 74
     0
  0
LTYPE
  5
34
330
5
100
AcDbSymbolTableRecord
100
AcDbLinetypeTableRecord
  2
CENTER3
 70
     0
  3
____ _ ____ _ ____ _ ____ _ ____ _ ____ _ ____
 72
    65
 73
     4
 40
31.5
 49
27.0
 74
     0
 49
-1.0
 74
     0
 49
2.5
 74
     0
 49
-1.0
 74
     0
  0
LTYPE
  5
35
330
5
100
AcDbSymbolTableRecord
100
AcDbLinetypeTableRecord
  2
CENTER4
 70
     0
  3
____ _ ____ _ ____ _ ____ _ ____ _ ____ _ ____
 72
    65
 73
     4
 40
50.0
 49
45.0
 74
     0
 49
-1.0
 74
     0
 49
3.0
 74
     0
 49
-1.0
 74
     0
  0
LTYPE
  5
36
330
5
100
AcDbSymbolTableRecord
100
AcDbLinetypeTableRecord
  2
CENTER5
 70
     0
  3
____ _ ____ _ ____ _ ____ _ ____ _ ____ _ ____
 72
    65
 73
     4
 40
100.0
 49
92.0
 74
     0
 49
-2.0
 74
     0
 49
4.0
 74
     0
 49
-2.0
 74
     0
  0
LTYPE
  5
37
330
5
100
AcDbSymbolTableRecord
100
AcDbLinetypeTableRecord
  2
SBK1
 70
     0
  3
______ _ _ _ ______ _ _ _ ______ _ _ _ _____  
 72
    65
 73
     8
 40
60.5
 49
45.0
 74
     0
 49
-2.0
 74
     0
 49
2.5
 74
     0
 49
-2.0
 74
     0
 49
2.5
 74
     0
 49
-2.0
 74
     0
 49
2.5
 74
     0
 49
-2.0
 74
     0
  0
LTYPE
  5
38
330
5
100
AcDbSymbolTableRecord
100
AcDbLinetypeTableRecord
  2
SBK2
 70
     0
  3
______ _ _ _ ______ _ _ _ ______ _ _ _ _____  
 72
    65
 73
     8
 40
84.0
 49
64.0
 74
     0
 49
-2.0
 74
     0
 49
4.0
 74
     0
 49
-2.0
 74
     0
 49
4.0
 74
     0
 49
-2.0
 74
     0
 49
4.0
 74
     0
 49
-2.0
 74
     0
  0
LTYPE
  5
39
330
5
100
AcDbSymbolTableRecord
100
AcDbLinetypeTableRecord
  2
STCH
 70
     0
  3
__ __ __ __ __ __ __ __ __ __ __ __ __ __ __
 72
    65
 73
     2
 40
3.0
 49
1.0
 74
     0
 49
-2.0
 74
     0
  0
LTYPE
  5
3A
330
5
100
AcDbSymbolTableRecord
100
AcDbLinetypeTableRecord
  2
MTCH
 70
     0
  3
_____ _ _ _____ _ _ _____ _ _ _____ _ _ ____  
 72
    65
 73
     6
 40
80.0
 49
66.0
 74
     0
 49
-2.0
 74
     0
 49
4.0
 74
     0
 49
-2.0
 74
     0
 49
4.0
 74
     0
 49
-2.0
 74
     0
  0
ENDTAB
  0
TABLE
  2
LAYER
  5
2
102
{ACAD_XDICTIONARY
360
2B9
102
}
330
0
100
AcDbSymbolTable
 70
     1
  0
LAYER
  5
10
330
2
100
AcDbSymbolTableRecord
100
AcDbLayerTableRecord
  2
0
 70
     0
 62
     7
  6
CONTINUOUS
370
    -3
390
F
  0
ENDTAB
  0
TABLE
  2
STYLE
  5
3
330
0
100
AcDbSymbolTable
 70
     1
  0
STYLE
  5
11
330
3
100
AcDbSymbolTableRecord
100
AcDbTextStyleTableRecord
  2
STANDARD
 70
     0
 40
0.0
 41
1.0
 50
0.0
 71
     0
 42
0.2
  3
txt
  4
BIGFONT
  0
ENDTAB
  0
TABLE
  2
VIEW
  5
6
330
0
100
AcDbSymbolTable
 70
     1
  0
ENDTAB
  0
TABLE
  2
UCS
  5
7
330
0
100
AcDbSymbolTable
 70
     0
  0
ENDTAB
  0
TABLE
  2
APPID
  5
9
330
0
100
AcDbSymbolTable
 70
     3
  0
APPID
  5
12
330
9
100
AcDbSymbolTableRecord
100
AcDbRegAppTableRecord
  2
ACAD
 70
     0
  0
APPID
  5
2B3
330
9
100
AcDbSymbolTableRecord
100
AcDbRegAppTableRecord
  2
ACAD_PSEXT
 70
     0
  0
APPID
  5
2C0
330
9
100
AcDbSymbolTableRecord
100
AcDbRegAppTableRecord
  2
ACAD_EXEMPT_FROM_CAD_STANDARDS
 70
     0
  0
ENDTAB
  0
TABLE
  2
DIMSTYLE
  5
A
330
0
100
AcDbSymbolTable
 70
     2
100
AcDbDimStyleTable
 71
     1
340
2AD
  0
DIMSTYLE
105
2AD
330
A
100
AcDbSymbolTableRecord
100
AcDbDimStyleTableRecord
  2
Standard
 70
     0
340
11
  0
ENDTAB
  0
TABLE
  2
BLOCK_RECORD
  5
1
330
0
100
AcDbSymbolTable
 70
     1
  0
BLOCK_RECORD
  5
22
330
1
100
AcDbSymbolTableRecord
100
AcDbBlockTableRecord
  2
*Model_Space
340
25
  0
BLOCK_RECORD
  5
1E
330
1
100
AcDbSymbolTableRecord
100
AcDbBlockTableRecord
  2
*Paper_Space
340
21
  0
ENDTAB
  0
ENDSEC
  0
SECTION
  2
BLOCKS
  0
BLOCK
  5
23
330
22
100
AcDbEntity
  8
0
100
AcDbBlockBegin
  2
*Model_Space
 70
     0
 10
0.0
 20
0.0
 30
0.0
  3
*Model_Space
  1

  0
ENDBLK
  5
24
330
22
100
AcDbEntity
  8
0
100
AcDbBlockEnd
  0
BLOCK
  5
1F
330
1E
100
AcDbEntity
 67
     1
  8
0
100
AcDbBlockBegin
  2
*Paper_Space
 70
     0
 10
0.0
 20
0.0
 30
0.0
  3
*Paper_Space
  1

  0
ENDBLK
  5
20
330
1E
100
AcDbEntity
 67
     1
  8
0
100
AcDbBlockEnd
  0
ENDSEC
  0
SECTION
  2
ENTITIES
  0
LINE
  5
3E
330
22
100
AcDbEntity
  8
0
 62
     4
100
AcDbLine
 10
45.859715
 20
-115.535942
 30
0.0
 11
47.40971
 21
-117.075943
 31
0.0
  0
LINE
  5
3F
330
22
100
AcDbEntity
  8
0
 62
     4
100
AcDbLine
 10
45.859711
 20
-117.075951
 30
0.0
 11
47.40971799999999
 21
-115.535942
 31
0.0
  0
LINE
  5
40
330
22
100
AcDbEntity
  8
0
 62
     4
100
AcDbLine
 10
66.13954200000001
 20
-115.115952
 30
0.0
 11
72.845352
 21
-115.115952
 31
0.0
  0
LINE
  5
41
330
22
100
AcDbEntity
  8
0
 62
     4
100
AcDbLine
 10
66.13954200000001
 20
-117.495956
 30
0.0
 11
71.47132899999999
 21
-117.495956
 31
0.0
  0
LINE
  5
42
330
22
100
AcDbEntity
  8
0
 62
     4
100
AcDbLine
 10
64.639603
 20
-114.705925
 30
0.0
 11
66.139511
 21
-115.115898
 31
0.0
  0
LINE
  5
43
330
22
100
AcDbEntity
  8
0
 62
     4
100
AcDbLine
 10
64.639717
 20
-117.905945
 30
0.0
 11
66.139626
 21
-117.495972
 31
0.0
  0
LINE
  5
44
330
22
100
AcDbEntity
  8
0
 62
     4
100
AcDbLine
 10
66.13954200000001
 20
-117.495956
 30
0.0
 11
66.13954200000001
 21
-115.115952
 31
0.0
  0
LINE
  5
45
330
22
100
AcDbEntity
  8
0
 62
     4
100
AcDbLine
 10
64.639542
 20
-117.90596
 30
0.0
 11
64.639542
 21
-114.705948
 31
0.0
  0
LINE
  5
46
330
22
100
AcDbEntity
  8
0
 62
     4
100
AcDbLine
 10
49.63954199999999
 20
-117.90596
 30
0.0
 11
49.63954199999999
 21
-114.705948
 31
0.0
  0
LINE
  5
47
330
22
100
AcDbEntity
  8
0
 62
     4
100
AcDbLine
 10
43.639725
 20
-117.90596
 30
0.0
 11
43.639725
 21
-114.705948
 31
0.0
  0
LINE
  5
48
330
22
100
AcDbEntity
  8
0
 62
     4
100
AcDbLine
 10
-101.140289
 20
-109.535942
 30
0.0
 11
-99.590294
 21
-111.075943
 31
0.0
  0
LINE
  5
49
330
22
100
AcDbEntity
  8
0
 62
     4
100
AcDbLine
 10
-101.140282
 20
-111.075951
 30
0.0
 11
-99.59028599999999
 21
-109.53595
 31
0.0
  0
LINE
  5
4A
330
22
100
AcDbEntity
  8
0
 62
     4
100
AcDbLine
 10
-80.860275
 20
-109.115952
 30
0.0
 11
-74.15441899999999
 21
-109.115952
 31
0.0
  0
LINE
  5
4B
330
22
100
AcDbEntity
  8
0
 62
     4
100
AcDbLine
 10
-80.860275
 20
-111.495956
 30
0.0
 11
-75.528503
 21
-111.495956
 31
0.0
  0
LINE
  5
4C
330
22
100
AcDbEntity
  8
0
 62
     4
100
AcDbLine
 10
-82.36028299999999
 20
-108.705956
 30
0.0
 11
-80.86029100000001
 21
-109.115959
 31
0.0
  0
LINE
  5
4D
330
22
100
AcDbEntity
  8
0
 62
     4
100
AcDbLine
 10
-80.860275
 20
-111.495956
 30
0.0
 11
-80.860275
 21
-109.115952
 31
0.0
  0
LINE
  5
4E
330
22
100
AcDbEntity
  8
0
 62
     4
100
AcDbLine
 10
-103.360275
 20
-111.90596
 30
0.0
 11
-103.360275
 21
-108.705948
 31
0.0
  0
LINE
  5
4F
330
22
100
AcDbEntity
  8
0
 62
     4
100
AcDbLine
 10
-97.360275
 20
-111.90596
 30
0.0
 11
-97.360275
 21
-108.705948
 31
0.0
  0
LINE
  5
50
330
22
100
AcDbEntity
  8
0
 62
     4
100
AcDbLine
 10
-82.360275
 20
-111.90596
 30
0.0
 11
-82.360275
 21
-108.705948
 31
0.0
  0
LINE
  5
51
330
22
100
AcDbEntity
  8
0
 62
     4
100
AcDbLine
 10
-82.36029100000001
 20
-111.905952
 30
0.0
 11
-80.860283
 21
-111.495949
 31
0.0
  0
LINE
  5
52
330
22
100
AcDbEntity
  8
0
100
AcDbLine
 10
-33.365097
 20
-101.799988
 30
0.0
 11
171.634903
 21
-101.799988
 31
0.0
  0
LINE
  5
53
330
22
100
AcDbEntity
  8
0
100
AcDbLine
 10
-178.355087
 20
-101.799988
 30
0.0
 11
-173.355087
 21
-101.799988
 31
0.0
  0
LINE
  5
54
330
22
100
AcDbEntity
  8
0
100
AcDbLine
 10
137.634903
 20
-105.049988
 30
0.0
 11
142.134903
 21
-105.049988
 31
0.0
  0
LINE
  5
55
330
22
100
AcDbEntity
  8
0
100
AcDbLine
 10
142.134903
 20
-105.049988
 30
0.0
 11
142.134903
 21
-105.799988
 31
0.0
  0
LINE
  5
56
330
22
100
AcDbEntity
  8
0
100
AcDbLine
 10
-204.355087
 20
-97.299988
 30
0.0
 11
-204.355087
 21
-135.299988
 31
0.0
  0
LINE
  5
57
330
22
100
AcDbEntity
  8
0
100
AcDbLine
 10
-204.355087
 20
-108.699997
 30
0.0
 11
197.634903
 21
-108.699997
 31
0.0
  0
LINE
  5
58
330
22
100
AcDbEntity
  8
0
  6
CENTER
 62
     2
100
AcDbLine
 10
-207.735092
 20
-110.299988
 30
0.0
 11
200.994766
 21
-110.299988
 31
0.0
  0
LINE
  5
59
330
22
100
AcDbEntity
  8
0
100
AcDbLine
 10
-204.355087
 20
-111.899994
 30
0.0
 11
197.634903
 21
-111.899994
 31
0.0
  0
LINE
  5
5A
330
22
100
AcDbEntity
  8
0
100
AcDbLine
 10
197.634903
 20
-97.299988
 30
0.0
 11
211.634903
 21
-97.299988
 31
0.0
  0
LINE
  5
5B
330
22
100
AcDbEntity
  8
0
100
AcDbLine
 10
-218.355087
 20
-97.299988
 30
0.0
 11
-204.355087
 21
-97.299988
 31
0.0
  0
LINE
  5
5C
330
22
100
AcDbEntity
  8
0
100
AcDbLine
 10
142.884903
 20
-104.299988
 30
0.0
 11
142.884903
 21
-105.799988
 31
0.0
  0
LINE
  5
5D
330
22
100
AcDbEntity
  8
0
100
AcDbLine
 10
137.634903
 20
-105.049988
 30
0.0
 11
137.634903
 21
-105.799988
 31
0.0
  0
LINE
  5
5E
330
22
100
AcDbEntity
  8
0
100
AcDbLine
 10
142.134781
 20
-105.05011
 30
0.0
 11
142.884872
 21
-104.300018
 31
0.0
  0
LINE
  5
5F
330
22
100
AcDbEntity
  8
0
 62
     2
100
AcDbLine
 10
171.634903
 20
-105.049988
 30
0.0
 11
142.134903
 21
-105.049988
 31
0.0
  0
LINE
  5
60
330
22
100
AcDbEntity
  8
0
100
AcDbLine
 10
171.634903
 20
-104.299988
 30
0.0
 11
142.884903
 21
-104.299988
 31
0.0
  0
LINE
  5
61
330
22
100
AcDbEntity
  8
0
 62
     2
100
AcDbLine
 10
-173.355087
 20
-105.049988
 30
0.0
 11
-178.355087
 21
-105.049988
 31
0.0
  0
LINE
  5
62
330
22
100
AcDbEntity
  8
0
100
AcDbLine
 10
-173.355087
 20
-104.299988
 30
0.0
 11
-178.355087
 21
-104.299988
 31
0.0
  0
LINE
  5
63
330
22
100
AcDbEntity
  8
0
100
AcDbLine
 10
179.634903
 20
-97.14999399999999
 30
0.0
 11
189.634903
 21
-97.14999399999999
 31
0.0
  0
LINE
  5
64
330
22
100
AcDbEntity
  8
0
100
AcDbLine
 10
-186.355087
 20
-97.14999399999999
 30
0.0
 11
-196.355087
 21
-97.14999399999999
 31
0.0
  0
LINE
  5
65
330
22
100
AcDbEntity
  8
0
100
AcDbLine
 10
-202.355087
 20
-98.799988
 30
0.0
 11
-192.355087
 21
-98.799988
 31
0.0
  0
LINE
  5
66
330
22
100
AcDbEntity
  8
0
100
AcDbLine
 10
173.634903
 20
-98.799988
 30
0.0
 11
183.634903
 21
-98.799988
 31
0.0
  0
LINE
  5
67
330
22
100
AcDbEntity
  8
0
100
AcDbLine
 10
179.634903
 20
-97.14999399999999
 30
0.0
 11
179.634903
 21
-98.799988
 31
0.0
  0
LINE
  5
68
330
22
100
AcDbEntity
  8
0
100
AcDbLine
 10
189.634903
 20
-97.14999399999999
 30
0.0
 11
189.634903
 21
-98.799988
 31
0.0
  0
LINE
  5
69
330
22
100
AcDbEntity
  8
0
100
AcDbLine
 10
195.634903
 20
-98.799988
 30
0.0
 11
195.634903
 21
-99.799988
 31
0.0
  0
LINE
  5
6A
330
22
100
AcDbEntity
  8
0
100
AcDbLine
 10
185.634903
 20
-98.799988
 30
0.0
 11
185.634903
 21
-99.799988
 31
0.0
  0
LINE
  5
6B
330
22
100
AcDbEntity
  8
0
100
AcDbLine
 10
173.634903
 20
-98.799988
 30
0.0
 11
173.634903
 21
-99.799988
 31
0.0
  0
LINE
  5
6C
330
22
100
AcDbEntity
  8
0
100
AcDbLine
 10
183.634903
 20
-98.799988
 30
0.0
 11
183.634903
 21
-99.799988
 31
0.0
  0
LINE
  5
6D
330
22
100
AcDbEntity
  8
0
100
AcDbLine
 10
185.634903
 20
-98.799988
 30
0.0
 11
195.634903
 21
-98.799988
 31
0.0
  0
LINE
  5
6E
330
22
100
AcDbEntity
  8
0
100
AcDbLine
 10
-190.355087
 20
-98.799988
 30
0.0
 11
-180.355087
 21
-98.799988
 31
0.0
  0
LINE
  5
6F
330
22
100
AcDbEntity
  8
0
100
AcDbLine
 10
-196.355087
 20
-97.14999399999999
 30
0.0
 11
-196.355087
 21
-98.799988
 31
0.0
  0
LINE
  5
70
330
22
100
AcDbEntity
  8
0
100
AcDbLine
 10
-186.355087
 20
-97.14999399999999
 30
0.0
 11
-186.355087
 21
-98.799988
 31
0.0
  0
LINE
  5
71
330
22
100
AcDbEntity
  8
0
100
AcDbLine
 10
-180.355087
 20
-99.799988
 30
0.0
 11
-180.355087
 21
-98.799988
 31
0.0
  0
LINE
  5
72
330
22
100
AcDbEntity
  8
0
100
AcDbLine
 10
-190.355087
 20
-99.799988
 30
0.0
 11
-190.355087
 21
-98.799988
 31
0.0
  0
LINE
  5
73
330
22
100
AcDbEntity
  8
0
100
AcDbLine
 10
-202.355087
 20
-99.799988
 30
0.0
 11
-202.355087
 21
-98.799988
 31
0.0
  0
LINE
  5
74
330
22
100
AcDbEntity
  8
0
100
AcDbLine
 10
-192.355087
 20
-99.799988
 30
0.0
 11
-192.355087
 21
-98.799988
 31
0.0
  0
LINE
  5
75
330
22
100
AcDbEntity
  8
0
100
AcDbLine
 10
-204.355087
 20
-99.799988
 30
0.0
 11
-178.355087
 21
-99.799988
 31
0.0
  0
LINE
  5
76
330
22
100
AcDbEntity
  8
0
100
AcDbLine
 10
171.634903
 20
-99.799988
 30
0.0
 11
197.634903
 21
-99.799988
 31
0.0
  0
LINE
  5
77
330
22
100
AcDbEntity
  8
0
100
AcDbLine
 10
197.634903
 20
-121.799988
 30
0.0
 11
211.634903
 21
-121.799988
 31
0.0
  0
LINE
  5
78
330
22
100
AcDbEntity
  8
0
100
AcDbLine
 10
197.634903
 20
-107.799988
 30
0.0
 11
211.634903
 21
-107.799988
 31
0.0
  0
LINE
  5
79
330
22
100
AcDbEntity
  8
0
  6
CENTER
 62
     2
100
AcDbLine
 10
-207.735092
 20
-116.299988
 30
0.0
 11
200.994766
 21
-116.299988
 31
0.0
  0
LINE
  5
7A
330
22
100
AcDbEntity
  8
0
100
AcDbLine
 10
-204.355087
 20
-117.899994
 30
0.0
 11
197.634903
 21
-117.899994
 31
0.0
  0
LINE
  5
7B
330
22
100
AcDbEntity
  8
0
100
AcDbLine
 10
-204.355087
 20
-114.699997
 30
0.0
 11
197.634903
 21
-114.699997
 31
0.0
  0
LINE
  5
7C
330
22
100
AcDbEntity
  8
0
100
AcDbLine
 10
-218.355087
 20
-121.799988
 30
0.0
 11
-204.355087
 21
-121.799988
 31
0.0
  0
LINE
  5
7D
330
22
100
AcDbEntity
  8
0
100
AcDbLine
 10
-218.355087
 20
-107.799988
 30
0.0
 11
-204.355087
 21
-107.799988
 31
0.0
  0
LINE
  5
7E
330
22
100
AcDbEntity
  8
0
100
AcDbLine
 10
171.634903
 20
-99.799988
 30
0.0
 11
171.634903
 21
-105.799988
 31
0.0
  0
LINE
  5
7F
330
22
100
AcDbEntity
  8
0
100
AcDbLine
 10
-178.355087
 20
-99.799988
 30
0.0
 11
-178.355087
 21
-105.799988
 31
0.0
  0
LINE
  5
80
330
22
100
AcDbEntity
  8
0
100
AcDbLine
 10
-39.365097
 20
-105.799988
 30
0.0
 11
-39.365097
 21
-104.799988
 31
0.0
  0
LINE
  5
81
330
22
100
AcDbEntity
  8
0
100
AcDbLine
 10
-89.365097
 20
-105.799988
 30
0.0
 11
-89.365097
 21
-104.799988
 31
0.0
  0
LINE
  5
82
330
22
100
AcDbEntity
  8
0
100
AcDbLine
 10
-117.365097
 20
-105.799988
 30
0.0
 11
-117.365097
 21
-104.799988
 31
0.0
  0
LINE
  5
83
330
22
100
AcDbEntity
  8
0
100
AcDbLine
 10
-167.355087
 20
-105.799988
 30
0.0
 11
-167.355087
 21
-104.799988
 31
0.0
  0
LINE
  5
84
330
22
100
AcDbEntity
  8
0
100
AcDbLine
 10
-204.355087
 20
-105.799988
 30
0.0
 11
197.634903
 21
-105.799988
 31
0.0
  0
LINE
  5
85
330
22
100
AcDbEntity
  8
0
100
AcDbLine
 10
-173.355087
 20
-104.799988
 30
0.0
 11
-33.365097
 21
-104.799988
 31
0.0
  0
LINE
  5
86
330
22
100
AcDbEntity
  8
0
100
AcDbLine
 10
-33.365097
 20
-95.29998799999999
 30
0.0
 11
-33.365097
 21
-104.799988
 31
0.0
  0
LINE
  5
87
330
22
100
AcDbEntity
  8
0
100
AcDbLine
 10
-173.355087
 20
-95.29998799999999
 30
0.0
 11
-173.355087
 21
-104.799988
 31
0.0
  0
LINE
  5
88
330
22
100
AcDbEntity
  8
0
100
AcDbLine
 10
-173.355087
 20
-95.29998799999999
 30
0.0
 11
-33.365097
 21
-95.29998799999999
 31
0.0
  0
LINE
  5
89
330
22
100
AcDbEntity
  8
0
  6
CENTER
 62
     2
100
AcDbLine
 10
-103.365097
 20
-93.860001
 30
0.0
 11
-103.365097
 21
-139.959991
 31
0.0
  0
LINE
  5
8A
330
22
100
AcDbEntity
  8
0
100
AcDbLine
 10
197.634903
 20
-97.299988
 30
0.0
 11
197.634903
 21
-135.299988
 31
0.0
  0
LINE
  5
8B
330
22
100
AcDbEntity
  8
0
100
AcDbLine
 10
211.634903
 20
-97.299988
 30
0.0
 11
211.634903
 21
-135.299988
 31
0.0
  0
LINE
  5
8C
330
22
100
AcDbEntity
  8
0
100
AcDbLine
 10
-218.355087
 20
-97.299988
 30
0.0
 11
-218.355087
 21
-135.299988
 31
0.0
  0
LINE
  5
8D
330
22
100
AcDbEntity
  8
0
100
AcDbLine
 10
-218.355087
 20
-135.299988
 30
0.0
 11
211.634903
 21
-135.299988
 31
0.0
  0
LINE
  5
8E
330
22
100
AcDbEntity
  8
0
  6
CENTER
 62
     2
100
AcDbLine
 10
-211.355087
 20
-140.299988
 30
0.0
 11
-211.355087
 21
-130.2999879999999
 31
0.0
  0
LINE
  5
8F
330
22
100
AcDbEntity
  8
0
 62
     1
100
AcDbLine
 10
-75.52849599999999
 20
-111.495926
 30
0.0
 11
-74.154404
 21
-109.115929
 31
0.0
  0
LINE
  5
90
330
22
100
AcDbEntity
  8
0
 62
     1
100
AcDbLine
 10
71.47149699999999
 20
-117.495934
 30
0.0
 11
72.845589
 21
-115.115936
 31
0.0
  0
LINE
  5
91
330
22
100
AcDbEntity
  8
0
  6
PHANTOM
 62
     3
100
AcDbLine
 10
23.814087
 20
-144.541153
 30
0.0
 11
23.814087
 21
-42.470245
 31
0.0
  0
LINE
  5
92
330
22
100
AcDbEntity
  8
0
100
AcDbLine
 10
296.974762
 20
63.150009
 30
0.0
 11
296.974762
 21
49.220001
 31
0.0
  0
LINE
  5
93
330
22
100
AcDbEntity
  8
0
100
AcDbLine
 10
298.27478
 20
63.150009
 30
0.0
 11
298.27478
 21
49.220001
 31
0.0
  0
LINE
  5
94
330
22
100
AcDbEntity
  8
0
100
AcDbLine
 10
294.124756
 20
0.190002
 30
0.0
 11
294.124756
 21
-5.309998
 31
0.0
  0
LINE
  5
95
330
22
100
AcDbEntity
  8
0
100
AcDbLine
 10
294.124756
 20
0.190002
 30
0.0
 11
308.124756
 21
0.190002
 31
0.0
  0
LINE
  5
96
330
22
100
AcDbEntity
  8
0
100
AcDbLine
 10
308.124756
 20
0.190002
 30
0.0
 11
308.124756
 21
-5.309998
 31
0.0
  0
LINE
  5
97
330
22
100
AcDbEntity
  8
0
100
AcDbLine
 10
301.424744
 20
126.689995
 30
0.0
 11
283.624756
 21
126.689995
 31
0.0
  0
LINE
  5
98
330
22
100
AcDbEntity
  8
0
100
AcDbLine
 10
301.874756
 20
122.189995
 30
0.0
 11
305.374756
 21
122.189995
 31
0.0
  0
LINE
  5
99
330
22
100
AcDbEntity
  8
0
100
AcDbLine
 10
307.374756
 20
125.689995
 30
0.0
 11
307.374756
 21
124.189995
 31
0.0
  0
LINE
  5
9A
330
22
100
AcDbEntity
  8
0
100
AcDbLine
 10
307.374756
 20
125.689995
 30
0.0
 11
305.824768
 21
125.689995
 31
0.0
  0
LINE
  5
9B
330
22
100
AcDbEntity
  8
0
100
AcDbLine
 10
305.824768
 20
126.689995
 30
0.0
 11
305.824768
 21
125.689995
 31
0.0
  0
LINE
  5
9C
330
22
100
AcDbEntity
  8
0
100
AcDbLine
 10
299.874756
 20
125.689995
 30
0.0
 11
299.874756
 21
124.189995
 31
0.0
  0
LINE
  5
9D
330
22
100
AcDbEntity
  8
0
100
AcDbLine
 10
299.874756
 20
125.689995
 30
0.0
 11
301.424744
 21
125.689995
 31
0.0
  0
LINE
  5
9E
330
22
100
AcDbEntity
  8
0
100
AcDbLine
 10
301.424744
 20
126.689995
 30
0.0
 11
301.424744
 21
125.689995
 31
0.0
  0
LINE
  5
9F
330
22
100
AcDbEntity
  8
0
100
AcDbLine
 10
321.624756
 20
126.689995
 30
0.0
 11
305.824768
 21
126.689995
 31
0.0
  0
LINE
  5
A0
330
22
100
AcDbEntity
  8
0
100
AcDbLine
 10
321.624756
 20
-4.809992
 30
0.0
 11
321.124756
 21
-5.309993
 31
0.0
  0
LINE
  5
A1
330
22
100
AcDbEntity
  8
0
100
AcDbLine
 10
304.224762
 20
-5.309998
 30
0.0
 11
321.124756
 21
-5.309998
 31
0.0
  0
LINE
  5
A2
330
22
100
AcDbEntity
  8
0
100
AcDbLine
 10
298.724762
 20
-4.309998
 30
0.0
 11
298.724762
 21
-2.709991
 31
0.0
  0
LINE
  5
A3
330
22
100
AcDbEntity
  8
0
100
AcDbLine
 10
298.724792
 20
-4.309991
 30
0.0
 11
298.224792
 21
-4.809992
 31
0.0
  0
LINE
  5
A4
330
22
100
AcDbEntity
  8
0
100
AcDbLine
 10
298.224762
 20
-4.809998
 30
0.0
 11
298.224762
 21
-5.309998
 31
0.0
  0
LINE
  5
A5
330
22
100
AcDbEntity
  8
0
100
AcDbLine
 10
295.0247799999999
 20
-4.809998
 30
0.0
 11
295.0247799999999
 21
-5.309998
 31
0.0
  0
LINE
  5
A6
330
22
100
AcDbEntity
  8
0
100
AcDbLine
 10
294.52475
 20
-4.309994
 30
0.0
 11
295.02475
 21
-4.809995999999999
 31
0.0
  0
LINE
  5
A7
330
22
100
AcDbEntity
  8
0
100
AcDbLine
 10
294.52478
 20
-4.309998
 30
0.0
 11
294.52478
 21
-2.709991
 31
0.0
  0
LINE
  5
A8
330
22
100
AcDbEntity
  8
0
100
AcDbLine
 10
283.624756
 20
126.689995
 30
0.0
 11
283.624756
 21
-5.309998
 31
0.0
  0
LINE
  5
A9
330
22
100
AcDbEntity
  8
0
100
AcDbLine
 10
306.224762
 20
-1.509994999999999
 30
0.0
 11
304.344757
 21
-1.509994999999999
 31
0.0
  0
LINE
  5
AA
330
22
100
AcDbEntity
  8
0
100
AcDbLine
 10
304.724762
 20
-4.309998
 30
0.0
 11
306.224762
 21
-4.309998
 31
0.0
  0
LINE
  5
AB
330
22
100
AcDbEntity
  8
0
100
AcDbLine
 10
298.224762
 20
-5.309998
 30
0.0
 11
301.02478
 21
-5.309998
 31
0.0
  0
LINE
  5
AC
330
22
100
AcDbEntity
  8
0
100
AcDbLine
 10
304.724762
 20
-4.309995999999999
 30
0.0
 11
304.224762
 21
-4.809997
 31
0.0
  0
LINE
  5
AD
330
22
100
AcDbEntity
  8
0
100
AcDbLine
 10
304.224762
 20
-4.809998
 30
0.0
 11
304.224762
 21
-5.309998
 31
0.0
  0
LINE
  5
AE
330
22
100
AcDbEntity
  8
0
100
AcDbLine
 10
301.02478
 20
-4.809998
 30
0.0
 11
301.02478
 21
-5.309998
 31
0.0
  0
LINE
  5
AF
330
22
100
AcDbEntity
  8
0
100
AcDbLine
 10
300.52478
 20
-4.309999999999999
 30
0.0
 11
301.02478
 21
-4.810001
 31
0.0
  0
LINE
  5
B0
330
22
100
AcDbEntity
  8
0
100
AcDbLine
 10
300.52478
 20
-4.309998
 30
0.0
 11
300.52478
 21
-2.709991
 31
0.0
  0
LINE
  5
B1
330
22
100
AcDbEntity
  8
0
100
AcDbLine
 10
281.624756
 20
88.690002
 30
0.0
 11
281.624756
 21
-5.309998
 31
0.0
  0
LINE
  5
B2
330
22
100
AcDbEntity
  8
0
  6
DASHED
 62
     2
100
AcDbLine
 10
313.77475
 20
57.440002
 30
0.0
 11
313.77475
 21
67.94000200000001
 31
0.0
  0
LINE
  5
B3
330
22
100
AcDbEntity
  8
0
  6
DASHED
 62
     2
100
AcDbLine
 10
313.77475
 20
5.440001999999999
 30
0.0
 11
313.77475
 21
15.940002
 31
0.0
  0
LINE
  5
B4
330
22
100
AcDbEntity
  8
0
100
AcDbLine
 10
281.624756
 20
88.690002
 30
0.0
 11
283.624756
 21
88.690002
 31
0.0
  0
LINE
  5
B5
330
22
100
AcDbEntity
  8
0
  6
DASHED
 62
     2
100
AcDbLine
 10
321.624756
 20
20.69001
 30
0.0
 11
321.124756
 21
21.190012
 31
0.0
  0
LINE
  5
B6
330
22
100
AcDbEntity
  8
0
  6
DASHED
 62
     2
100
AcDbLine
 10
321.624756
 20
52.690006
 30
0.0
 11
321.124756
 21
52.189995
 31
0.0
  0
LINE
  5
B7
330
22
100
AcDbEntity
  8
0
  6
DASHED
 62
     2
100
AcDbLine
 10
321.124756
 20
52.19000199999999
 30
0.0
 11
321.124756
 21
21.190002
 31
0.0
  0
LINE
  5
B8
330
22
100
AcDbEntity
  8
0
100
AcDbLine
 10
281.624756
 20
-5.309998
 30
0.0
 11
295.0247799999999
 21
-5.309998
 31
0.0
  0
LINE
  5
B9
330
22
100
AcDbEntity
  8
0
  6
CENTER
 62
     2
100
AcDbLine
 10
310.134766
 20
10.690002
 30
0.0
 11
325.03476
 21
10.690002
 31
0.0
  0
LINE
  5
BA
330
22
100
AcDbEntity
  8
0
  6
DASHED
 62
     2
100
AcDbLine
 10
313.124756
 20
15.940002
 30
0.0
 11
318.624756
 21
15.940002
 31
0.0
  0
LINE
  5
BB
330
22
100
AcDbEntity
  8
0
  6
DASHED
 62
     2
100
AcDbLine
 10
313.124756
 20
13.940002
 30
0.0
 11
313.124756
 21
15.940002
 31
0.0
  0
LINE
  5
BC
330
22
100
AcDbEntity
  8
0
  6
DASHED
 62
     2
100
AcDbLine
 10
312.124756
 20
13.940002
 30
0.0
 11
313.124756
 21
13.940002
 31
0.0
  0
LINE
  5
BD
330
22
100
AcDbEntity
  8
0
  6
DASHED
 62
     2
100
AcDbLine
 10
312.124756
 20
7.440002
 30
0.0
 11
312.124756
 21
13.940002
 31
0.0
  0
LINE
  5
BE
330
22
100
AcDbEntity
  8
0
  6
DASHED
 62
     2
100
AcDbLine
 10
312.124756
 20
7.440002
 30
0.0
 11
313.124756
 21
7.440002
 31
0.0
  0
LINE
  5
BF
330
22
100
AcDbEntity
  8
0
  6
DASHED
 62
     2
100
AcDbLine
 10
313.124756
 20
5.440001999999999
 30
0.0
 11
313.124756
 21
7.440002
 31
0.0
  0
LINE
  5
C0
330
22
100
AcDbEntity
  8
0
  6
DASHED
 62
     2
100
AcDbLine
 10
313.124756
 20
5.440001999999999
 30
0.0
 11
318.624756
 21
5.440001999999999
 31
0.0
  0
LINE
  5
C1
330
22
100
AcDbEntity
  8
0
  6
DASHED
 62
     2
100
AcDbLine
 10
318.624756
 20
15.940002
 30
0.0
 11
318.624756
 21
5.440001999999999
 31
0.0
  0
LINE
  5
C2
330
22
100
AcDbEntity
  8
0
  6
DASHED
 62
     2
100
AcDbLine
 10
318.624756
 20
7.440002
 30
0.0
 11
321.624756
 21
7.440002
 31
0.0
  0
LINE
  5
C3
330
22
100
AcDbEntity
  8
0
  6
DASHED
 62
     2
100
AcDbLine
 10
318.624756
 20
13.940002
 30
0.0
 11
321.624756
 21
13.940002
 31
0.0
  0
LINE
  5
C4
330
22
100
AcDbEntity
  8
0
  6
DASHED
 62
     2
100
AcDbLine
 10
313.124756
 20
65.940002
 30
0.0
 11
313.124756
 21
67.94000200000001
 31
0.0
  0
LINE
  5
C5
330
22
100
AcDbEntity
  8
0
  6
DASHED
 62
     2
100
AcDbLine
 10
312.124756
 20
65.940002
 30
0.0
 11
313.124756
 21
65.940002
 31
0.0
  0
LINE
  5
C6
330
22
100
AcDbEntity
  8
0
  6
DASHED
 62
     2
100
AcDbLine
 10
312.124756
 20
59.440002
 30
0.0
 11
312.124756
 21
65.940002
 31
0.0
  0
LINE
  5
C7
330
22
100
AcDbEntity
  8
0
  6
DASHED
 62
     2
100
AcDbLine
 10
312.124756
 20
59.440002
 30
0.0
 11
313.124756
 21
59.440002
 31
0.0
  0
LINE
  5
C8
330
22
100
AcDbEntity
  8
0
  6
DASHED
 62
     2
100
AcDbLine
 10
313.124756
 20
57.440002
 30
0.0
 11
313.124756
 21
59.440002
 31
0.0
  0
LINE
  5
C9
330
22
100
AcDbEntity
  8
0
  6
DASHED
 62
     2
100
AcDbLine
 10
313.124756
 20
67.94000200000001
 30
0.0
 11
318.624756
 21
67.94000200000001
 31
0.0
  0
LINE
  5
CA
330
22
100
AcDbEntity
  8
0
  6
DASHED
 62
     2
100
AcDbLine
 10
313.124756
 20
57.440002
 30
0.0
 11
318.624756
 21
57.440002
 31
0.0
  0
LINE
  5
CB
330
22
100
AcDbEntity
  8
0
  6
DASHED
 62
     2
100
AcDbLine
 10
318.624756
 20
67.94000200000001
 30
0.0
 11
318.624756
 21
57.440002
 31
0.0
  0
LINE
  5
CC
330
22
100
AcDbEntity
  8
0
  6
DASHED
 62
     2
100
AcDbLine
 10
318.624756
 20
65.940002
 30
0.0
 11
321.624756
 21
65.940002
 31
0.0
  0
LINE
  5
CD
330
22
100
AcDbEntity
  8
0
  6
CENTER
 62
     2
100
AcDbLine
 10
309.794769
 20
62.690002
 30
0.0
 11
324.52475
 21
62.690002
 31
0.0
  0
LINE
  5
CE
330
22
100
AcDbEntity
  8
0
  6
DASHED
 62
     2
100
AcDbLine
 10
318.624756
 20
59.440002
 30
0.0
 11
321.624756
 21
59.440002
 31
0.0
  0
LINE
  5
CF
330
22
100
AcDbEntity
  8
0
100
AcDbLine
 10
321.624756
 20
-4.809998
 30
0.0
 11
321.624756
 21
126.689995
 31
0.0
  0
LINE
  5
D0
330
22
100
AcDbEntity
  8
0
  6
CENTER
 62
     1
100
AcDbLine
 10
296.624756
 20
3.570006999999999
 30
0.0
 11
296.624756
 21
-6.5
 31
0.0
  0
LINE
  5
D1
330
22
100
AcDbEntity
  8
0
 62
     4
100
AcDbLine
 10
294.574738
 20
-4.339996
 30
0.0
 11
295.124786
 21
-4.889997
 31
0.0
  0
LINE
  5
D2
330
22
100
AcDbEntity
  8
0
 62
     4
100
AcDbLine
 10
295.624756
 20
-0.8600010000000001
 30
0.0
 11
296.374512
 21
-0.8600010000000001
 31
0.0
  0
LINE
  5
D3
330
22
100
AcDbEntity
  8
0
 62
     4
100
AcDbLine
 10
295.624756
 20
-5.860001
 30
0.0
 11
297.624756
 21
-5.860001
 31
0.0
  0
LINE
  5
D4
330
22
100
AcDbEntity
  8
0
 62
     4
100
AcDbLine
 10
295.124756
 20
-5.440001999999999
 30
0.0
 11
298.124756
 21
-5.440001999999999
 31
0.0
  0
LINE
  5
D5
330
22
100
AcDbEntity
  8
0
  6
CENTER
 62
     1
100
AcDbLine
 10
298.27121
 20
-3.089995999999999
 30
0.0
 11
294.98175
 21
-3.089995999999999
 31
0.0
  0
LINE
  5
D6
330
22
100
AcDbEntity
  8
0
  6
CENTER
 62
     1
100
AcDbLine
 10
297.360046
 20
-2.639998999999999
 30
0.0
 11
295.872345
 21
-2.639998999999999
 31
0.0
  0
LINE
  5
D7
330
22
100
AcDbEntity
  8
0
  6
CENTER
 62
     1
100
AcDbLine
 10
297.360046
 20
-3.539992999999999
 30
0.0
 11
295.872345
 21
-3.539992999999999
 31
0.0
  0
LINE
  5
D8
330
22
100
AcDbEntity
  8
0
 62
     4
100
AcDbLine
 10
296.875
 20
-0.8600010000000001
 30
0.0
 11
297.624756
 21
-0.8600010000000001
 31
0.0
  0
LINE
  5
D9
330
22
100
AcDbEntity
  8
0
 62
     1
100
AcDbLine
 10
297.624756
 20
-1.105605999999999
 30
0.0
 11
297.624756
 21
-0.8600010000000001
 31
0.0
  0
LINE
  5
DA
330
22
100
AcDbEntity
  8
0
 62
     4
100
AcDbLine
 10
297.624756
 20
-0.8600010000000001
 30
0.0
 11
297.874756
 21
-1.109993
 31
0.0
  0
LINE
  5
DB
330
22
100
AcDbEntity
  8
0
 62
     4
100
AcDbLine
 10
297.874756
 20
-1.270446999999999
 30
0.0
 11
297.874756
 21
-1.110001
 31
0.0
  0
LINE
  5
DC
330
22
100
AcDbEntity
  8
0
 62
     4
100
AcDbLine
 10
295.624756
 20
-0.859993
 30
0.0
 11
295.374756
 21
-1.109990999999999
 31
0.0
  0
LINE
  5
DD
330
22
100
AcDbEntity
  8
0
 62
     4
100
AcDbLine
 10
295.374756
 20
-1.269989
 30
0.0
 11
295.374756
 21
-1.110001
 31
0.0
  0
LINE
  5
DE
330
22
100
AcDbEntity
  8
0
 62
     1
100
AcDbLine
 10
295.624756
 20
-1.105285999999999
 30
0.0
 11
295.624756
 21
-0.8600010000000001
 31
0.0
  0
LINE
  5
DF
330
22
100
AcDbEntity
  8
0
 62
     4
100
AcDbLine
 10
295.124756
 20
-5.389998999999999
 30
0.0
 11
295.124756
 21
-4.940001999999999
 31
0.0
  0
LINE
  5
E0
330
22
100
AcDbEntity
  8
0
 62
     4
100
AcDbLine
 10
295.124756
 20
-5.440001999999999
 30
0.0
 11
295.124756
 21
-4.889998999999999
 31
0.0
  0
LINE
  5
E1
330
22
100
AcDbEntity
  8
0
 62
     4
100
AcDbLine
 10
295.374756
 20
-5.609993
 30
0.0
 11
295.624756
 21
-5.860001999999999
 31
0.0
  0
LINE
  5
E2
330
22
100
AcDbEntity
  8
0
 62
     4
100
AcDbLine
 10
295.374756
 20
-5.610001
 30
0.0
 11
295.374756
 21
-5.440001999999999
 31
0.0
  0
LINE
  5
E3
330
22
100
AcDbEntity
  8
0
 62
     1
100
AcDbLine
 10
295.624756
 20
-5.860001
 30
0.0
 11
295.624756
 21
-5.440001999999999
 31
0.0
  0
LINE
  5
E4
330
22
100
AcDbEntity
  8
0
 62
     4
100
AcDbLine
 10
298.674744
 20
-4.339992999999999
 30
0.0
 11
298.124756
 21
-4.889998
 31
0.0
  0
LINE
  5
E5
330
22
100
AcDbEntity
  8
0
 62
     4
100
AcDbLine
 10
298.124756
 20
-5.389998999999999
 30
0.0
 11
298.124756
 21
-4.940001999999999
 31
0.0
  0
LINE
  5
E6
330
22
100
AcDbEntity
  8
0
 62
     4
100
AcDbLine
 10
298.124756
 20
-5.440001999999999
 30
0.0
 11
298.124756
 21
-4.889998999999999
 31
0.0
  0
LINE
  5
E7
330
22
100
AcDbEntity
  8
0
 62
     4
100
AcDbLine
 10
297.874756
 20
-5.609983999999999
 30
0.0
 11
297.624756
 21
-5.859976
 31
0.0
  0
LINE
  5
E8
330
22
100
AcDbEntity
  8
0
 62
     4
100
AcDbLine
 10
297.874756
 20
-5.610001
 30
0.0
 11
297.874756
 21
-5.440001999999999
 31
0.0
  0
LINE
  5
E9
330
22
100
AcDbEntity
  8
0
 62
     1
100
AcDbLine
 10
297.624756
 20
-5.860001
 30
0.0
 11
297.624756
 21
-5.440001999999999
 31
0.0
  0
LINE
  5
EA
330
22
100
AcDbEntity
  8
0
 62
     4
100
AcDbLine
 10
298.674744
 20
-4.339996
 30
0.0
 11
298.674744
 21
-2.889998999999999
 31
0.0
  0
LINE
  5
EB
330
22
100
AcDbEntity
  8
0
 62
     4
100
AcDbLine
 10
294.574768
 20
-4.339996
 30
0.0
 11
294.574768
 21
-2.889998999999999
 31
0.0
  0
LINE
  5
EC
330
22
100
AcDbEntity
  8
0
  6
CENTER
 62
     1
100
AcDbLine
 10
302.624756
 20
3.570006999999999
 30
0.0
 11
302.624756
 21
-6.5
 31
0.0
  0
LINE
  5
ED
330
22
100
AcDbEntity
  8
0
 62
     4
100
AcDbLine
 10
300.574768
 20
-4.339995
 30
0.0
 11
301.124756
 21
-4.88999
 31
0.0
  0
LINE
  5
EE
330
22
100
AcDbEntity
  8
0
 62
     4
100
AcDbLine
 10
301.624756
 20
-0.8600010000000001
 30
0.0
 11
302.374512
 21
-0.8600010000000001
 31
0.0
  0
LINE
  5
EF
330
22
100
AcDbEntity
  8
0
 62
     4
100
AcDbLine
 10
301.624756
 20
-5.860001
 30
0.0
 11
303.624756
 21
-5.860001
 31
0.0
  0
LINE
  5
F0
330
22
100
AcDbEntity
  8
0
 62
     4
100
AcDbLine
 10
301.124756
 20
-5.440001999999999
 30
0.0
 11
304.124756
 21
-5.440001999999999
 31
0.0
  0
LINE
  5
F1
330
22
100
AcDbEntity
  8
0
  6
CENTER
 62
     1
100
AcDbLine
 10
304.27121
 20
-3.089995999999999
 30
0.0
 11
300.98175
 21
-3.089995999999999
 31
0.0
  0
LINE
  5
F2
330
22
100
AcDbEntity
  8
0
  6
CENTER
 62
     1
100
AcDbLine
 10
303.360046
 20
-2.639998999999999
 30
0.0
 11
301.872345
 21
-2.639998999999999
 31
0.0
  0
LINE
  5
F3
330
22
100
AcDbEntity
  8
0
  6
CENTER
 62
     1
100
AcDbLine
 10
303.360046
 20
-3.539992999999999
 30
0.0
 11
301.872345
 21
-3.539992999999999
 31
0.0
  0
LINE
  5
F4
330
22
100
AcDbEntity
  8
0
 62
     4
100
AcDbLine
 10
302.875
 20
-0.8600010000000001
 30
0.0
 11
303.624756
 21
-0.8600010000000001
 31
0.0
  0
LINE
  5
F5
330
22
100
AcDbEntity
  8
0
 62
     1
100
AcDbLine
 10
303.624756
 20
-1.105605999999999
 30
0.0
 11
303.624756
 21
-0.8600010000000001
 31
0.0
  0
LINE
  5
F6
330
22
100
AcDbEntity
  8
0
 62
     4
100
AcDbLine
 10
303.624756
 20
-0.8599899999999999
 30
0.0
 11
303.874756
 21
-1.109998
 31
0.0
  0
LINE
  5
F7
330
22
100
AcDbEntity
  8
0
 62
     4
100
AcDbLine
 10
303.874756
 20
-1.270446999999999
 30
0.0
 11
303.874756
 21
-1.110001
 31
0.0
  0
LINE
  5
F8
330
22
100
AcDbEntity
  8
0
 62
     4
100
AcDbLine
 10
301.624756
 20
-0.8600040000000001
 30
0.0
 11
301.374756
 21
-1.109996999999999
 31
0.0
  0
LINE
  5
F9
330
22
100
AcDbEntity
  8
0
 62
     4
100
AcDbLine
 10
301.374756
 20
-1.269989
 30
0.0
 11
301.374756
 21
-1.110001
 31
0.0
  0
LINE
  5
FA
330
22
100
AcDbEntity
  8
0
 62
     1
100
AcDbLine
 10
301.624756
 20
-1.105285999999999
 30
0.0
 11
301.624756
 21
-0.8600010000000001
 31
0.0
  0
LINE
  5
FB
330
22
100
AcDbEntity
  8
0
 62
     4
100
AcDbLine
 10
301.124756
 20
-5.389998999999999
 30
0.0
 11
301.124756
 21
-4.940001999999999
 31
0.0
  0
LINE
  5
FC
330
22
100
AcDbEntity
  8
0
 62
     4
100
AcDbLine
 10
301.124756
 20
-5.440001999999999
 30
0.0
 11
301.124756
 21
-4.889998999999999
 31
0.0
  0
LINE
  5
FD
330
22
100
AcDbEntity
  8
0
 62
     4
100
AcDbLine
 10
301.374756
 20
-5.609994
 30
0.0
 11
301.624756
 21
-5.859987
 31
0.0
  0
LINE
  5
FE
330
22
100
AcDbEntity
  8
0
 62
     4
100
AcDbLine
 10
301.374756
 20
-5.610001
 30
0.0
 11
301.374756
 21
-5.440001999999999
 31
0.0
  0
LINE
  5
FF
330
22
100
AcDbEntity
  8
0
 62
     1
100
AcDbLine
 10
301.624756
 20
-5.860001
 30
0.0
 11
301.624756
 21
-5.440001999999999
 31
0.0
  0
LINE
  5
100
330
22
100
AcDbEntity
  8
0
 62
     4
100
AcDbLine
 10
304.674744
 20
-4.339984999999999
 30
0.0
 11
304.124756
 21
-4.88999
 31
0.0
  0
LINE
  5
101
330
22
100
AcDbEntity
  8
0
 62
     4
100
AcDbLine
 10
304.124756
 20
-5.389998999999999
 30
0.0
 11
304.124756
 21
-4.940001999999999
 31
0.0
  0
LINE
  5
102
330
22
100
AcDbEntity
  8
0
 62
     4
100
AcDbLine
 10
304.124756
 20
-5.440001999999999
 30
0.0
 11
304.124756
 21
-4.889998999999999
 31
0.0
  0
LINE
  5
103
330
22
100
AcDbEntity
  8
0
 62
     4
100
AcDbLine
 10
303.874756
 20
-5.609987
 30
0.0
 11
303.624756
 21
-5.85998
 31
0.0
  0
LINE
  5
104
330
22
100
AcDbEntity
  8
0
 62
     4
100
AcDbLine
 10
303.874756
 20
-5.610001
 30
0.0
 11
303.874756
 21
-5.440001999999999
 31
0.0
  0
LINE
  5
105
330
22
100
AcDbEntity
  8
0
 62
     1
100
AcDbLine
 10
303.624756
 20
-5.860001
 30
0.0
 11
303.624756
 21
-5.440001999999999
 31
0.0
  0
LINE
  5
106
330
22
100
AcDbEntity
  8
0
 62
     4
100
AcDbLine
 10
304.674744
 20
-4.339996
 30
0.0
 11
304.674744
 21
-2.889998999999999
 31
0.0
  0
LINE
  5
107
330
22
100
AcDbEntity
  8
0
 62
     4
100
AcDbLine
 10
300.574768
 20
-4.339996
 30
0.0
 11
300.574768
 21
-2.889998999999999
 31
0.0
  0
LINE
  5
108
330
22
100
AcDbEntity
  8
0
  6
CENTER
 62
     2
100
AcDbLine
 10
311.130737
 20
105.699402
 30
0.0
 11
296.130737
 21
105.699402
 31
0.0
  0
LINE
  5
109
330
22
100
AcDbEntity
  8
0
  6
CENTER
 62
     2
100
AcDbLine
 10
303.630737
 20
113.199402
 30
0.0
 11
303.630737
 21
98.19940200000001
 31
0.0
  0
LINE
  5
10A
330
22
100
AcDbEntity
  8
0
  6
CENTER
 62
     2
100
AcDbLine
 10
315.130737
 20
68.69940200000001
 30
0.0
 11
300.130737
 21
68.69940200000001
 31
0.0
  0
LINE
  5
10B
330
22
100
AcDbEntity
  8
0
  6
CENTER
 62
     2
100
AcDbLine
 10
307.630737
 20
76.19940200000001
 30
0.0
 11
307.630737
 21
61.199402
 31
0.0
  0
LINE
  5
10C
330
22
100
AcDbEntity
  8
0
  6
CENTER
 62
     2
100
AcDbLine
 10
307.630737
 20
56.199402
 30
0.0
 11
287.630737
 21
56.199402
 31
0.0
  0
LINE
  5
10D
330
22
100
AcDbEntity
  8
0
  6
CENTER
 62
     2
100
AcDbLine
 10
297.630737
 20
66.19940200000001
 30
0.0
 11
297.630737
 21
46.199402
 31
0.0
  0
LINE
  5
10E
330
22
100
AcDbEntity
  8
0
  6
CENTER
 62
     2
100
AcDbLine
 10
316.624756
 20
117.699997
 30
0.0
 11
326.624756
 21
117.699997
 31
0.0
  0
LINE
  5
10F
330
22
100
AcDbEntity
  8
0
 62
     4
100
AcDbLine
 10
-317.25
 20
-0.8599909999999999
 30
0.0
 11
-317.5
 21
-1.11
 31
0.0
  0
LINE
  5
110
330
22
100
AcDbEntity
  8
0
 62
     4
100
AcDbLine
 10
-315.25
 20
-0.8600010000000001
 30
0.0
 11
-317.25
 21
-0.8600010000000001
 31
0.0
  0
LINE
  5
111
330
22
100
AcDbEntity
  8
0
 62
     4
100
AcDbLine
 10
-315.25
 20
-0.8600049999999999
 30
0.0
 11
-315.0
 21
-1.109998
 31
0.0
  0
LINE
  5
112
330
22
100
AcDbEntity
  8
0
 62
     4
100
AcDbLine
 10
-309.25
 20
-0.8600010000000001
 30
0.0
 11
-311.25
 21
-0.8600010000000001
 31
0.0
  0
LINE
  5
113
330
22
100
AcDbEntity
  8
0
 62
     4
100
AcDbLine
 10
-309.25
 20
-0.8599919999999999
 30
0.0
 11
-309.0
 21
-1.11
 31
0.0
  0
LINE
  5
114
330
22
100
AcDbEntity
  8
0
 62
     4
100
AcDbLine
 10
-311.25
 20
-0.8599909999999999
 30
0.0
 11
-311.5
 21
-1.109982999999999
 31
0.0
  0
LINE
  5
115
330
22
100
AcDbEntity
  8
0
 62
     4
100
AcDbLine
 10
-314.200012
 20
-4.339997
 30
0.0
 11
-314.75
 21
-4.889991
 31
0.0
  0
LINE
  5
116
330
22
100
AcDbEntity
  8
0
 62
     4
100
AcDbLine
 10
-318.299988
 20
-4.339993999999999
 30
0.0
 11
-317.75
 21
-4.889998999999999
 31
0.0
  0
LINE
  5
117
330
22
100
AcDbEntity
  8
0
 62
     4
100
AcDbLine
 10
-308.199982
 20
-4.339997
 30
0.0
 11
-308.75
 21
-4.889998
 31
0.0
  0
LINE
  5
118
330
22
100
AcDbEntity
  8
0
 62
     4
100
AcDbLine
 10
-312.299988
 20
-4.339991999999999
 30
0.0
 11
-311.75
 21
-4.889987
 31
0.0
  0
LINE
  5
119
330
22
100
AcDbEntity
  8
0
 62
     4
100
AcDbLine
 10
-311.5
 20
-3.639998999999999
 30
0.0
 11
-311.5
 21
-3.539992999999999
 31
0.0
  0
LINE
  5
11A
330
22
100
AcDbEntity
  8
0
 62
     4
100
AcDbLine
 10
-309.0
 20
-3.639998999999999
 30
0.0
 11
-309.0
 21
-3.539992999999999
 31
0.0
  0
LINE
  5
11B
330
22
100
AcDbEntity
  8
0
 62
     1
100
AcDbLine
 10
-311.25
 20
-3.639998999999999
 30
0.0
 11
-311.25
 21
-3.539992999999999
 31
0.0
  0
LINE
  5
11C
330
22
100
AcDbEntity
  8
0
 62
     1
100
AcDbLine
 10
-309.25
 20
-3.639998999999999
 30
0.0
 11
-309.25
 21
-3.539992999999999
 31
0.0
  0
LINE
  5
11D
330
22
100
AcDbEntity
  8
0
 62
     4
100
AcDbLine
 10
-308.350006
 20
-2.839995999999999
 30
0.0
 11
-312.150024
 21
-2.839995999999999
 31
0.0
  0
LINE
  5
11E
330
22
100
AcDbEntity
  8
0
 62
     4
100
AcDbLine
 10
-308.25
 20
-3.440001999999999
 30
0.0
 11
-308.25
 21
-2.940002
 31
0.0
  0
LINE
  5
11F
330
22
100
AcDbEntity
  8
0
 62
     4
100
AcDbLine
 10
-312.25
 20
-3.440001999999999
 30
0.0
 11
-312.25
 21
-2.940002
 31
0.0
  0
LINE
  5
120
330
22
100
AcDbEntity
  8
0
 62
     4
100
AcDbLine
 10
-308.350006
 20
-3.539992999999999
 30
0.0
 11
-312.150024
 21
-3.539992999999999
 31
0.0
  0
LINE
  5
121
330
22
100
AcDbEntity
  8
0
 62
     4
100
AcDbLine
 10
-308.200012
 20
-3.639998999999999
 30
0.0
 11
-312.299988
 21
-3.639998999999999
 31
0.0
  0
LINE
  5
122
330
22
100
AcDbEntity
  8
0
 62
     4
100
AcDbLine
 10
-308.200012
 20
-4.339996
 30
0.0
 11
-308.200012
 21
-2.889998999999999
 31
0.0
  0
LINE
  5
123
330
22
100
AcDbEntity
  8
0
 62
     4
100
AcDbLine
 10
-312.299988
 20
-4.339996
 30
0.0
 11
-312.299988
 21
-2.889998999999999
 31
0.0
  0
LINE
  5
124
330
22
100
AcDbEntity
  8
0
 62
     4
100
AcDbLine
 10
-317.5
 20
-3.639998999999999
 30
0.0
 11
-317.5
 21
-3.539992999999999
 31
0.0
  0
LINE
  5
125
330
22
100
AcDbEntity
  8
0
 62
     4
100
AcDbLine
 10
-315.0
 20
-3.639998999999999
 30
0.0
 11
-315.0
 21
-3.539992999999999
 31
0.0
  0
LINE
  5
126
330
22
100
AcDbEntity
  8
0
 62
     1
100
AcDbLine
 10
-317.25
 20
-3.639998999999999
 30
0.0
 11
-317.25
 21
-3.539992999999999
 31
0.0
  0
LINE
  5
127
330
22
100
AcDbEntity
  8
0
 62
     1
100
AcDbLine
 10
-315.25
 20
-3.639998999999999
 30
0.0
 11
-315.25
 21
-3.539992999999999
 31
0.0
  0
LINE
  5
128
330
22
100
AcDbEntity
  8
0
 62
     4
100
AcDbLine
 10
-314.350006
 20
-2.839995999999999
 30
0.0
 11
-318.150024
 21
-2.839995999999999
 31
0.0
  0
LINE
  5
129
330
22
100
AcDbEntity
  8
0
 62
     4
100
AcDbLine
 10
-314.25
 20
-3.440001999999999
 30
0.0
 11
-314.25
 21
-2.940002
 31
0.0
  0
LINE
  5
12A
330
22
100
AcDbEntity
  8
0
 62
     4
100
AcDbLine
 10
-318.25
 20
-3.440001999999999
 30
0.0
 11
-318.25
 21
-2.940002
 31
0.0
  0
LINE
  5
12B
330
22
100
AcDbEntity
  8
0
 62
     4
100
AcDbLine
 10
-314.350006
 20
-3.539992999999999
 30
0.0
 11
-318.150024
 21
-3.539992999999999
 31
0.0
  0
LINE
  5
12C
330
22
100
AcDbEntity
  8
0
 62
     4
100
AcDbLine
 10
-314.200012
 20
-3.639998999999999
 30
0.0
 11
-318.299988
 21
-3.639998999999999
 31
0.0
  0
LINE
  5
12D
330
22
100
AcDbEntity
  8
0
 62
     4
100
AcDbLine
 10
-314.200012
 20
-4.339996
 30
0.0
 11
-314.200012
 21
-2.889998999999999
 31
0.0
  0
LINE
  5
12E
330
22
100
AcDbEntity
  8
0
100
AcDbLine
 10
-318.299988
 20
-4.339996
 30
0.0
 11
-318.299988
 21
-2.889998999999999
 31
0.0
  0
LINE
  5
12F
330
22
100
AcDbEntity
  8
0
 62
     4
100
AcDbLine
 10
-308.75
 20
-5.440001999999999
 30
0.0
 11
-311.75
 21
-5.440001999999999
 31
0.0
  0
LINE
  5
130
330
22
100
AcDbEntity
  8
0
 62
     4
100
AcDbLine
 10
-309.25
 20
-5.860001
 30
0.0
 11
-311.25
 21
-5.860001
 31
0.0
  0
LINE
  5
131
330
22
100
AcDbEntity
  8
0
 62
     4
100
AcDbLine
 10
-311.5
 20
-5.610001
 30
0.0
 11
-311.5
 21
-5.440001999999999
 31
0.0
  0
LINE
  5
132
330
22
100
AcDbEntity
  8
0
 62
     4
100
AcDbLine
 10
-311.5
 20
-5.609983999999999
 30
0.0
 11
-311.25
 21
-5.859976999999999
 31
0.0
  0
LINE
  5
133
330
22
100
AcDbEntity
  8
0
 62
     1
100
AcDbLine
 10
-311.25
 20
-5.860001
 30
0.0
 11
-311.25
 21
-5.440001999999999
 31
0.0
  0
LINE
  5
134
330
22
100
AcDbEntity
  8
0
 62
     4
100
AcDbLine
 10
-311.75
 20
-5.440001999999999
 30
0.0
 11
-311.75
 21
-4.889998999999999
 31
0.0
  0
LINE
  5
135
330
22
100
AcDbEntity
  8
0
 62
     4
100
AcDbLine
 10
-309.0
 20
-5.610001
 30
0.0
 11
-309.0
 21
-5.440001999999999
 31
0.0
  0
LINE
  5
136
330
22
100
AcDbEntity
  8
0
 62
     4
100
AcDbLine
 10
-309.0
 20
-5.609998
 30
0.0
 11
-309.25
 21
-5.860007
 31
0.0
  0
LINE
  5
137
330
22
100
AcDbEntity
  8
0
 62
     1
100
AcDbLine
 10
-309.25
 20
-5.860001
 30
0.0
 11
-309.25
 21
-5.440001999999999
 31
0.0
  0
LINE
  5
138
330
22
100
AcDbEntity
  8
0
 62
     4
100
AcDbLine
 10
-308.75
 20
-5.440001999999999
 30
0.0
 11
-308.75
 21
-4.889998999999999
 31
0.0
  0
LINE
  5
139
330
22
100
AcDbEntity
  8
0
 62
     4
100
AcDbLine
 10
-314.75
 20
-5.440001999999999
 30
0.0
 11
-317.75
 21
-5.440001999999999
 31
0.0
  0
LINE
  5
13A
330
22
100
AcDbEntity
  8
0
 62
     4
100
AcDbLine
 10
-315.25
 20
-5.860001
 30
0.0
 11
-317.25
 21
-5.860001
 31
0.0
  0
LINE
  5
13B
330
22
100
AcDbEntity
  8
0
 62
     4
100
AcDbLine
 10
-317.5
 20
-5.610001
 30
0.0
 11
-317.5
 21
-5.440001999999999
 31
0.0
  0
LINE
  5
13C
330
22
100
AcDbEntity
  8
0
 62
     4
100
AcDbLine
 10
-317.5
 20
-5.609987
 30
0.0
 11
-317.25
 21
-5.85998
 31
0.0
  0
LINE
  5
13D
330
22
100
AcDbEntity
  8
0
 62
     1
100
AcDbLine
 10
-317.25
 20
-5.860001
 30
0.0
 11
-317.25
 21
-5.440001999999999
 31
0.0
  0
LINE
  5
13E
330
22
100
AcDbEntity
  8
0
 62
     4
100
AcDbLine
 10
-317.75
 20
-5.440001999999999
 30
0.0
 11
-317.75
 21
-4.889998999999999
 31
0.0
  0
LINE
  5
13F
330
22
100
AcDbEntity
  8
0
 62
     4
100
AcDbLine
 10
-315.0
 20
-5.610001
 30
0.0
 11
-315.0
 21
-5.440001999999999
 31
0.0
  0
LINE
  5
140
330
22
100
AcDbEntity
  8
0
 62
     4
100
AcDbLine
 10
-315.0
 20
-5.609994
 30
0.0
 11
-315.25
 21
-5.859996999999999
 31
0.0
  0
LINE
  5
141
330
22
100
AcDbEntity
  8
0
 62
     1
100
AcDbLine
 10
-315.25
 20
-5.860001
 30
0.0
 11
-315.25
 21
-5.440001999999999
 31
0.0
  0
LINE
  5
142
330
22
100
AcDbEntity
  8
0
 62
     4
100
AcDbLine
 10
-314.75
 20
-5.440001999999999
 30
0.0
 11
-314.75
 21
-4.889998999999999
 31
0.0
  0
LINE
  5
143
330
22
100
AcDbEntity
  8
0
 62
     1
100
AcDbLine
 10
-311.25
 20
-2.839995999999999
 30
0.0
 11
-311.25
 21
-0.8600010000000001
 31
0.0
  0
LINE
  5
144
330
22
100
AcDbEntity
  8
0
 62
     4
100
AcDbLine
 10
-311.5
 20
-2.839995999999999
 30
0.0
 11
-311.5
 21
-1.110001
 31
0.0
  0
LINE
  5
145
330
22
100
AcDbEntity
  8
0
 62
     1
100
AcDbLine
 10
-309.25
 20
-2.839995999999999
 30
0.0
 11
-309.25
 21
-0.8600010000000001
 31
0.0
  0
LINE
  5
146
330
22
100
AcDbEntity
  8
0
 62
     4
100
AcDbLine
 10
-309.0
 20
-2.839995999999999
 30
0.0
 11
-309.0
 21
-1.110001
 31
0.0
  0
LINE
  5
147
330
22
100
AcDbEntity
  8
0
 62
     4
100
AcDbLine
 10
-317.5
 20
-2.839995999999999
 30
0.0
 11
-317.5
 21
-1.110001
 31
0.0
  0
LINE
  5
148
330
22
100
AcDbEntity
  8
0
 62
     1
100
AcDbLine
 10
-317.25
 20
-2.839995999999999
 30
0.0
 11
-317.25
 21
-0.8600010000000001
 31
0.0
  0
LINE
  5
149
330
22
100
AcDbEntity
  8
0
 62
     1
100
AcDbLine
 10
-315.25
 20
-2.839995999999999
 30
0.0
 11
-315.25
 21
-0.8600010000000001
 31
0.0
  0
LINE
  5
14A
330
22
100
AcDbEntity
  8
0
 62
     4
100
AcDbLine
 10
-315.0
 20
-2.839995999999999
 30
0.0
 11
-315.0
 21
-1.110001
 31
0.0
  0
LINE
  5
14B
330
22
100
AcDbEntity
  8
0
100
AcDbLine
 10
-311.900024
 20
63.150009
 30
0.0
 11
-311.900024
 21
49.220001
 31
0.0
  0
LINE
  5
14C
330
22
100
AcDbEntity
  8
0
100
AcDbLine
 10
-310.600006
 20
63.150009
 30
0.0
 11
-310.600006
 21
49.220001
 31
0.0
  0
LINE
  5
14D
330
22
100
AcDbEntity
  8
0
100
AcDbLine
 10
-335.25
 20
126.699997
 30
0.0
 11
-319.450012
 21
126.699997
 31
0.0
  0
LINE
  5
14E
330
22
100
AcDbEntity
  8
0
100
AcDbLine
 10
-315.049988
 20
126.699997
 30
0.0
 11
-297.25
 21
126.699997
 31
0.0
  0
LINE
  5
14F
330
22
100
AcDbEntity
  8
0
  6
CENTER
 62
     2
100
AcDbLine
 10
-326.445282
 20
105.699997
 30
0.0
 11
-307.330017
 21
105.699997
 31
0.0
  0
LINE
  5
150
330
22
100
AcDbEntity
  8
0
100
AcDbLine
 10
-321.75
 20
126.699997
 30
0.0
 11
-321.75
 21
121.699997
 31
0.0
  0
LINE
  5
151
330
22
100
AcDbEntity
  8
0
100
AcDbLine
 10
-312.75
 20
126.699997
 30
0.0
 11
-312.75
 21
121.699997
 31
0.0
  0
LINE
  5
152
330
22
100
AcDbEntity
  8
0
  6
CENTER
 62
     2
100
AcDbLine
 10
-325.25
 20
67.389999
 30
0.0
 11
-317.25
 21
67.389999
 31
0.0
  0
LINE
  5
153
330
22
100
AcDbEntity
  8
0
100
AcDbLine
 10
-317.850006
 20
-5.309998
 30
0.0
 11
-335.25
 21
-5.309998
 31
0.0
  0
LINE
  5
154
330
22
100
AcDbEntity
  8
0
100
AcDbLine
 10
-308.650024
 20
-4.809998
 30
0.0
 11
-308.650024
 21
-5.309998
 31
0.0
  0
LINE
  5
155
330
22
100
AcDbEntity
  8
0
100
AcDbLine
 10
-308.149994
 20
-4.309997
 30
0.0
 11
-308.649994
 21
-4.809998
 31
0.0
  0
LINE
  5
156
330
22
100
AcDbEntity
  8
0
100
AcDbLine
 10
-308.150024
 20
-4.309998
 30
0.0
 11
-308.150024
 21
-2.709991
 31
0.0
  0
LINE
  5
157
330
22
100
AcDbEntity
  8
0
100
AcDbLine
 10
-311.850006
 20
-4.809998
 30
0.0
 11
-311.850006
 21
-5.309998
 31
0.0
  0
LINE
  5
158
330
22
100
AcDbEntity
  8
0
100
AcDbLine
 10
-312.350006
 20
-4.309988999999999
 30
0.0
 11
-311.850006
 21
-4.809989999999999
 31
0.0
  0
LINE
  5
159
330
22
100
AcDbEntity
  8
0
100
AcDbLine
 10
-312.350006
 20
-4.309998
 30
0.0
 11
-312.350006
 21
-2.709991
 31
0.0
  0
LINE
  5
15A
330
22
100
AcDbEntity
  8
0
  6
CENTER
 62
     1
100
AcDbLine
 10
-310.25
 20
3.550002999999999
 30
0.0
 11
-310.25
 21
-6.509994999999999
 31
0.0
  0
LINE
  5
15B
330
22
100
AcDbEntity
  8
0
100
AcDbLine
 10
-321.75
 20
0.190002
 30
0.0
 11
-321.75
 21
-5.309998
 31
0.0
  0
LINE
  5
15C
330
22
100
AcDbEntity
  8
0
100
AcDbLine
 10
-317.850006
 20
-4.809998
 30
0.0
 11
-317.850006
 21
-5.309998
 31
0.0
  0
LINE
  5
15D
330
22
100
AcDbEntity
  8
0
100
AcDbLine
 10
-318.350006
 20
-4.309994
 30
0.0
 11
-317.850006
 21
-4.809994999999999
 31
0.0
  0
LINE
  5
15E
330
22
100
AcDbEntity
  8
0
100
AcDbLine
 10
-318.350006
 20
-4.309998
 30
0.0
 11
-319.850006
 21
-4.309998
 31
0.0
  0
LINE
  5
15F
330
22
100
AcDbEntity
  8
0
100
AcDbLine
 10
-319.850006
 20
-1.509994999999999
 30
0.0
 11
-317.980011
 21
-1.509994999999999
 31
0.0
  0
LINE
  5
160
330
22
100
AcDbEntity
  8
0
100
AcDbLine
 10
-314.150024
 20
-4.309998
 30
0.0
 11
-314.150024
 21
-2.709991
 31
0.0
  0
LINE
  5
161
330
22
100
AcDbEntity
  8
0
100
AcDbLine
 10
-314.149994
 20
-4.310003
 30
0.0
 11
-314.649994
 21
-4.810004
 31
0.0
  0
LINE
  5
162
330
22
100
AcDbEntity
  8
0
100
AcDbLine
 10
-314.650024
 20
-4.809998
 30
0.0
 11
-314.650024
 21
-5.309998
 31
0.0
  0
LINE
  5
163
330
22
100
AcDbEntity
  8
0
  6
CENTER
 62
     1
100
AcDbLine
 10
-316.25
 20
3.550002999999999
 30
0.0
 11
-316.25
 21
-6.509994999999999
 31
0.0
  0
LINE
  5
164
330
22
100
AcDbEntity
  8
0
100
AcDbLine
 10
-297.25
 20
126.699997
 30
0.0
 11
-297.25
 21
-5.309998
 31
0.0
  0
LINE
  5
165
330
22
100
AcDbEntity
  8
0
100
AcDbLine
 10
-315.049988
 20
126.699997
 30
0.0
 11
-315.049988
 21
125.699997
 31
0.0
  0
LINE
  5
166
330
22
100
AcDbEntity
  8
0
100
AcDbLine
 10
-313.5
 20
125.699997
 30
0.0
 11
-315.049988
 21
125.699997
 31
0.0
  0
LINE
  5
167
330
22
100
AcDbEntity
  8
0
100
AcDbLine
 10
-313.5
 20
125.699997
 30
0.0
 11
-313.5
 21
124.199997
 31
0.0
  0
LINE
  5
168
330
22
100
AcDbEntity
  8
0
100
AcDbLine
 10
-315.5
 20
122.199997
 30
0.0
 11
-319.0
 21
122.199997
 31
0.0
  0
LINE
  5
169
330
22
100
AcDbEntity
  8
0
100
AcDbLine
 10
-321.0
 20
125.699997
 30
0.0
 11
-321.0
 21
124.199997
 31
0.0
  0
LINE
  5
16A
330
22
100
AcDbEntity
  8
0
100
AcDbLine
 10
-321.0
 20
125.699997
 30
0.0
 11
-319.450012
 21
125.699997
 31
0.0
  0
LINE
  5
16B
330
22
100
AcDbEntity
  8
0
100
AcDbLine
 10
-319.450012
 20
126.699997
 30
0.0
 11
-319.450012
 21
125.699997
 31
0.0
  0
LINE
  5
16C
330
22
100
AcDbEntity
  8
0
100
AcDbLine
 10
-321.75
 20
121.699997
 30
0.0
 11
-312.75
 21
121.699997
 31
0.0
  0
LINE
  5
16D
330
22
100
AcDbEntity
  8
0
  6
CENTER
 62
     2
100
AcDbLine
 10
-321.25
 20
75.69000200000001
 30
0.0
 11
-321.25
 21
58.040009
 31
0.0
  0
LINE
  5
16E
330
22
100
AcDbEntity
  8
0
  6
CENTER
 62
     2
100
AcDbLine
 10
-328.25
 20
68.69000200000001
 30
0.0
 11
-314.25
 21
68.69000200000001
 31
0.0
  0
LINE
  5
16F
330
22
100
AcDbEntity
  8
0
  6
CENTER
 62
     2
100
AcDbLine
 10
-311.25
 20
67.190002
 30
0.0
 11
-311.25
 21
45.19000199999999
 31
0.0
  0
LINE
  5
170
330
22
100
AcDbEntity
  8
0
  6
CENTER
 62
     2
100
AcDbLine
 10
-323.25
 20
56.190002
 30
0.0
 11
-296.630005
 21
56.190002
 31
0.0
  0
LINE
  5
171
330
22
100
AcDbEntity
  8
0
100
AcDbLine
 10
-307.75
 20
0.190002
 30
0.0
 11
-321.75
 21
0.190002
 31
0.0
  0
LINE
  5
172
330
22
100
AcDbEntity
  8
0
100
AcDbLine
 10
-307.75
 20
0.190002
 30
0.0
 11
-307.75
 21
-5.309998
 31
0.0
  0
LINE
  5
173
330
22
100
AcDbEntity
  8
0
100
AcDbLine
 10
-311.850006
 20
-5.309998
 30
0.0
 11
-314.650024
 21
-5.309998
 31
0.0
  0
LINE
  5
174
330
22
100
AcDbEntity
  8
0
  6
CENTER
 62
     2
100
AcDbLine
 10
-317.25
 20
117.409996
 30
0.0
 11
-317.25
 21
95.848297
 31
0.0
  0
LINE
  5
175
330
22
100
AcDbEntity
  8
0
100
AcDbLine
 10
-295.25
 20
88.69999699999999
 30
0.0
 11
-297.25
 21
88.69999699999999
 31
0.0
  0
LINE
  5
176
330
22
100
AcDbEntity
  8
0
100
AcDbLine
 10
-295.25
 20
-5.309998
 30
0.0
 11
-308.650024
 21
-5.309998
 31
0.0
  0
LINE
  5
177
330
22
100
AcDbEntity
  8
0
100
AcDbLine
 10
-295.25
 20
88.69999699999999
 30
0.0
 11
-295.25
 21
-5.309998
 31
0.0
  0
LINE
  5
178
330
22
100
AcDbEntity
  8
0
100
AcDbLine
 10
-335.25
 20
126.699997
 30
0.0
 11
-335.25
 21
-5.309998
 31
0.0
  0
LINE
  5
179
330
22
100
AcDbEntity
  8
0
  6
DASHED
 62
     2
100
AcDbLine
 10
-332.25
 20
59.440002
 30
0.0
 11
-335.25
 21
59.440002
 31
0.0
  0
LINE
  5
17A
330
22
100
AcDbEntity
  8
0
  6
DASHED
 62
     2
100
AcDbLine
 10
-332.25
 20
65.940002
 30
0.0
 11
-335.25
 21
65.940002
 31
0.0
  0
LINE
  5
17B
330
22
100
AcDbEntity
  8
0
  6
DASHED
 62
     2
100
AcDbLine
 10
-332.25
 20
67.94000200000001
 30
0.0
 11
-332.25
 21
57.440002
 31
0.0
  0
LINE
  5
17C
330
22
100
AcDbEntity
  8
0
  6
DASHED
 62
     2
100
AcDbLine
 10
-326.75
 20
57.440002
 30
0.0
 11
-332.25
 21
57.440002
 31
0.0
  0
LINE
  5
17D
330
22
100
AcDbEntity
  8
0
  6
DASHED
 62
     2
100
AcDbLine
 10
-326.75
 20
67.94000200000001
 30
0.0
 11
-332.25
 21
67.94000200000001
 31
0.0
  0
LINE
  5
17E
330
22
100
AcDbEntity
  8
0
  6
DASHED
 62
     2
100
AcDbLine
 10
-326.75
 20
57.440002
 30
0.0
 11
-326.75
 21
59.440002
 31
0.0
  0
LINE
  5
17F
330
22
100
AcDbEntity
  8
0
  6
DASHED
 62
     2
100
AcDbLine
 10
-325.75
 20
59.440002
 30
0.0
 11
-326.75
 21
59.440002
 31
0.0
  0
LINE
  5
180
330
22
100
AcDbEntity
  8
0
  6
DASHED
 62
     2
100
AcDbLine
 10
-325.75
 20
59.440002
 30
0.0
 11
-325.75
 21
65.940002
 31
0.0
  0
LINE
  5
181
330
22
100
AcDbEntity
  8
0
  6
DASHED
 62
     2
100
AcDbLine
 10
-325.75
 20
65.940002
 30
0.0
 11
-326.75
 21
65.940002
 31
0.0
  0
LINE
  5
182
330
22
100
AcDbEntity
  8
0
  6
DASHED
 62
     2
100
AcDbLine
 10
-326.75
 20
65.940002
 30
0.0
 11
-326.75
 21
67.94000200000001
 31
0.0
  0
LINE
  5
183
330
22
100
AcDbEntity
  8
0
  6
DASHED
 62
     2
100
AcDbLine
 10
-332.25
 20
13.940002
 30
0.0
 11
-335.25
 21
13.940002
 31
0.0
  0
LINE
  5
184
330
22
100
AcDbEntity
  8
0
  6
DASHED
 62
     2
100
AcDbLine
 10
-332.25
 20
7.440002
 30
0.0
 11
-335.25
 21
7.440002
 31
0.0
  0
LINE
  5
185
330
22
100
AcDbEntity
  8
0
  6
DASHED
 62
     2
100
AcDbLine
 10
-332.25
 20
15.940002
 30
0.0
 11
-332.25
 21
5.440001999999999
 31
0.0
  0
LINE
  5
186
330
22
100
AcDbEntity
  8
0
  6
DASHED
 62
     2
100
AcDbLine
 10
-326.75
 20
5.440001999999999
 30
0.0
 11
-332.25
 21
5.440001999999999
 31
0.0
  0
LINE
  5
187
330
22
100
AcDbEntity
  8
0
  6
DASHED
 62
     2
100
AcDbLine
 10
-326.75
 20
5.440001999999999
 30
0.0
 11
-326.75
 21
7.440002
 31
0.0
  0
LINE
  5
188
330
22
100
AcDbEntity
  8
0
  6
DASHED
 62
     2
100
AcDbLine
 10
-325.75
 20
7.440002
 30
0.0
 11
-326.75
 21
7.440002
 31
0.0
  0
LINE
  5
189
330
22
100
AcDbEntity
  8
0
  6
DASHED
 62
     2
100
AcDbLine
 10
-325.75
 20
7.440002
 30
0.0
 11
-325.75
 21
13.940002
 31
0.0
  0
LINE
  5
18A
330
22
100
AcDbEntity
  8
0
  6
DASHED
 62
     2
100
AcDbLine
 10
-325.75
 20
13.940002
 30
0.0
 11
-326.75
 21
13.940002
 31
0.0
  0
LINE
  5
18B
330
22
100
AcDbEntity
  8
0
  6
DASHED
 62
     2
100
AcDbLine
 10
-326.75
 20
13.940002
 30
0.0
 11
-326.75
 21
15.940002
 31
0.0
  0
LINE
  5
18C
330
22
100
AcDbEntity
  8
0
  6
DASHED
 62
     2
100
AcDbLine
 10
-326.75
 20
15.940002
 30
0.0
 11
-332.25
 21
15.940002
 31
0.0
  0
LINE
  5
18D
330
22
100
AcDbEntity
  8
0
  6
DASHED
 62
     2
100
AcDbLine
 10
-334.75
 20
52.19000199999999
 30
0.0
 11
-334.75
 21
21.190002
 31
0.0
  0
LINE
  5
18E
330
22
100
AcDbEntity
  8
0
  6
DASHED
 62
     2
100
AcDbLine
 10
-335.25
 20
52.68999499999999
 30
0.0
 11
-334.75
 21
52.190006
 31
0.0
  0
LINE
  5
18F
330
22
100
AcDbEntity
  8
0
  6
DASHED
 62
     2
100
AcDbLine
 10
-335.25
 20
20.690018
 30
0.0
 11
-334.75
 21
21.19002
 31
0.0
  0
LINE
  5
190
330
22
100
AcDbEntity
  8
0
  6
DASHED
 62
     2
100
AcDbLine
 10
-327.399994
 20
5.440001999999999
 30
0.0
 11
-327.399994
 21
15.940002
 31
0.0
  0
LINE
  5
191
330
22
100
AcDbEntity
  8
0
  6
DASHED
 62
     2
100
AcDbLine
 10
-327.399994
 20
57.440002
 30
0.0
 11
-327.399994
 21
67.94000200000001
 31
0.0
  0
LINE
  5
192
330
22
100
AcDbEntity
  8
0
  6
CENTER
 62
     2
100
AcDbLine
 10
-323.420013
 20
62.690002
 30
0.0
 11
-338.149994
 21
62.690002
 31
0.0
  0
LINE
  5
193
330
22
100
AcDbEntity
  8
0
  6
CENTER
 62
     2
100
AcDbLine
 10
-323.420013
 20
10.690002
 30
0.0
 11
-338.149994
 21
10.690002
 31
0.0
  0
LINE
  5
194
330
22
100
AcDbEntity
  8
0
  6
CENTER
 62
     2
100
AcDbLine
 10
-340.25
 20
117.699997
 30
0.0
 11
-330.25
 21
117.699997
 31
0.0
  0
LINE
  5
195
330
22
100
AcDbEntity
  8
0
100
AcDbLine
 10
-193.855087
 20
69.633377
 30
0.0
 11
-193.855087
 21
66.746628
 31
0.0
  0
LINE
  5
196
330
22
100
AcDbEntity
  8
0
100
AcDbLine
 10
-188.855087
 20
69.633377
 30
0.0
 11
-188.855087
 21
66.746628
 31
0.0
  0
LINE
  5
197
330
22
100
AcDbEntity
  8
0
100
AcDbLine
 10
-193.855087
 20
69.633385
 30
0.0
 11
-191.355087
 21
71.076759
 31
0.0
  0
LINE
  5
198
330
22
100
AcDbEntity
  8
0
100
AcDbLine
 10
-191.355087
 20
65.303253
 30
0.0
 11
-188.855087
 21
66.746628
 31
0.0
  0
LINE
  5
199
330
22
100
AcDbEntity
  8
0
100
AcDbLine
 10
-191.355087
 20
71.076759
 30
0.0
 11
-188.855087
 21
69.633385
 31
0.0
  0
LINE
  5
19A
330
22
100
AcDbEntity
  8
0
100
AcDbLine
 10
-193.855087
 20
66.746635
 30
0.0
 11
-191.355087
 21
65.30326099999999
 31
0.0
  0
LINE
  5
19B
330
22
100
AcDbEntity
  8
0
100
AcDbLine
 10
-187.855087
 20
45.633377
 30
0.0
 11
-187.855087
 21
42.746628
 31
0.0
  0
LINE
  5
19C
330
22
100
AcDbEntity
  8
0
100
AcDbLine
 10
-182.855087
 20
45.633377
 30
0.0
 11
-182.855087
 21
42.746628
 31
0.0
  0
LINE
  5
19D
330
22
100
AcDbEntity
  8
0
100
AcDbLine
 10
-187.855103
 20
45.63338499999999
 30
0.0
 11
-185.355103
 21
47.076759
 31
0.0
  0
LINE
  5
19E
330
22
100
AcDbEntity
  8
0
100
AcDbLine
 10
-185.355103
 20
41.303257
 30
0.0
 11
-182.855103
 21
42.74663199999999
 31
0.0
  0
LINE
  5
19F
330
22
100
AcDbEntity
  8
0
100
AcDbLine
 10
-185.355087
 20
47.076756
 30
0.0
 11
-182.855087
 21
45.633381
 31
0.0
  0
LINE
  5
1A0
330
22
100
AcDbEntity
  8
0
100
AcDbLine
 10
-187.855087
 20
42.74662399999999
 30
0.0
 11
-185.355087
 21
41.303249
 31
0.0
  0
LINE
  5
1A1
330
22
100
AcDbEntity
  8
0
100
AcDbLine
 10
-199.855087
 20
45.633377
 30
0.0
 11
-199.855087
 21
42.746628
 31
0.0
  0
LINE
  5
1A2
330
22
100
AcDbEntity
  8
0
100
AcDbLine
 10
-194.855087
 20
45.633377
 30
0.0
 11
-194.855087
 21
42.746628
 31
0.0
  0
LINE
  5
1A3
330
22
100
AcDbEntity
  8
0
100
AcDbLine
 10
-199.855103
 20
45.633389
 30
0.0
 11
-197.355087
 21
47.076771
 31
0.0
  0
LINE
  5
1A4
330
22
100
AcDbEntity
  8
0
100
AcDbLine
 10
-197.355087
 20
41.303268
 30
0.0
 11
-194.855087
 21
42.746643
 31
0.0
  0
LINE
  5
1A5
330
22
100
AcDbEntity
  8
0
100
AcDbLine
 10
-197.355087
 20
47.07674799999999
 30
0.0
 11
-194.855087
 21
45.633377
 31
0.0
  0
LINE
  5
1A6
330
22
100
AcDbEntity
  8
0
100
AcDbLine
 10
-199.855087
 20
42.74662
 30
0.0
 11
-197.355087
 21
41.303249
 31
0.0
  0
LINE
  5
1A7
330
22
100
AcDbEntity
  8
0
100
AcDbLine
 10
182.134903
 20
69.633377
 30
0.0
 11
182.134903
 21
66.746628
 31
0.0
  0
LINE
  5
1A8
330
22
100
AcDbEntity
  8
0
100
AcDbLine
 10
187.134903
 20
69.633377
 30
0.0
 11
187.134903
 21
66.746628
 31
0.0
  0
LINE
  5
1A9
330
22
100
AcDbEntity
  8
0
100
AcDbLine
 10
182.134888
 20
69.633362
 30
0.0
 11
184.634857
 21
71.07672099999999
 31
0.0
  0
LINE
  5
1AA
330
22
100
AcDbEntity
  8
0
100
AcDbLine
 10
184.634888
 20
65.30323800000001
 30
0.0
 11
187.134857
 21
66.74659
 31
0.0
  0
LINE
  5
1AB
330
22
100
AcDbEntity
  8
0
100
AcDbLine
 10
184.634903
 20
71.076759
 30
0.0
 11
187.134872
 21
69.63339999999999
 31
0.0
  0
LINE
  5
1AC
330
22
100
AcDbEntity
  8
0
100
AcDbLine
 10
182.134903
 20
66.746635
 30
0.0
 11
184.634872
 21
65.303268
 31
0.0
  0
LINE
  5
1AD
330
22
100
AcDbEntity
  8
0
100
AcDbLine
 10
176.134903
 20
45.633377
 30
0.0
 11
176.134903
 21
42.746628
 31
0.0
  0
LINE
  5
1AE
330
22
100
AcDbEntity
  8
0
100
AcDbLine
 10
181.134903
 20
45.633377
 30
0.0
 11
181.134903
 21
42.746628
 31
0.0
  0
LINE
  5
1AF
330
22
100
AcDbEntity
  8
0
100
AcDbLine
 10
176.134766
 20
45.633293
 30
0.0
 11
178.634735
 21
47.076653
 31
0.0
  0
LINE
  5
1B0
330
22
100
AcDbEntity
  8
0
100
AcDbLine
 10
178.634766
 20
41.303162
 30
0.0
 11
181.134735
 21
42.746525
 31
0.0
  0
LINE
  5
1B1
330
22
100
AcDbEntity
  8
0
100
AcDbLine
 10
178.634781
 20
47.076832
 30
0.0
 11
181.13475
 21
45.63346899999999
 31
0.0
  0
LINE
  5
1B2
330
22
100
AcDbEntity
  8
0
100
AcDbLine
 10
176.134781
 20
42.746689
 30
0.0
 11
178.63475
 21
41.303337
 31
0.0
  0
LINE
  5
1B3
330
22
100
AcDbEntity
  8
0
100
AcDbLine
 10
188.134903
 20
45.633377
 30
0.0
 11
188.134903
 21
42.746628
 31
0.0
  0
LINE
  5
1B4
330
22
100
AcDbEntity
  8
0
100
AcDbLine
 10
193.134903
 20
45.633377
 30
0.0
 11
193.134903
 21
42.746628
 31
0.0
  0
LINE
  5
1B5
330
22
100
AcDbEntity
  8
0
100
AcDbLine
 10
188.134781
 20
45.633301
 30
0.0
 11
190.634781
 21
47.07665999999999
 31
0.0
  0
LINE
  5
1B6
330
22
100
AcDbEntity
  8
0
100
AcDbLine
 10
190.634781
 20
41.303185
 30
0.0
 11
193.134766
 21
42.74653599999999
 31
0.0
  0
LINE
  5
1B7
330
22
100
AcDbEntity
  8
0
100
AcDbLine
 10
190.634811
 20
47.076805
 30
0.0
 11
193.134781
 21
45.63345
 31
0.0
  0
LINE
  5
1B8
330
22
100
AcDbEntity
  8
0
100
AcDbLine
 10
188.134811
 20
42.74667700000001
 30
0.0
 11
190.634781
 21
41.30331799999999
 31
0.0
  0
LINE
  5
1B9
330
22
100
AcDbEntity
  8
0
 62
     4
100
AcDbLine
 10
-99.365097
 20
68.69000200000001
 30
0.0
 11
-99.365097
 21
66.69000200000001
 31
0.0
  0
LINE
  5
1BA
330
22
100
AcDbEntity
  8
0
 62
     4
100
AcDbLine
 10
-107.365097
 20
68.69000200000001
 30
0.0
 11
-107.365097
 21
66.69000200000001
 31
0.0
  0
LINE
  5
1BB
330
22
100
AcDbEntity
  8
0
  6
CENTER
 62
     1
100
AcDbLine
 10
-109.305099
 20
66.69000200000001
 30
0.0
 11
-97.585098
 21
66.69000200000001
 31
0.0
  0
LINE
  5
1BC
330
22
100
AcDbEntity
  8
0
  6
CENTER
 62
     1
100
AcDbLine
 10
-109.375092
 20
68.69000200000001
 30
0.0
 11
-97.585098
 21
68.69000200000001
 31
0.0
  0
LINE
  5
1BD
330
22
100
AcDbEntity
  8
0
100
AcDbLine
 10
-203.355087
 20
99.94999700000001
 30
0.0
 11
196.634903
 21
99.94999700000001
 31
0.0
  0
LINE
  5
1BE
330
22
100
AcDbEntity
  8
0
100
AcDbLine
 10
-203.355087
 20
101.350006
 30
0.0
 11
196.634903
 21
101.350006
 31
0.0
  0
LINE
  5
1BF
330
22
100
AcDbEntity
  8
0
100
AcDbLine
 10
196.634903
 20
96.85000600000002
 30
0.0
 11
197.634903
 21
96.85000600000002
 31
0.0
  0
LINE
  5
1C0
330
22
100
AcDbEntity
  8
0
100
AcDbLine
 10
196.634903
 20
120.199997
 30
0.0
 11
197.634903
 21
120.199997
 31
0.0
  0
LINE
  5
1C1
330
22
100
AcDbEntity
  8
0
100
AcDbLine
 10
-55.865097
 20
88.69999699999999
 30
0.0
 11
-55.865097
 21
92.199997
 31
0.0
  0
LINE
  5
1C2
330
22
100
AcDbEntity
  8
0
100
AcDbLine
 10
-204.355087
 20
74.19000200000001
 30
0.0
 11
-178.355087
 21
74.19000200000001
 31
0.0
  0
LINE
  5
1C3
330
22
100
AcDbEntity
  8
0
100
AcDbLine
 10
-203.355087
 20
120.199997
 30
0.0
 11
-204.355087
 21
120.199997
 31
0.0
  0
LINE
  5
1C4
330
22
100
AcDbEntity
  8
0
100
AcDbLine
 10
184.884903
 20
84.699997
 30
0.0
 11
190.384903
 21
84.699997
 31
0.0
  0
LINE
  5
1C5
330
22
100
AcDbEntity
  8
0
100
AcDbLine
 10
190.384903
 20
87.69999699999999
 30
0.0
 11
190.384903
 21
84.699997
 31
0.0
  0
LINE
  5
1C6
330
22
100
AcDbEntity
  8
0
100
AcDbLine
 10
184.884903
 20
87.69999699999999
 30
0.0
 11
184.884903
 21
84.699997
 31
0.0
  0
LINE
  5
1C7
330
22
100
AcDbEntity
  8
0
  6
CENTER
 62
     2
100
AcDbLine
 10
187.634903
 20
95.88999900000001
 30
0.0
 11
187.634903
 21
82.69999699999999
 31
0.0
  0
LINE
  5
1C8
330
22
100
AcDbEntity
  8
0
100
AcDbLine
 10
197.134903
 20
87.69999699999999
 30
0.0
 11
176.134903
 21
87.69999699999999
 31
0.0
  0
LINE
  5
1C9
330
22
100
AcDbEntity
  8
0
100
AcDbLine
 10
176.134903
 20
92.199997
 30
0.0
 11
176.134903
 21
87.69999699999999
 31
0.0
  0
LINE
  5
1CA
330
22
100
AcDbEntity
  8
0
100
AcDbLine
 10
197.134903
 20
92.199997
 30
0.0
 11
197.134903
 21
87.69999699999999
 31
0.0
  0
LINE
  5
1CB
330
22
100
AcDbEntity
  8
0
100
AcDbLine
 10
-203.355087
 20
115.449997
 30
0.0
 11
196.634903
 21
115.449997
 31
0.0
  0
LINE
  5
1CC
330
22
100
AcDbEntity
  8
0
100
AcDbLine
 10
-203.355087
 20
114.049995
 30
0.0
 11
196.634903
 21
114.049995
 31
0.0
  0
LINE
  5
1CD
330
22
100
AcDbEntity
  8
0
100
AcDbLine
 10
-203.355087
 20
123.199997
 30
0.0
 11
196.634903
 21
123.199997
 31
0.0
  0
LINE
  5
1CE
330
22
100
AcDbEntity
  8
0
100
AcDbLine
 10
196.634903
 20
92.199997
 30
0.0
 11
196.634903
 21
126.699997
 31
0.0
  0
LINE
  5
1CF
330
22
100
AcDbEntity
  8
0
100
AcDbLine
 10
-203.855087
 20
92.199997
 30
0.0
 11
197.134903
 21
92.199997
 31
0.0
  0
LINE
  5
1D0
330
22
100
AcDbEntity
  8
0
100
AcDbLine
 10
-203.355087
 20
96.85000600000002
 30
0.0
 11
-204.355087
 21
96.85000600000002
 31
0.0
  0
LINE
  5
1D1
330
22
100
AcDbEntity
  8
0
100
AcDbLine
 10
-150.865097
 20
92.199997
 30
0.0
 11
-150.865097
 21
88.69999699999999
 31
0.0
  0
LINE
  5
1D2
330
22
100
AcDbEntity
  8
0
100
AcDbLine
 10
-191.605087
 20
84.699997
 30
0.0
 11
-197.105087
 21
84.699997
 31
0.0
  0
LINE
  5
1D3
330
22
100
AcDbEntity
  8
0
100
AcDbLine
 10
-197.105087
 20
87.69999699999999
 30
0.0
 11
-197.105087
 21
84.699997
 31
0.0
  0
LINE
  5
1D4
330
22
100
AcDbEntity
  8
0
100
AcDbLine
 10
-191.605087
 20
87.69999699999999
 30
0.0
 11
-191.605087
 21
84.699997
 31
0.0
  0
LINE
  5
1D5
330
22
100
AcDbEntity
  8
0
  6
CENTER
 62
     2
100
AcDbLine
 10
-194.355087
 20
94.62000999999998
 30
0.0
 11
-194.355087
 21
82.69999699999999
 31
0.0
  0
LINE
  5
1D6
330
22
100
AcDbEntity
  8
0
100
AcDbLine
 10
-203.855087
 20
87.69999699999999
 30
0.0
 11
-182.855087
 21
87.69999699999999
 31
0.0
  0
LINE
  5
1D7
330
22
100
AcDbEntity
  8
0
100
AcDbLine
 10
-182.855087
 20
92.199997
 30
0.0
 11
-182.855087
 21
87.69999699999999
 31
0.0
  0
LINE
  5
1D8
330
22
100
AcDbEntity
  8
0
100
AcDbLine
 10
-203.855087
 20
92.199997
 30
0.0
 11
-203.855087
 21
87.69999699999999
 31
0.0
  0
LINE
  5
1D9
330
22
100
AcDbEntity
  8
0
100
AcDbLine
 10
-203.355087
 20
126.699997
 30
0.0
 11
196.634903
 21
126.699997
 31
0.0
  0
LINE
  5
1DA
330
22
100
AcDbEntity
  8
0
100
AcDbLine
 10
-203.355087
 20
92.199997
 30
0.0
 11
-203.355087
 21
126.699997
 31
0.0
  0
LINE
  5
1DB
330
22
100
AcDbEntity
  8
0
100
AcDbLine
 10
211.634903
 20
126.699997
 30
0.0
 11
197.634903
 21
126.699997
 31
0.0
  0
LINE
  5
1DC
330
22
100
AcDbEntity
  8
0
100
AcDbLine
 10
-218.355087
 20
126.699997
 30
0.0
 11
-204.355087
 21
126.699997
 31
0.0
  0
LINE
  5
1DD
330
22
100
AcDbEntity
  8
0
100
AcDbLine
 10
125.634903
 20
57.940002
 30
0.0
 11
137.634903
 21
57.940002
 31
0.0
  0
LINE
  5
1DE
330
22
100
AcDbEntity
  8
0
100
AcDbLine
 10
125.634903
 20
54.440002
 30
0.0
 11
137.634903
 21
54.440002
 31
0.0
  0
LINE
  5
1DF
330
22
100
AcDbEntity
  8
0
100
AcDbLine
 10
137.634903
 20
50.190002
 30
0.0
 11
142.134903
 21
50.190002
 31
0.0
  0
LINE
  5
1E0
330
22
100
AcDbEntity
  8
0
100
AcDbLine
 10
137.634903
 20
62.19000199999999
 30
0.0
 11
142.134903
 21
62.19000199999999
 31
0.0
  0
LINE
  5
1E1
330
22
100
AcDbEntity
  8
0
100
AcDbLine
 10
137.634903
 20
62.19000199999999
 30
0.0
 11
137.634903
 21
50.190002
 31
0.0
  0
LINE
  5
1E2
330
22
100
AcDbEntity
  8
0
100
AcDbLine
 10
-178.355087
 20
72.190002
 30
0.0
 11
-173.355087
 21
72.190002
 31
0.0
  0
LINE
  5
1E3
330
22
100
AcDbEntity
  8
0
100
AcDbLine
 10
125.634903
 20
57.940002
 30
0.0
 11
125.634903
 21
54.440002
 31
0.0
  0
LINE
  5
1E4
330
22
100
AcDbEntity
  8
0
100
AcDbLine
 10
-173.355087
 20
88.69999699999999
 30
0.0
 11
-33.365097
 21
88.69999699999999
 31
0.0
  0
LINE
  5
1E5
330
22
100
AcDbEntity
  8
0
100
AcDbLine
 10
-177.765091
 20
66.94000200000001
 30
0.0
 11
-173.355087
 21
66.94000200000001
 31
0.0
  0
LINE
  5
1E6
330
22
100
AcDbEntity
  8
0
100
AcDbLine
 10
-178.355087
 20
47.440002
 30
0.0
 11
-173.355087
 21
47.440002
 31
0.0
  0
LINE
  5
1E7
330
22
100
AcDbEntity
  8
0
100
AcDbLine
 10
-178.355087
 20
40.94000199999999
 30
0.0
 11
-173.355087
 21
40.94000199999999
 31
0.0
  0
LINE
  5
1E8
330
22
100
AcDbEntity
  8
0
100
AcDbLine
 10
-178.355087
 20
37.190002
 30
0.0
 11
-173.355087
 21
37.190002
 31
0.0
  0
LINE
  5
1E9
330
22
100
AcDbEntity
  8
0
100
AcDbLine
 10
171.634903
 20
47.440002
 30
0.0
 11
-33.365097
 21
47.440002
 31
0.0
  0
LINE
  5
1EA
330
22
100
AcDbEntity
  8
0
100
AcDbLine
 10
171.634903
 20
40.94000199999999
 30
0.0
 11
-33.365097
 21
40.94000199999999
 31
0.0
  0
LINE
  5
1EB
330
22
100
AcDbEntity
  8
0
100
AcDbLine
 10
171.634903
 20
37.190002
 30
0.0
 11
-33.365097
 21
37.190002
 31
0.0
  0
LINE
  5
1EC
330
22
100
AcDbEntity
  8
0
100
AcDbLine
 10
-33.365097
 20
63.940002
 30
0.0
 11
137.524796
 21
63.940002
 31
0.0
  0
LINE
  5
1ED
330
22
100
AcDbEntity
  8
0
100
AcDbLine
 10
-33.365097
 20
66.94000200000001
 30
0.0
 11
171.634903
 21
66.94000200000001
 31
0.0
  0
LINE
  5
1EE
330
22
100
AcDbEntity
  8
0
100
AcDbLine
 10
-33.365097
 20
72.190002
 30
0.0
 11
171.634903
 21
72.190002
 31
0.0
  0
LINE
  5
1EF
330
22
100
AcDbEntity
  8
0
100
AcDbLine
 10
142.134857
 20
50.190029
 30
0.0
 11
143.13475
 21
49.19013599999999
 31
0.0
  0
LINE
  5
1F0
330
22
100
AcDbEntity
  8
0
100
AcDbLine
 10
142.134811
 20
62.190086
 30
0.0
 11
143.134811
 21
63.190086
 31
0.0
  0
LINE
  5
1F1
330
22
100
AcDbEntity
  8
0
100
AcDbLine
 10
143.134903
 20
49.190002
 30
0.0
 11
143.134903
 21
63.190002
 31
0.0
  0
LINE
  5
1F2
330
22
100
AcDbEntity
  8
0
100
AcDbLine
 10
142.134903
 20
62.19000199999999
 30
0.0
 11
142.134903
 21
50.190002
 31
0.0
  0
LINE
  5
1F3
330
22
100
AcDbEntity
  8
0
100
AcDbLine
 10
171.634903
 20
49.190002
 30
0.0
 11
143.134903
 21
49.190002
 31
0.0
  0
LINE
  5
1F4
330
22
100
AcDbEntity
  8
0
 62
     2
100
AcDbLine
 10
171.634903
 20
50.190002
 30
0.0
 11
142.134903
 21
50.190002
 31
0.0
  0
LINE
  5
1F5
330
22
100
AcDbEntity
  8
0
 62
     2
100
AcDbLine
 10
171.634903
 20
62.19000199999999
 30
0.0
 11
142.134903
 21
62.19000199999999
 31
0.0
  0
LINE
  5
1F6
330
22
100
AcDbEntity
  8
0
100
AcDbLine
 10
171.634903
 20
63.190002
 30
0.0
 11
143.134903
 21
63.190002
 31
0.0
  0
LINE
  5
1F7
330
22
100
AcDbEntity
  8
0
100
AcDbLine
 10
-178.355087
 20
49.190002
 30
0.0
 11
-173.355087
 21
49.190002
 31
0.0
  0
LINE
  5
1F8
330
22
100
AcDbEntity
  8
0
 62
     2
100
AcDbLine
 10
-178.355087
 20
50.190002
 30
0.0
 11
-173.355087
 21
50.190002
 31
0.0
  0
LINE
  5
1F9
330
22
100
AcDbEntity
  8
0
 62
     2
100
AcDbLine
 10
-178.355087
 20
62.19000199999999
 30
0.0
 11
-173.355087
 21
62.19000199999999
 31
0.0
  0
LINE
  5
1FA
330
22
100
AcDbEntity
  8
0
100
AcDbLine
 10
-178.355087
 20
63.190002
 30
0.0
 11
-173.355087
 21
63.190002
 31
0.0
  0
LINE
  5
1FB
330
22
100
AcDbEntity
  8
0
  6
CENTER
 62
     2
100
AcDbLine
 10
123.104874
 20
56.190002
 30
0.0
 11
213.164688
 21
56.190002
 31
0.0
  0
LINE
  5
1FC
330
22
100
AcDbEntity
  8
0
  6
CENTER
 62
     2
100
AcDbLine
 10
-167.855087
 20
1.690001999999999
 30
0.0
 11
-38.865097
 21
1.690001999999999
 31
0.0
  0
LINE
  5
1FD
330
22
100
AcDbEntity
  8
0
  6
CENTER
 62
     2
100
AcDbLine
 10
-43.36509699999999
 20
6.190001999999999
 30
0.0
 11
-43.36509699999999
 21
-2.809997999999999
 31
0.0
  0
LINE
  5
1FE
330
22
100
AcDbEntity
  8
0
  6
CENTER
 62
     2
100
AcDbLine
 10
-163.355087
 20
6.190001999999999
 30
0.0
 11
-163.355087
 21
-2.809997999999999
 31
0.0
  0
LINE
  5
1FF
330
22
100
AcDbEntity
  8
0
  6
CENTER
 62
     2
100
AcDbLine
 10
-163.355087
 20
72.190002
 30
0.0
 11
-163.355087
 21
63.190002
 31
0.0
  0
LINE
  5
200
330
22
100
AcDbEntity
  8
0
  6
CENTER
 62
     2
100
AcDbLine
 10
96.63490300000001
 20
-10.970001
 30
0.0
 11
96.63490300000001
 21
133.827515
 31
0.0
  0
LINE
  5
201
330
22
100
AcDbEntity
  8
0
100
AcDbLine
 10
-33.365097
 20
1.190001999999999
 30
0.0
 11
197.634903
 21
1.190001999999999
 31
0.0
  0
LINE
  5
202
330
22
100
AcDbEntity
  8
0
100
AcDbLine
 10
-204.355087
 20
1.190001999999999
 30
0.0
 11
-173.355087
 21
1.190001999999999
 31
0.0
  0
LINE
  5
203
330
22
100
AcDbEntity
  8
0
100
AcDbLine
 10
171.634903
 20
16.190002
 30
0.0
 11
-33.365097
 21
16.190002
 31
0.0
  0
LINE
  5
204
330
22
100
AcDbEntity
  8
0
100
AcDbLine
 10
171.634903
 20
36.190002
 30
0.0
 11
-33.365097
 21
36.190002
 31
0.0
  0
LINE
  5
205
330
22
100
AcDbEntity
  8
0
100
AcDbLine
 10
-178.355087
 20
16.190002
 30
0.0
 11
-173.355087
 21
16.190002
 31
0.0
  0
LINE
  5
206
330
22
100
AcDbEntity
  8
0
100
AcDbLine
 10
-178.355087
 20
36.190002
 30
0.0
 11
-173.355087
 21
36.190002
 31
0.0
  0
LINE
  5
207
330
22
100
AcDbEntity
  8
0
  6
CENTER
 62
     2
100
AcDbLine
 10
212.634903
 20
117.699997
 30
0.0
 11
197.634903
 21
117.699997
 31
0.0
  0
LINE
  5
208
330
22
100
AcDbEntity
  8
0
  6
CENTER
 62
     2
100
AcDbLine
 10
212.134903
 20
13.690002
 30
0.0
 11
197.134903
 21
13.690002
 31
0.0
  0
LINE
  5
209
330
22
100
AcDbEntity
  8
0
  6
CENTER
 62
     2
100
AcDbLine
 10
204.634903
 20
21.190002
 30
0.0
 11
204.634903
 21
6.190001999999999
 31
0.0
  0
LINE
  5
20A
330
22
100
AcDbEntity
  8
0
  6
CENTER
 62
     2
100
AcDbLine
 10
204.634903
 20
125.199997
 30
0.0
 11
204.634903
 21
110.199997
 31
0.0
  0
LINE
  5
20B
330
22
100
AcDbEntity
  8
0
100
AcDbLine
 10
-204.355087
 20
62.19000199999999
 30
0.0
 11
-178.355087
 21
62.19000199999999
 31
0.0
  0
LINE
  5
20C
330
22
100
AcDbEntity
  8
0
  6
CENTER
 62
     2
100
AcDbLine
 10
-211.355087
 20
21.190002
 30
0.0
 11
-211.355087
 21
6.190001999999999
 31
0.0
  0
LINE
  5
20D
330
22
100
AcDbEntity
  8
0
  6
CENTER
 62
     2
100
AcDbLine
 10
-218.855087
 20
13.690002
 30
0.0
 11
-203.855087
 21
13.690002
 31
0.0
  0
LINE
  5
20E
330
22
100
AcDbEntity
  8
0
  6
CENTER
 62
     2
100
AcDbLine
 10
-211.355087
 20
125.199997
 30
0.0
 11
-211.355087
 21
110.199997
 31
0.0
  0
LINE
  5
20F
330
22
100
AcDbEntity
  8
0
  6
CENTER
 62
     2
100
AcDbLine
 10
-218.855087
 20
117.699997
 30
0.0
 11
-203.855087
 21
117.699997
 31
0.0
  0
LINE
  5
210
330
22
100
AcDbEntity
  8
0
  6
CENTER
 62
     2
100
AcDbLine
 10
-167.855087
 20
67.690002
 30
0.0
 11
-38.865097
 21
67.690002
 31
0.0
  0
LINE
  5
211
330
22
100
AcDbEntity
  8
0
  6
CENTER
 62
     2
100
AcDbLine
 10
-43.36509699999999
 20
72.190002
 30
0.0
 11
-43.36509699999999
 21
63.190002
 31
0.0
  0
LINE
  5
212
330
22
100
AcDbEntity
  8
0
100
AcDbLine
 10
-204.355087
 20
-5.309998
 30
0.0
 11
-204.355087
 21
126.699997
 31
0.0
  0
LINE
  5
213
330
22
100
AcDbEntity
  8
0
100
AcDbLine
 10
-204.355087
 20
11.190002
 30
0.0
 11
-178.355087
 21
11.190002
 31
0.0
  0
LINE
  5
214
330
22
100
AcDbEntity
  8
0
100
AcDbLine
 10
171.634903
 20
74.19000200000001
 30
0.0
 11
197.634903
 21
74.19000200000001
 31
0.0
  0
LINE
  5
215
330
22
100
AcDbEntity
  8
0
100
AcDbLine
 10
171.634903
 20
11.190002
 30
0.0
 11
197.634903
 21
11.190002
 31
0.0
  0
LINE
  5
216
330
22
100
AcDbEntity
  8
0
100
AcDbLine
 10
-178.355087
 20
11.190002
 30
0.0
 11
-178.355087
 21
74.19000200000001
 31
0.0
  0
LINE
  5
217
330
22
100
AcDbEntity
  8
0
100
AcDbLine
 10
-33.365097
 20
-5.309998
 30
0.0
 11
-33.365097
 21
88.69999699999999
 31
0.0
  0
LINE
  5
218
330
22
100
AcDbEntity
  8
0
100
AcDbLine
 10
-173.355087
 20
-5.309998
 30
0.0
 11
-173.355087
 21
88.69999699999999
 31
0.0
  0
LINE
  5
219
330
22
100
AcDbEntity
  8
0
  6
CENTER
 62
     2
100
AcDbLine
 10
-103.365097
 20
-10.970001
 30
0.0
 11
-103.365097
 21
132.580002
 31
0.0
  0
LINE
  5
21A
330
22
100
AcDbEntity
  8
0
100
AcDbLine
 10
197.634903
 20
-5.309998
 30
0.0
 11
197.634903
 21
126.699997
 31
0.0
  0
LINE
  5
21B
330
22
100
AcDbEntity
  8
0
100
AcDbLine
 10
171.634903
 20
11.190002
 30
0.0
 11
171.634903
 21
74.19000200000001
 31
0.0
  0
LINE
  5
21C
330
22
100
AcDbEntity
  8
0
100
AcDbLine
 10
211.634903
 20
-5.309998
 30
0.0
 11
211.634903
 21
126.699997
 31
0.0
  0
LINE
  5
21D
330
22
100
AcDbEntity
  8
0
100
AcDbLine
 10
-218.355087
 20
-5.309998
 30
0.0
 11
-218.355087
 21
126.699997
 31
0.0
  0
LINE
  5
21E
330
22
100
AcDbEntity
  8
0
100
AcDbLine
 10
-218.355087
 20
-5.309998
 30
0.0
 11
211.634903
 21
-5.309998
 31
0.0
  0
LINE
  5
21F
330
22
100
AcDbEntity
  8
0
  6
PHANTOM
 62
     3
100
AcDbLine
 10
23.814087
 20
-42.470245
 30
0.0
 11
23.814087
 21
136.6178129999999
 31
0.0
  0
LINE
  5
220
330
22
100
AcDbEntity
  8
0
100
AcDbLine
 10
-379.25
 20
-256.75
 30
0.0
 11
-67.25
 21
-256.75
 31
0.0
  0
LINE
  5
221
330
22
100
AcDbEntity
  8
0
100
AcDbLine
 10
-379.25
 20
-236.75
 30
0.0
 11
-67.25
 21
-236.75
 31
0.0
  0
LINE
  5
222
330
22
100
AcDbEntity
  8
0
100
AcDbLine
 10
-67.25
 20
-236.75
 30
0.0
 11
-67.25
 21
-256.75
 31
0.0
  0
LINE
  5
223
330
22
100
AcDbEntity
  8
0
100
AcDbLine
 10
-235.25
 20
-236.75
 30
0.0
 11
-235.25
 21
-256.75
 31
0.0
  0
LINE
  5
224
330
22
100
AcDbEntity
  8
0
100
AcDbLine
 10
-263.25
 20
-236.75
 30
0.0
 11
-263.25
 21
-256.75
 31
0.0
  0
LINE
  5
225
330
22
100
AcDbEntity
  8
0
100
AcDbLine
 10
-291.25
 20
-236.75
 30
0.0
 11
-291.25
 21
-256.75
 31
0.0
  0
LINE
  5
226
330
22
100
AcDbEntity
  8
0
100
AcDbLine
 10
-319.25
 20
-236.75
 30
0.0
 11
-319.25
 21
-256.75
 31
0.0
  0
LINE
  5
227
330
22
100
AcDbEntity
  8
0
100
AcDbLine
 10
-379.25
 20
-236.75
 30
0.0
 11
-379.25
 21
-256.75
 31
0.0
  0
LINE
  5
228
330
22
100
AcDbEntity
  8
0
100
AcDbLine
 10
-207.25
 20
-236.75
 30
0.0
 11
-207.25
 21
-256.75
 31
0.0
  0
LINE
  5
229
330
22
100
AcDbEntity
  8
0
100
AcDbLine
 10
-179.25
 20
-236.75
 30
0.0
 11
-179.25
 21
-256.75
 31
0.0
  0
LINE
  5
22A
330
22
100
AcDbEntity
  8
0
100
AcDbLine
 10
-151.25
 20
-236.75
 30
0.0
 11
-151.25
 21
-256.75
 31
0.0
  0
LINE
  5
22B
330
22
100
AcDbEntity
  8
0
100
AcDbLine
 10
-123.25
 20
-236.75
 30
0.0
 11
-123.25
 21
-256.75
 31
0.0
  0
LINE
  5
22C
330
22
100
AcDbEntity
  8
0
100
AcDbLine
 10
-95.25
 20
-256.75
 30
0.0
 11
-95.25
 21
-236.75
 31
0.0
  0
LINE
  5
22D
330
22
100
AcDbEntity
  8
0
100
AcDbLine
 10
-379.25
 20
-246.75
 30
0.0
 11
-67.25
 21
-246.75
 31
0.0
  0
LINE
  5
22E
330
22
100
AcDbEntity
  8
0
100
AcDbLine
 10
-239.25
 20
276.25
 30
0.0
 11
-239.25
 21
251.25
 31
0.0
  0
LINE
  5
22F
330
22
100
AcDbEntity
  8
0
100
AcDbLine
 10
239.799988
 20
251.25
 30
0.0
 11
239.799988
 21
276.25
 31
0.0
  0
LINE
  5
230
330
22
100
AcDbEntity
  8
0
100
AcDbLine
 10
239.799988
 20
-251.75
 30
0.0
 11
239.799988
 21
-276.75
 31
0.0
  0
LINE
  5
231
330
22
100
AcDbEntity
  8
0
100
AcDbLine
 10
-399.25
 20
251.25
 30
0.0
 11
-239.25
 21
251.25
 31
0.0
  0
LINE
  5
232
330
22
100
AcDbEntity
  8
0
100
AcDbLine
 10
239.799988
 20
251.25
 30
0.0
 11
399.799805
 21
251.25
 31
0.0
  0
LINE
  5
233
330
22
100
AcDbEntity
  8
0
100
AcDbLine
 10
239.799988
 20
-251.75
 30
0.0
 11
399.799805
 21
-251.75
 31
0.0
  0
LINE
  5
234
330
22
100
AcDbEntity
  8
0
100
AcDbLine
 10
-399.25
 20
-276.75
 30
0.0
 11
399.799805
 21
-276.75
 31
0.0
  0
LINE
  5
235
330
22
100
AcDbEntity
  8
0
100
AcDbLine
 10
-399.25
 20
276.25
 30
0.0
 11
399.799805
 21
276.25
 31
0.0
  0
LINE
  5
236
330
22
100
AcDbEntity
  8
0
100
AcDbLine
 10
-399.25
 20
276.25
 30
0.0
 11
-399.25
 21
-276.75
 31
0.0
  0
LINE
  5
237
330
22
100
AcDbEntity
  8
0
100
AcDbLine
 10
399.799805
 20
276.25
 30
0.0
 11
399.799805
 21
-276.75
 31
0.0
  0
CIRCLE
  5
238
330
22
100
AcDbEntity
  8
0
 62
     4
100
AcDbCircle
 10
46.639542
 20
-116.305954
 30
0.0
 40
1.5
  0
CIRCLE
  5
239
330
22
100
AcDbEntity
  8
0
 62
     4
100
AcDbCircle
 10
-100.360275
 20
-110.305954
 30
0.0
 40
1.5
  0
CIRCLE
  5
23A
330
22
100
AcDbEntity
  8
0
 62
     2
100
AcDbCircle
 10
307.630737
 20
68.69940200000001
 30
0.0
 40
5.0
  0
CIRCLE
  5
23B
330
22
100
AcDbEntity
  8
0
100
AcDbCircle
 10
307.630737
 20
68.69940200000001
 30
0.0
 40
4.25
  0
CIRCLE
  5
23C
330
22
100
AcDbEntity
  8
0
100
AcDbCircle
 10
307.630737
 20
67.399399
 30
0.0
 40
2.5
  0
CIRCLE
  5
23D
330
22
100
AcDbEntity
  8
0
 62
     2
100
AcDbCircle
 10
297.630737
 20
56.199402
 30
0.0
 40
6.25
  0
CIRCLE
  5
23E
330
22
100
AcDbEntity
  8
0
100
AcDbCircle
 10
297.630737
 20
56.199402
 30
0.0
 40
7.0
  0
CIRCLE
  5
23F
330
22
100
AcDbEntity
  8
0
100
AcDbCircle
 10
297.630737
 20
56.199402
 30
0.0
 40
8.5
  0
CIRCLE
  5
240
330
22
100
AcDbEntity
  8
0
100
AcDbCircle
 10
303.630737
 20
105.699402
 30
0.0
 40
4.25
  0
CIRCLE
  5
241
330
22
100
AcDbEntity
  8
0
 62
     2
100
AcDbCircle
 10
303.630737
 20
105.699402
 30
0.0
 40
5.0
  0
ARC
  5
242
330
22
100
AcDbEntity
  8
0
100
AcDbCircle
 10
301.878052
 20
124.193283
 30
0.0
 40
2.003299
100
AcDbArc
 50
180.09404
 51
269.905731
  0
ARC
  5
243
330
22
100
AcDbEntity
  8
0
100
AcDbCircle
 10
305.37207
 20
124.192703
 30
0.0
 40
2.002702999999999
100
AcDbArc
 50
270.077698
 51
359.922729
  0
ARC
  5
244
330
22
100
AcDbEntity
  8
0
100
AcDbCircle
 10
296.624756
 20
-2.709991
 30
0.0
 40
2.100006
100
AcDbArc
 50
0.0
 51
179.999954
  0
ARC
  5
245
330
22
100
AcDbEntity
  8
0
100
AcDbCircle
 10
306.224762
 20
-2.909988
 30
0.0
 40
1.399999999999999
100
AcDbArc
 50
270.0
 51
90.0
  0
ARC
  5
246
330
22
100
AcDbEntity
  8
0
100
AcDbCircle
 10
302.621704
 20
-2.705138999999999
 30
0.0
 40
2.096972
100
AcDbArc
 50
34.746029
 51
180.132584
  0
ARC
  5
247
330
22
100
AcDbEntity
  8
0
 62
     4
100
AcDbCircle
 10
296.624756
 20
-2.894669
 30
0.0
 40
2.049987999999999
100
AcDbArc
 50
0.0
 51
179.999969
  0
CIRCLE
  5
248
330
22
100
AcDbEntity
  8
0
 62
     4
100
AcDbCircle
 10
296.624756
 20
-2.639998999999999
 30
0.0
 40
0.45
  0
CIRCLE
  5
249
330
22
100
AcDbEntity
  8
0
 62
     4
100
AcDbCircle
 10
296.624756
 20
-3.539992999999999
 30
0.0
 40
0.45
  0
CIRCLE
  5
24A
330
22
100
AcDbEntity
  8
0
 62
     4
100
AcDbCircle
 10
296.624756
 20
-3.089995999999999
 30
0.0
 40
1.299998999999999
  0
CIRCLE
  5
24B
330
22
100
AcDbEntity
  8
0
 62
     4
100
AcDbCircle
 10
296.624756
 20
-2.639998999999999
 30
0.0
 40
0.25
  0
CIRCLE
  5
24C
330
22
100
AcDbEntity
  8
0
 62
     4
100
AcDbCircle
 10
296.624756
 20
-3.539992999999999
 30
0.0
 40
0.25
  0
ARC
  5
24D
330
22
100
AcDbEntity
  8
0
 62
     4
100
AcDbCircle
 10
302.624756
 20
-2.894669
 30
0.0
 40
2.049987999999999
100
AcDbArc
 50
0.0
 51
179.999969
  0
CIRCLE
  5
24E
330
22
100
AcDbEntity
  8
0
 62
     4
100
AcDbCircle
 10
302.624756
 20
-2.639998999999999
 30
0.0
 40
0.45
  0
CIRCLE
  5
24F
330
22
100
AcDbEntity
  8
0
 62
     4
100
AcDbCircle
 10
302.624756
 20
-3.539992999999999
 30
0.0
 40
0.45
  0
CIRCLE
  5
250
330
22
100
AcDbEntity
  8
0
 62
     4
100
AcDbCircle
 10
302.624756
 20
-3.089995999999999
 30
0.0
 40
1.299998999999999
  0
CIRCLE
  5
251
330
22
100
AcDbEntity
  8
0
 62
     4
100
AcDbCircle
 10
302.624756
 20
-2.639998999999999
 30
0.0
 40
0.25
  0
CIRCLE
  5
252
330
22
100
AcDbEntity
  8
0
 62
     4
100
AcDbCircle
 10
302.624756
 20
-3.539992999999999
 30
0.0
 40
0.25
  0
ARC
  5
253
330
22
100
AcDbEntity
  8
0
 62
     4
100
AcDbCircle
 10
-308.350708
 20
-2.940673999999999
 30
0.0
 40
0.10068
100
AcDbArc
 50
0.385881
 51
89.61792
  0
ARC
  5
254
330
22
100
AcDbEntity
  8
0
 62
     4
100
AcDbCircle
 10
-308.354645
 20
-3.435348999999999
 30
0.0
 40
0.104742
100
AcDbArc
 50
272.538269
 51
357.461487
  0
ARC
  5
255
330
22
100
AcDbEntity
  8
0
 62
     4
100
AcDbCircle
 10
-312.150452
 20
-3.440444999999999
 30
0.0
 40
0.099549
100
AcDbArc
 50
179.736938
 51
270.263489
  0
ARC
  5
256
330
22
100
AcDbEntity
  8
0
 62
     4
100
AcDbCircle
 10
-312.154633
 20
-2.935363999999999
 30
0.0
 40
0.095483
100
AcDbArc
 50
87.215401
 51
182.779526
  0
ARC
  5
257
330
22
100
AcDbEntity
  8
0
 62
     4
100
AcDbCircle
 10
-314.350708
 20
-2.940673999999999
 30
0.0
 40
0.10068
100
AcDbArc
 50
0.385881
 51
89.61792
  0
ARC
  5
258
330
22
100
AcDbEntity
  8
0
 62
     4
100
AcDbCircle
 10
-314.354645
 20
-3.435348999999999
 30
0.0
 40
0.104742
100
AcDbArc
 50
272.538269
 51
357.461487
  0
ARC
  5
259
330
22
100
AcDbEntity
  8
0
 62
     4
100
AcDbCircle
 10
-318.150452
 20
-3.440444999999999
 30
0.0
 40
0.099549
100
AcDbArc
 50
179.736938
 51
270.263489
  0
ARC
  5
25A
330
22
100
AcDbEntity
  8
0
 62
     4
100
AcDbCircle
 10
-318.154633
 20
-2.935363999999999
 30
0.0
 40
0.095483
100
AcDbArc
 50
87.215401
 51
182.779526
  0
ARC
  5
25B
330
22
100
AcDbEntity
  8
0
 62
     4
100
AcDbCircle
 10
-310.250671
 20
-2.895141999999999
 30
0.0
 40
2.050695999999999
100
AcDbArc
 50
0.143925
 51
52.419106
  0
ARC
  5
25C
330
22
100
AcDbEntity
  8
0
 62
     4
100
AcDbCircle
 10
-310.25769
 20
-2.891005999999999
 30
0.0
 40
2.042307
100
AcDbArc
 50
127.465767
 51
179.971558
  0
ARC
  5
25D
330
22
100
AcDbEntity
  8
0
 62
     4
100
AcDbCircle
 10
-316.250671
 20
-2.895141999999999
 30
0.0
 40
2.050695999999999
100
AcDbArc
 50
0.143925
 51
52.419106
  0
ARC
  5
25E
330
22
100
AcDbEntity
  8
0
100
AcDbCircle
 10
-316.25769
 20
-2.891005999999999
 30
0.0
 40
2.042307
100
AcDbArc
 50
127.465767
 51
179.971558
  0
CIRCLE
  5
25F
330
22
100
AcDbEntity
  8
0
 62
     2
100
AcDbCircle
 10
-311.255981
 20
56.199402
 30
0.0
 40
6.25
  0
CIRCLE
  5
260
330
22
100
AcDbEntity
  8
0
100
AcDbCircle
 10
-311.255981
 20
56.199402
 30
0.0
 40
7.0
  0
CIRCLE
  5
261
330
22
100
AcDbEntity
  8
0
100
AcDbCircle
 10
-321.255981
 20
67.399399
 30
0.0
 40
2.5
  0
ARC
  5
262
330
22
100
AcDbEntity
  8
0
100
AcDbCircle
 10
-310.25
 20
-2.700591999999999
 30
0.0
 40
2.100026999999999
100
AcDbArc
 50
359.743317
 51
180.256668
  0
ARC
  5
263
330
22
100
AcDbEntity
  8
0
100
AcDbCircle
 10
-319.855988
 20
-2.909988
 30
0.0
 40
1.400012
100
AcDbArc
 50
89.75521099999999
 51
270.244781
  0
ARC
  5
264
330
22
100
AcDbEntity
  8
0
100
AcDbCircle
 10
-316.2505799999999
 20
-2.702285999999999
 30
0.0
 40
2.1006
100
AcDbArc
 50
359.789703
 51
145.41716
  0
ARC
  5
265
330
22
100
AcDbEntity
  8
0
100
AcDbCircle
 10
-315.502716
 20
124.202698
 30
0.0
 40
2.002702999999999
100
AcDbArc
 50
270.077698
 51
359.922729
  0
ARC
  5
266
330
22
100
AcDbEntity
  8
0
100
AcDbCircle
 10
-319.003296
 20
124.196716
 30
0.0
 40
1.996706999999999
100
AcDbArc
 50
179.905869
 51
270.094574
  0
CIRCLE
  5
267
330
22
100
AcDbEntity
  8
0
100
AcDbCircle
 10
-321.255981
 20
68.69940200000001
 30
0.0
 40
4.25
  0
CIRCLE
  5
268
330
22
100
AcDbEntity
  8
0
 62
     2
100
AcDbCircle
 10
-321.255981
 20
68.69940200000001
 30
0.0
 40
5.0
  0
CIRCLE
  5
269
330
22
100
AcDbEntity
  8
0
100
AcDbCircle
 10
-311.255981
 20
56.199402
 30
0.0
 40
8.5
  0
CIRCLE
  5
26A
330
22
100
AcDbEntity
  8
0
 62
     2
100
AcDbCircle
 10
-317.255981
 20
105.699402
 30
0.0
 40
5.0
  0
CIRCLE
  5
26B
330
22
100
AcDbEntity
  8
0
100
AcDbCircle
 10
-317.255981
 20
105.699402
 30
0.0
 40
4.25
  0
CIRCLE
  5
26C
330
22
100
AcDbEntity
  8
0
100
AcDbCircle
 10
-191.355087
 20
68.19000200000001
 30
0.0
 40
5.0
  0
CIRCLE
  5
26D
330
22
100
AcDbEntity
  8
0
100
AcDbCircle
 10
-191.355087
 20
68.19000200000001
 30
0.0
 40
4.307178999999999
  0
CIRCLE
  5
26E
330
22
100
AcDbEntity
  8
0
100
AcDbCircle
 10
-185.355087
 20
44.190002
 30
0.0
 40
5.0
  0
CIRCLE
  5
26F
330
22
100
AcDbEntity
  8
0
100
AcDbCircle
 10
-185.355087
 20
44.190002
 30
0.0
 40
4.307178999999999
  0
CIRCLE
  5
270
330
22
100
AcDbEntity
  8
0
100
AcDbCircle
 10
-197.355087
 20
44.190002
 30
0.0
 40
5.0
  0
CIRCLE
  5
271
330
22
100
AcDbEntity
  8
0
100
AcDbCircle
 10
-197.355087
 20
44.190002
 30
0.0
 40
4.307178999999999
  0
CIRCLE
  5
272
330
22
100
AcDbEntity
  8
0
100
AcDbCircle
 10
184.634903
 20
68.19000200000001
 30
0.0
 40
5.0
  0
CIRCLE
  5
273
330
22
100
AcDbEntity
  8
0
100
AcDbCircle
 10
184.634903
 20
68.19000200000001
 30
0.0
 40
4.307178999999999
  0
CIRCLE
  5
274
330
22
100
AcDbEntity
  8
0
100
AcDbCircle
 10
178.634903
 20
44.190002
 30
0.0
 40
5.0
  0
CIRCLE
  5
275
330
22
100
AcDbEntity
  8
0
100
AcDbCircle
 10
178.634903
 20
44.190002
 30
0.0
 40
4.307178999999999
  0
CIRCLE
  5
276
330
22
100
AcDbEntity
  8
0
100
AcDbCircle
 10
190.634903
 20
44.190002
 30
0.0
 40
5.0
  0
CIRCLE
  5
277
330
22
100
AcDbEntity
  8
0
100
AcDbCircle
 10
190.634903
 20
44.190002
 30
0.0
 40
4.307178999999999
  0
ARC
  5
278
330
22
100
AcDbEntity
  8
0
 62
     4
100
AcDbCircle
 10
-103.365097
 20
66.69000200000001
 30
0.0
 40
4.0
100
AcDbArc
 50
180.0
 51
0.0
  0
ARC
  5
279
330
22
100
AcDbEntity
  8
0
 62
     4
100
AcDbCircle
 10
-103.365097
 20
68.69000200000001
 30
0.0
 40
4.0
100
AcDbArc
 50
0.0
 51
180.0
  0
CIRCLE
  5
27A
330
22
100
AcDbEntity
  8
0
 62
     4
100
AcDbCircle
 10
-103.360275
 20
1.694045999999999
 30
0.0
 40
4.0
  0
CIRCLE
  5
27B
330
22
100
AcDbEntity
  8
0
100
AcDbCircle
 10
-191.361069
 20
68.19940200000001
 30
0.0
 40
5.0
  0
CIRCLE
  5
27C
330
22
100
AcDbEntity
  8
0
100
AcDbCircle
 10
204.638809
 20
117.699417
 30
0.0
 40
3.5
  0
CIRCLE
  5
27D
330
22
100
AcDbEntity
  8
0
100
AcDbCircle
 10
-211.361053
 20
117.699417
 30
0.0
 40
3.5
  0
CIRCLE
  5
27E
330
22
100
AcDbEntity
  8
0
100
AcDbCircle
 10
-43.361084
 20
1.699402
 30
0.0
 40
2.349998999999999
  0
CIRCLE
  5
27F
330
22
100
AcDbEntity
  8
0
 62
     2
100
AcDbCircle
 10
-43.361084
 20
1.699402
 30
0.0
 40
3.0
  0
CIRCLE
  5
280
330
22
100
AcDbEntity
  8
0
100
AcDbCircle
 10
-163.361084
 20
1.699402
 30
0.0
 40
2.349998999999999
  0
CIRCLE
  5
281
330
22
100
AcDbEntity
  8
0
 62
     2
100
AcDbCircle
 10
-163.361084
 20
1.699402
 30
0.0
 40
3.0
  0
CIRCLE
  5
283
330
22
100
AcDbEntity
  8
0
100
AcDbCircle
 10
204.638809
 20
13.699402
 30
0.0
 40
5.5
  0
CIRCLE
  5
284
330
22
100
AcDbEntity
  8
0
100
AcDbCircle
 10
204.638809
 20
117.699417
 30
0.0
 40
5.5
  0
CIRCLE
  5
285
330
22
100
AcDbEntity
  8
0
100
AcDbCircle
 10
184.638809
 20
68.19940200000001
 30
0.0
 40
5.0
  0
CIRCLE
  5
286
330
22
100
AcDbEntity
  8
0
100
AcDbCircle
 10
190.638809
 20
44.199402
 30
0.0
 40
5.5
  0
CIRCLE
  5
287
330
22
100
AcDbEntity
  8
0
100
AcDbCircle
 10
178.638809
 20
44.199402
 30
0.0
 40
5.5
  0
CIRCLE
  5
288
330
22
100
AcDbEntity
  8
0
100
AcDbCircle
 10
-185.361069
 20
44.199402
 30
0.0
 40
5.5
  0
CIRCLE
  5
289
330
22
100
AcDbEntity
  8
0
100
AcDbCircle
 10
-197.361053
 20
44.199402
 30
0.0
 40
5.5
  0
CIRCLE
  5
28B
330
22
100
AcDbEntity
  8
0
100
AcDbCircle
 10
-211.361053
 20
13.699402
 30
0.0
 40
5.5
  0
CIRCLE
  5
28C
330
22
100
AcDbEntity
  8
0
100
AcDbCircle
 10
-211.361053
 20
117.699417
 30
0.0
 40
5.5
  0
CIRCLE
  5
28D
330
22
100
AcDbEntity
  8
0
100
AcDbCircle
 10
-163.361084
 20
67.699402
 30
0.0
 40
2.349998999999999
  0
CIRCLE
  5
28E
330
22
100
AcDbEntity
  8
0
 62
     2
100
AcDbCircle
 10
-163.361084
 20
67.699402
 30
0.0
 40
3.0
  0
CIRCLE
  5
28F
330
22
100
AcDbEntity
  8
0
100
AcDbCircle
 10
-43.361084
 20
67.699402
 30
0.0
 40
2.349998999999999
  0
CIRCLE
  5
290
330
22
100
AcDbEntity
  8
0
 62
     2
100
AcDbCircle
 10
-43.361084
 20
67.699402
 30
0.0
 40
3.0
  0
TEXT
  5
291
330
22
100
AcDbEntity
  8
0
100
AcDbText
 10
-392.285309
 20
256.649994
 30
0.0
 40
9.0
  1
RODLESS CYLINDER
 41
1.052632
100
AcDbText
  0
TEXT
  5
292
330
22
100
AcDbEntity
  8
0
 62
     3
100
AcDbText
 10
-8.785807999999999
 20
138.732803
 30
0.0
 40
6.299999999999999
  1
STRETCH LINE
 41
1.052632
100
AcDbText
  0
TEXT
  5
293
330
22
100
AcDbEntity
  8
0
100
AcDbText
 10
-384.785309
 20
224.149994
 30
0.0
 40
9.0
  1
MODEL:ORS20*ST(200)
 41
1.052632
100
AcDbText
  0
TEXT
  5
294
330
22
100
AcDbEntity
  8
0
100
AcDbText
 10
-261.699707
 20
-234.419998
 30
0.0
 40
6.299999999999999
  1
STRETCH LIST
 41
1.052632
100
AcDbText
  0
TEXT
  5
295
330
22
100
AcDbEntity
  8
0
100
AcDbText
 10
-91.349716
 20
-256.420013
 30
0.0
 40
6.299999999999999
  1
600
 41
1.052632
100
AcDbText
  0
TEXT
  5
296
330
22
100
AcDbEntity
  8
0
100
AcDbText
 10
-91.349716
 20
-246.419998
 30
0.0
 40
6.299999999999999
  1
800
 41
1.052632
100
AcDbText
  0
TEXT
  5
297
330
22
100
AcDbEntity
  8
0
100
AcDbText
 10
-259.349731
 20
-256.420013
 30
0.0
 40
6.299999999999999
  1
100
 41
1.052632
100
AcDbText
  0
TEXT
  5
298
330
22
100
AcDbEntity
  8
0
100
AcDbText
 10
-284.199707
 20
-256.420013
 30
0.0
 40
6.299999999999999
  1
50
 41
1.052632
100
AcDbText
  0
TEXT
  5
299
330
22
100
AcDbEntity
  8
0
100
AcDbText
 10
-309.049713
 20
-256.420013
 30
0.0
 40
6.299999999999999
  1
0
 41
1.052632
100
AcDbText
  0
TEXT
  5
29A
330
22
100
AcDbEntity
  8
0
100
AcDbText
 10
-259.349731
 20
-246.419998
 30
0.0
 40
6.299999999999999
  1
300
 41
1.052632
100
AcDbText
  0
TEXT
  5
29B
330
22
100
AcDbEntity
  8
0
100
AcDbText
 10
-287.349731
 20
-246.419998
 30
0.0
 40
6.299999999999999
  1
250
 41
1.052632
100
AcDbText
  0
TEXT
  5
29C
330
22
100
AcDbEntity
  8
0
100
AcDbText
 10
-315.349731
 20
-246.419998
 30
0.0
 40
6.299999999999999
  1
200
 41
1.052632
100
AcDbText
  0
TEXT
  5
29D
330
22
100
AcDbEntity
  8
0
100
AcDbText
 10
-231.349716
 20
-246.419998
 30
0.0
 40
6.299999999999999
  1
350
 41
1.052632
100
AcDbText
  0
TEXT
  5
29E
330
22
100
AcDbEntity
  8
0
100
AcDbText
 10
-231.349716
 20
-256.420013
 30
0.0
 40
6.299999999999999
  1
150
 41
1.052632
100
AcDbText
  0
TEXT
  5
29F
330
22
100
AcDbEntity
  8
0
100
AcDbText
 10
-203.349716
 20
-246.419998
 30
0.0
 40
6.299999999999999
  1
400
 41
1.052632
100
AcDbText
  0
TEXT
  5
2A0
330
22
100
AcDbEntity
  8
0
100
AcDbText
 10
-203.349716
 20
-256.420013
 30
0.0
 40
6.299999999999999
  1
200
 41
1.052632
100
AcDbText
  0
TEXT
  5
2A1
330
22
100
AcDbEntity
  8
0
100
AcDbText
 10
-175.349716
 20
-246.419998
 30
0.0
 40
6.299999999999999
  1
500
 41
1.052632
100
AcDbText
  0
TEXT
  5
2A2
330
22
100
AcDbEntity
  8
0
100
AcDbText
 10
-175.349716
 20
-256.420013
 30
0.0
 40
6.299999999999999
  1
300
 41
1.052632
100
AcDbText
  0
TEXT
  5
2A3
330
22
100
AcDbEntity
  8
0
100
AcDbText
 10
-147.349716
 20
-246.419998
 30
0.0
 40
6.299999999999999
  1
600
 41
1.052632
100
AcDbText
  0
TEXT
  5
2A4
330
22
100
AcDbEntity
  8
0
100
AcDbText
 10
-147.349716
 20
-256.420013
 30
0.0
 40
6.299999999999999
  1
400
 41
1.052632
100
AcDbText
  0
TEXT
  5
2A5
330
22
100
AcDbEntity
  8
0
100
AcDbText
 10
-119.349716
 20
-246.419998
 30
0.0
 40
6.299999999999999
  1
700
 41
1.052632
100
AcDbText
  0
TEXT
  5
2A6
330
22
100
AcDbEntity
  8
0
100
AcDbText
 10
-119.349716
 20
-256.420013
 30
0.0
 40
6.299999999999999
  1
500
 41
1.052632
100
AcDbText
  0
TEXT
  5
2A7
330
22
100
AcDbEntity
  8
0
100
AcDbText
 10
-384.484375
 20
210.649994
 30
0.0
 40
9.0
  1
(WITH SENSOR SWITCH)
 41
1.052632
100
AcDbText
  0
TEXT
  5
2A8
330
22
100
AcDbEntity
  8
0
100
AcDbText
 10
-368.58905
 20
-246.419998
 30
0.0
 40
6.299999999999999
  1
STROKE
 41
1.052632
100
AcDbText
  0
TEXT
  5
2A9
330
22
100
AcDbEntity
  8
0
100
AcDbText
 10
-371.739075
 20
-256.420013
 30
0.0
 40
6.299999999999999
  1
STRETCH
 41
1.052632
100
AcDbText
  0
TEXT
  5
2AA
330
22
100
AcDbEntity
  8
0
100
AcDbText
 10
-94.499718
 20
-236.419998
 30
0.0
 40
6.299999999999999
  1
（ｍｍ）
 41
0.833333
100
AcDbText
  0
TEXT
  5
2AB
330
22
100
AcDbEntity
  8
0
100
AcDbText
 10
282.764496
 20
256.649994
 30
0.0
 40
9.0
  1
Ｖｅｒ．　１．１
 41
0.833333
100
AcDbText
  0
TEXT
  5
2AC
330
22
100
AcDbEntity
  8
0
100
AcDbText
 10
242.014633
 20
-274.5
 30
0.0
 40
12.5
  1
KOGANEI CORP.
 41
1.052632
100
AcDbText
  0
CIRCLE
  5
2C6
330
22
100
AcDbEntity
  8
0
  6
Continuous
100
AcDbCircle
 10
204.638809
 20
13.699402
 30
0.0
 40
3.5
  0
CIRCLE
  5
2C7
330
22
100
AcDbEntity
  8
0
  6
Continuous
100
AcDbCircle
 10
-211.355087
 20
13.690002
 30
0.0
 40
3.5
  0
VIEWPORT
  5
2B2
102
{ACAD_XDICTIONARY
360
2D1
102
}
330
1E
100
AcDbEntity
 67
     1
  8
0
  6
Continuous
100
AcDbViewport
 10
5.655416053111158
 20
3.94208322359821
 30
0.0
 40
12.37154599888118
 41
10.61141816485407
 68
     1
 69
     1
 12
5.655416053111158
 22
3.94208322359821
 13
0.0
 23
0.0
 14
10.0
 24
10.0
 15
10.0
 25
10.0
 16
0.0
 26
0.0
 36
1.0
 17
0.0
 27
0.0
 37
0.0
 42
50.0
 43
0.0
 44
0.0
 45
10.61141816485407
 50
0.0
 51
0.0
 72
   100
 90
    32800
  1

281
     0
 71
     1
 74
     0
110
0.0
120
0.0
130
0.0
111
1.0
121
0.0
131
0.0
112
0.0
122
1.0
132
0.0
 79
     0
146
0.0
  0
VIEWPORT
  5
2B5
102
{ACAD_XDICTIONARY
360
2D3
102
}
330
1E
100
AcDbEntity
 67
     1
  8
0
  6
Continuous
100
AcDbViewport
 10
5.653750051663616
 20
3.94041662141094
 30
0.0
 40
9.046000082661784
 41
6.304666594257505
 68
     2
 69
     2
 12
0.274902499999996
 22
-0.25
 13
0.0
 23
0.0
 14
1.0
 24
1.0
 15
0.0
 25
0.0
 16
0.0
 26
0.0
 36
1.0
 17
0.0
 27
0.0
 37
0.0
 42
50.0
 43
0.0
 44
0.0
 45
561.5826373917322
 50
0.0
 51
0.0
 72
   100
 90
    32800
  1

281
     0
 71
     1
 74
     0
110
0.0
120
0.0
130
0.0
111
1.0
121
0.0
131
0.0
112
0.0
122
1.0
132
0.0
 79
     0
146
0.0
  0
ENDSEC
  0
SECTION
  2
OBJECTS
  0
DICTIONARY
  5
C
330
0
100
AcDbDictionary
281
     1
  3
ACAD_COLOR
350
1B
  3
ACAD_GROUP
350
D
  3
ACAD_LAYOUT
350
19
  3
ACAD_MATERIAL
350
1A
  3
ACAD_MLINESTYLE
350
16
  3
ACAD_PLOTSETTINGS
350
18
  3
ACAD_PLOTSTYLENAME
350
E
  3
ACAD_TABLESTYLE
350
1C
  3
ACDBHEADERROUNDTRIPXREC
350
2CD
  3
AcDbVariableDictionary
350
2C8
  0
DICTIONARY
  5
2B9
330
2
100
AcDbDictionary
280
     1
281
     1
  3
ACAD_LAYERSTATES
360
2BA
  0
DICTIONARY
  5
2D1
330
2B2
100
AcDbDictionary
280
     1
281
     1
  3
ACAD_XREC_ROUNDTRIP
360
2D2
  0
DICTIONARY
  5
2D3
330
2B5
100
AcDbDictionary
280
     1
281
     1
  3
ACAD_XREC_ROUNDTRIP
360
2D4
  0
DICTIONARY
  5
1B
102
{ACAD_REACTORS
330
C
102
}
330
C
100
AcDbDictionary
281
     1
  0
DICTIONARY
  5
D
102
{ACAD_REACTORS
330
C
102
}
330
C
100
AcDbDictionary
281
     1
  0
DICTIONARY
  5
19
102
{ACAD_REACTORS
330
C
102
}
330
C
100
AcDbDictionary
281
     1
  3
Model
350
25
  3
レイアウト1
350
21
  0
DICTIONARY
  5
1A
102
{ACAD_REACTORS
330
C
102
}
330
C
100
AcDbDictionary
281
     1
  0
DICTIONARY
  5
16
102
{ACAD_REACTORS
330
C
102
}
330
C
100
AcDbDictionary
281
     1
  3
Standard
350
17
  0
DICTIONARY
  5
18
102
{ACAD_REACTORS
330
C
102
}
330
C
100
AcDbDictionary
281
     1
  0
ACDBDICTIONARYWDFLT
  5
E
102
{ACAD_REACTORS
330
C
102
}
330
C
100
AcDbDictionary
281
     1
  3
Normal
350
F
100
AcDbDictionaryWithDefault
340
F
  0
DICTIONARY
  5
1C
102
{ACAD_REACTORS
330
C
102
}
330
C
100
AcDbDictionary
281
     1
  3
Standard
350
1D
  0
DICTIONARY
  5
2CD
102
{ACAD_REACTORS
330
C
102
}
330
C
100
AcDbDictionary
281
     1
  0
DICTIONARY
  5
2C8
102
{ACAD_REACTORS
330
C
102
}
330
C
100
AcDbDictionary
281
     1
  3
CTABLESTYLE
350
2C9
  3
DIMASSOC
350
2CA
  3
PROJECTNAME
350
2CB
  0
DICTIONARY
  5
2BA
102
{ACAD_REACTORS
330
2B9
102
}
330
2B9
100
AcDbDictionary
281
     1
  0
XRECORD
  5
2D2
102
{ACAD_REACTORS
330
2D1
102
}
330
2D1
100
AcDbXrecord
280
     1
102
SHADEPLOT
 70
     0
  0
XRECORD
  5
2D4
102
{ACAD_REACTORS
330
2D3
102
}
330
2D3
100
AcDbXrecord
280
     1
102
SHADEPLOT
 70
     0
  0
LAYOUT
  5
25
102
{ACAD_XDICTIONARY
360
2CF
102
}
102
{ACAD_REACTORS
330
19
102
}
330
19
100
AcDbPlotSettings
  1

  2
DocuCentre Color f450
  4

  6

 40
0.0
 41
0.0
 42
0.0
 43
0.0
 44
0.0
 45
0.0
 46
0.0
 47
0.0
 48
0.0
 49
0.0
140
0.0
141
0.0
142
1.0
143
1.0
 70
  1712
 72
     0
 73
     0
 74
     0
  7

 75
     0
147
1.0
148
0.0
149
0.0
100
AcDbLayout
  1
Model
 70
     1
 71
     0
 10
0.0
 20
0.0
 11
12.0
 21
9.0
 12
0.0
 22
0.0
 32
0.0
 14
0.0
 24
0.0
 34
0.0
 15
0.0
 25
0.0
 35
0.0
146
0.0
 13
0.0
 23
0.0
 33
0.0
 16
1.0
 26
0.0
 36
0.0
 17
0.0
 27
1.0
 37
0.0
 76
     0
330
22
  0
LAYOUT
  5
21
102
{ACAD_XDICTIONARY
360
2BC
102
}
102
{ACAD_REACTORS
330
19
102
}
330
19
100
AcDbPlotSettings
  1

  2
DocuCentre Color f450
  4
A4
  6

 40
4.857749938964843
 41
4.942390441894531
 42
4.942413330078125
 43
4.857757568359375
 44
209.9733276367187
 45
297.0106506347656
 46
0.0
 47
0.0
 48
0.0
 49
0.0
140
0.0
141
0.0
142
1.0
143
1.0
 70
   688
 72
     0
 73
     1
 74
     5
  7

 75
    16
147
1.0
148
0.0
149
0.0
100
AcDbLayout
  1
レイアウト1
 70
     1
 71
     1
 10
-0.1912502979669045
 20
-0.1912499975970411
 11
11.50208240418922
 21
8.075416444793461
 12
0.0
 22
0.0
 32
0.0
 14
1.130750010332723
 24
0.7880833242821881
 34
0.0
 15
10.17675009299451
 25
7.092749918539693
 35
0.0
146
0.0
 13
0.0
 23
0.0
 33
0.0
 16
1.0
 26
0.0
 36
0.0
 17
0.0
 27
1.0
 37
0.0
 76
     0
330
1E
331
2B2
1001
ACAD_PSEXT
1000
DocuCentre Color f450
1000
FX DocuCentre Color f450
1000
192.168.41.214
1000

1070
     0
  0
MLINESTYLE
  5
17
102
{ACAD_REACTORS
330
16
102
}
330
16
100
AcDbMlineStyle
  2
STANDARD
 70
     0
  3

 62
   256
 51
90.0
 52
90.0
 71
     2
 49
0.5
 62
   256
  6
BYLAYER
 49
-0.5
 62
   256
  6
BYLAYER
  0
ACDBPLACEHOLDER
  5
F
102
{ACAD_REACTORS
330
E
102
}
330
E
  0
TABLESTYLE
  5
1D
102
{ACAD_REACTORS
330
1C
102
}
330
1C
100
AcDbTableStyle
  3
Standard
 70
     0
 71
     0
 40
0.06
 41
0.06
280
     0
281
     0
  7
STANDARD
140
0.18
170
     2
 62
     0
 63
     7
283
     0
274
    -2
284
     1
 64
     0
275
    -2
285
     1
 65
     0
276
    -2
286
     1
 66
     0
277
    -2
287
     1
 67
     0
278
    -2
288
     1
 68
     0
279
    -2
289
     1
 69
     0
  7
STANDARD
140
0.25
170
     5
 62
     0
 63
     7
283
     0
274
    -2
284
     1
 64
     0
275
    -2
285
     1
 65
     0
276
    -2
286
     1
 66
     0
277
    -2
287
     1
 67
     0
278
    -2
288
     1
 68
     0
279
    -2
289
     1
 69
     0
  7
STANDARD
140
0.18
170
     5
 62
     0
 63
     7
283
     0
274
    -2
284
     1
 64
     0
275
    -2
285
     1
 65
     0
276
    -2
286
     1
 66
     0
277
    -2
287
     1
 67
     0
278
    -2
288
     1
 68
     0
279
    -2
289
     1
 69
     0
  0
DICTIONARYVAR
  5
2C9
102
{ACAD_REACTORS
330
2C8
102
}
330
2C8
100
DictionaryVariables
280
     0
  1
STANDARD
  0
DICTIONARYVAR
  5
2CA
102
{ACAD_REACTORS
330
2C8
102
}
330
2C8
100
DictionaryVariables
280
     0
  1
1
  0
DICTIONARYVAR
  5
2CB
102
{ACAD_REACTORS
330
2C8
102
}
330
2C8
100
DictionaryVariables
280
     0
  1

  0
DICTIONARY
  5
2CF
330
25
100
AcDbDictionary
280
     1
281
     1
  3
ACAD_XREC_ROUNDTRIP
360
2D0
  0
DICTIONARY
  5
2BC
330
21
100
AcDbDictionary
280
     1
281
     1
  3
ACAD_XREC_ROUNDTRIP
360
2CE
  3
ADSK_XREC_LAYOUTTHUMBNAIL
360
2BD
  0
XRECORD
  5
2D0
102
{ACAD_REACTORS
330
2CF
102
}
330
2CF
100
AcDbXrecord
280
     1
102
SHADEPLOT
 70
     0
102
SHADEPLOTRESLEVEL
 70
     2
102
SHADEPLOTCUSTOMDPI
 70
   300
  0
XRECORD
  5
2CE
102
{ACAD_REACTORS
330
2BC
102
}
330
2BC
100
AcDbXrecord
280
     1
102
SHADEPLOT
 70
     0
102
SHADEPLOTRESLEVEL
 70
     2
102
SHADEPLOTCUSTOMDPI
 70
   300
  0
XRECORD
  5
2BD
102
{ACAD_REACTORS
330
2BC
102
}
330
2BC
100
AcDbXrecord
280
     1
310
28000000B40000007F00000001000800000000004C590000000000000000000000010000000000000000000000000000FFFFFF000000000000000000000000000000000000000000000000000000000000000000330000006600000099000000CC000000FF00000000330000333300006633000099330000CC330000FF3300
310
0000660000336600006666000099660000CC660000FF66000000990000339900006699000099990000CC990000FF99000000CC000033CC000066CC000099CC0000CCCC0000FFCC000000FF000033FF000066FF000099FF0000CCFF0000FFFF000000003300330033006600330099003300CC003300FF003300003333003333
310
33006633330099333300CC333300FF33330000663300336633006666330099663300CC663300FF66330000993300339933006699330099993300CC993300FF99330000CC330033CC330066CC330099CC3300CCCC3300FFCC330000FF330033FF330066FF330099FF3300CCFF3300FFFF330000006600330066006600660099
310
006600CC006600FF00660000336600333366006633660099336600CC336600FF33660000666600336666006666660099666600CC666600FF66660000996600339966006699660099996600CC996600FF99660000CC660033CC660066CC660099CC6600CCCC6600FFCC660000FF660033FF660066FF660099FF6600CCFF6600
310
FFFF660000009900330099006600990099009900CC009900FF00990000339900333399006633990099339900CC339900FF33990000669900336699006666990099669900CC669900FF66990000999900339999006699990099999900CC999900FF99990000CC990033CC990066CC990099CC9900CCCC9900FFCC990000FF99
310
0033FF990066FF990099FF9900CCFF9900FFFF99000000CC003300CC006600CC009900CC00CC00CC00FF00CC000033CC003333CC006633CC009933CC00CC33CC00FF33CC000066CC003366CC006666CC009966CC00CC66CC00FF66CC000099CC003399CC006699CC009999CC00CC99CC00FF99CC0000CCCC0033CCCC0066CC
310
CC0099CCCC00CCCCCC00FFCCCC0000FFCC0033FFCC0066FFCC0099FFCC00CCFFCC00FFFFCC000000FF003300FF006600FF009900FF00CC00FF00FF00FF000033FF003333FF006633FF009933FF00CC33FF00FF33FF000066FF003366FF006666FF009966FF00CC66FF00FF66FF000099FF003399FF006699FF009999FF00CC
310
99FF00FF99FF0000CCFF0033CCFF0066CCFF0099CCFF00CCCCFF00FFCCFF0000FFFF0033FFFF0066FFFF0099FFFF00CCFFFF00FFFFFF00000000000D0D0D001A1A1A00282828003535350043434300505050005D5D5D006B6B6B00787878008686860093939300A1A1A100AEAEAE00BBBBBB00C9C9C900D6D6D600E4E4E400
310
F1F1F100FFFFFF0000000000000000000000000000000000000000000000000000000000000000000000000000000000F5F5F5F5F5F5F5F5F5F5F5F5F5F5F5F5F5F5F5F5F5F5F5F5F5F5F5F5F5F5F5F5F5F5F5F5F5F5F5F5F5F5F5F5F5F5F5F5F5F5F5F5F5F5F5F5F5F5F5F5F5F5F5F5F5F5F5F5F5F5F5F5F5F5F5F5F5F5F5
310
F5F5F5F5F5F5F5F5F5F5F5F5F5F5F5F5F5F5F5F5F5F5F5F5F5F5F5F5F5F5F5F5F5F5F5F5F5F5F5F5F5F5F5F5F5F5F5F5F5F5F5F5F5F5F5F5F5F5F5F5F5F5F5F5F5F5F5F5F5F5F5F5F5F5F5F5F5F5F5F5F5F5F5F5F5F5F5F5F5F5F5F5F5F5F5F5F5F5F5F5F5F5E2E2E2E2E2E2E2E2E2E2E2E2E2E2E2E2E2E2E2E2E2E2E2E2E2
310
E2E2E2E2E2E2E2E2E2E2E2E2E2E2E2E2E2E2E2E2E2E2E2E2E2E2E2E2E2E2E2E2E2E2E2E2E2E2E2E2E2E2E2E2E2E2E2E2E2E2E2E2E2E2E2E2E2E2E2E2E2E2E2E2E2E2E2E2E2E2E2E2E2E2E2E2E2E2E2E2E2E2E2E2E2E2E2E2E2E2E2E2E2E2E2E2E2E2E2E2E2E2E2E2E2E2E2E2E2E2E2E2E2E2E2E2E2E2E2E2E2E2E2E2E2E2E2
310
E2E2E2E2E2E2E2E2E2E2E2E2E2E2E2E2E2E2E2E2E2E2E2E2E2F5F5F5E2E2E2E2E2E2E2E2E2E2E2E2E2E2E2E2E2E2E2E2E2E2E2E2E2E2E2E2E2E2E2E2E2E2E2E2E2E2E2E2E2E2E2E2E2E2E2E2E2E2E2E2E2E2E2E2E2E2E2E2E2E2E2E2E2E2E2E2E2E2E2E2E2E2E2E2E2E2E2E2E2E2E2E2E2E2E2E2E2E2E2E2E2E2E2E2E2E2E2
310
E2E2E2E2E2E2E2E2E2E2E2E2E2E2E2E2E2E2E2E2E2E2E2E2E2E2E2E2E2E2E2E2E2E2E2E2E2E2E2E2E2E2E2E2E2E2E2E2E2E2E2E2E2E2E2E2E2E2E2E2E2E2E2E2E2E2E2E2E2E2E2E2E2E2E2E2E2E2F5F5F5E2E2F5F5F5F5F5F5F5F5E2E2E2E2E2E2E2E2E2F5F5F5F5F5F5F5F5F5F5F5F5F5F5F5F5E2E2E2E2E2E2E2E2E2F5F5
310
F5F5F5F5F5F5F5F5F5F5F5F5F5F5E2E2E2E2E2E2E2E2F5F5F5F5F5F5F5F5F5F5F5F5F5F5F5F5E2E2E2E2E2E2E2E2E2F5F5F5F5F5F5F5F5F5F5F5F5F5F5F5F5E2E2E2E2E2E2E2E2F5F5F5F5F5F5F5F5F5F5F5F5F5F5F5F5E2E2E2E2E2E2E2E2E2F5F5F5F5F5F5F5F5F5F5F5F5F5F5F5F5E2E2E2E2E2E2E2E2E2F5F5F5F5F5F5
310
F5F5E2E2F5F5F5E2E2F5E2E2E2E2E2E2E2E2E2E2E2E2E2E2E2E2E2E2E2E2E2E2E2E2E2E2E2E2E2E2E2E2E2E2E2E2E2E2E2E2E2E2E2E2E2E2E2E2E2E2E2E2E2E2E2E2E2E2E2E2E2E2E2E2E2E2E2E2E2E2E2E2E2E2E2E2E2E2E2E2E2E2E2E2E2E2E2E2E2E2E2E2E2E2E2E2E2E2E2E2E2E2E2E2E2E2E2E2E2E2E2E2E2E2E2E2E2
310
E2E2E2E2E2E2E2E2E2E2E2E2E2E2E2E2E2E2E2E2E2E2E2E2E2E2E2E2E2E2E2E2E2E2E2E2E2E2E2E2E2E2E2E2E2E2E2E2E2E2E2E2E2E2F5E2E2F5F5F5E2E2F5E2E2E2E2E2E2E2E2E2E2E2E2E2E2E2E2E2E2E2E2E2E2E2E2E2E2E2E2E2E2E2E2E2E2E2E2E2E2E2E2E2E2E2E2E2E2E2E2E2E2E2E2E2E2E2E2E2E2E2E2E2E2E2E2
310
E2E2E2E2E2E2E2E2E2E2E2E2E2E2E2E2E2E2E2E2E2E2E2E2E2E2E2E2E2E2E2E2E2E2E2E2E2E2E2E2E2E2E2E2E2E2E2E2E2E2E2E2E2E2E2E2E2E2E2E2E2E2E2E2E2E2E2E2E2E2E2E2E2E2E2E2E2E2E2E2E2E2E2E2E2E2E2E2E2E2E2E2E2E2E2E2E2E2E2E2E2E2E2E2E2E2E2F5E2E2F5F5F5E2E2F5E2E2E2E2E2E2E2E2E2E2E2
310
E2E2E2E2E2E2E2E2E2E2E2E2E2E2E2E2E2E2E2E2E2E2E2E2E2E2E2E2E2E2E2E2E2E2E2E2E2E2E2E2E2E2E2E2E2E2E2E2E2E2E2E2E2E2E2E2E2E2E2E2E2E2E2E2E2E2E2E2E2E2E2E2E2E2E2E2E2E2E2E2E2E2E2E2E2E2E2E2E2E2E2E2E2E2E2E2E2E2E2E2E2E2E2E2E2E2E2E2E2E2E2E2E2E2E2E2E2E2E2E2E2E2E2E2E2E2E2
310
E2E2E2E2E2E2E2E2E2E2E2E2E2E2E2E2E2E2E2E2E2E2E2E2E2E2E2E2E2E2E2E2E2F5E2E2F5F5F5E2E2F5E2E2E2E2E2E2E2E2E2E2E2E2E2E2E2E2E2E2E2E2E2E2E2E2E2E2E2E2E2E2E2E2E2E2E2E2E2E2E2E2E2E2E2E2E2E2E2E2E2E2E2E2E2E2E2E2E2E2E2E2E2E2E2E2E2E2E2E2E2E2E2E2E2E2E2E2E2E2E2E2E2E2E2E2E2
310
E2E2E2E2E2E2E2E2E2E2E2E2E2E2E2E2E2E2E2E2E2E2E2E2E2E2E2E2E2E2E2E2E2E2E2E2E2E2E2E2E2E2E2E2E2E2E2E2E2E2E2E2E2E2E2E2E2E2E2E2E2E2E2E2E2E2E2E2E2E2E2E2E2E2E2E2E2E2E2E2E2E2E2E2E2E2F5E2E2F5F5F5E2E2F5E2E2E2E2E2E2E2E2E2E2E2E2E2E2E2E2E2E2E2E2E2E2E2E2E2E2E2E2E2E2E2E2
310
E2E2E2E2E2E2E2E2E2E2E2E2E2E2E2E2E2E2E2E2E2E2E2E2E2E2E2E2E2E2E2E2E2E2E2E2E2E2E2E2E2E2E2E2E2E2E2E2E2E2E2E2E2E2E2E2E2E2E2E2E2E2E2E2E2E2E2E2E2E2E2E2E2E2E2E2E2E2E2E2E2E2E2E2E2E2E2E2E2E2E2E2E2E2E2E2E2E2E2E2E2E2E2E2E2E2E2E2E2E2E2E2E2E2E2E2E2E2E2E2E2E2E2E2E2E2E2
310
E2E2E2E2E2E2E2E2E2E2E2E2F5E2E2F5F5F5E2E2F5E2E2E2E2E2E2E2E2E2E2E2E2E2E2E2E2E2E2E2E2E2E2E2E2E2E2E2E2E2E2E2E2E2E2E2E2E2E2E2E2E2E2E2E2E2E2E2E2E2E2E2E2E2E2E2E2E2E2E2E2E2E2E2E2E2E2E2E2E2E2E2E2E2E2E2E2E2E2E2E2E2E2E2E2E2E2E2E2E2E2E2E2E2E2E2E2E2E2E2E2E2E2E2E2E2E2
310
E2E2E2E2E2E2E2E2E2E2E2E2E2E2E2E2E2E2E2E2E2E2E2E2E2E2E2E2E2E2E2E2E2E2E2E2E2E2E2E2E2E2E2E2E2E2E2E2E2E2E2E2E2E2E2E2E2E2E2E2E2E2E2E2E2F5E2E2F5F5F5E2E2F5E2E2E2E2E2E2E2E2E2E2E2E2E2E2E2E2E2E2E2E2E2E2E2E2E2E2E2E2E2E2E2E2E2E2E2E2E2E2E2E2E2E2E2E2E2E2E2E2E2E2E2E2E2
310
E2E2E2E2E2E2E2E2E2E2E2E2E2E2E2E2E2E2E2E2E2E2E2E2E2E2E2E2E2E2E2E2E2E2E2E2E2E2E2E2E2E2E2E2E2E2E2E2E2E2E2E2E2E2E2E2E2E2E2E2E2E2E2E2E2E2E2E2E2E2E2E2E2E2E2E2E2E2E2E2E2E2E2E2E2E2E2E2E2E2E2E2E2E2E2E2E2E2E2E2E2E2E2E2E2E2E2E2E2E2E2E2E2E2E2E2E2E2F5E2E2F5F5F5E2E2E2
310
E2E2E2E2E2E2E2E2E2E2E2E2E2E2E2E2E2E2E2E2E2E2E2E2E2E2E2E2E2E2E2E2E2E2E2E2E2E2E2E2E2E2E2E2E2E2E2E2E2E2E2E2E2E2E2E2E2E2E2E2E2E2E2E2E2E2E2E2E2E2E2E2E2E2E2E2E2E2E2E2E2E2E2E2E2E2E2E2E2E2E2E2E2E2E2E2E2E2E2E2E2E2E2E2E2E2E2E2E2E2E2E2E2E2E2E2E2E2E2E2E2E2E2E2E2E2E2
310
E2E2E2E2E2E2E2E2E2E2E2E2E2E2E2E2E2E2E2E2E2E2E2E2E2E2E2E2E2E2E2E2E2E2E2E2E2E2E2E2E2E2E2E2E2E2E2F5F5F5E2E2E2E2E2E2E2E2E2E2E2E2E2E2E2E2E2E2E2E2E2E2E2E2E2E2E2E2E2E2E2E2E2E2E2E2E2E2E2E2E2E2E2E2E2E2E2E2E2E2E2E2E2E2E2E2E2E2E2E2E2E2E2E2E2E2E2E2E2E2E2E2E2E2E2E2E2
310
E2E2E2E2E2E2E2E2E2E2E2E2E2E2E2E2E2E2E2E2E2E2E2E2E2E2E2E2E2E2E2E2E2E2E2E2E2E2E2E2E2E2E2E2E2E2E2E2E2E2E2E2E2E2E2E2E2E2E2E2E2E2E2E2E2E2E2E2E2E2E2E2E2E2E2E2E2E2E2E2E2E2E2E2E2E2E2E2E2E2E2E2E2E2E2E2E2E2E2E2F5F5F5E2E2E2E2E2E2E2E2E2E2E2E2E2E2E2E2E2E2E2E2E2E2E2E2
310
E2E2E2E2E2E2E2E2E2E2E2E2E2E2E2E2E2E2E2E2E2E2E2E2E2E2E2E2E2E2E2E2E2E2E2E2E2E2E2E2E2E2E2E2E2E2E2E2E2E2E2E2E2E2E2E2E2E2E2E2E2E2E2E2E2E2E2E2E2E2E2E2E2E2E2E2E2E2E2E2E2E2E2E2E2E2E2E2E2E2E2E2E2E2E2E2E2E2E2E2E2E2E2E2E2E2E2E2E2E2E2E2E2E2E2E2E2E2E2E2E2E2E2E2E2E2E2
310
E2E2E2E2E2E2E2E2E2E2E2E2E2E2E2E2E2E2E2E2E2E2E2E2E2E2F5F5F5E2E2E2E2E2E2E2E2E2E2E2E2E2E2E2E2E2E2E2E2E2E2E2E2E2E2E2E2E2E2E2E2E2E2E2E2E2E2E2E2E2E2E2E2E2E2E2E2E2E2E2E2E2E2E2E2E2E2E2E2E2E2E2E2E2E2E2E2E2E2E2E2E2E2E2E2E2E2E2E2E2E2E2E2E2E2E2E2E2E2E2E2E2E2E2E2E2E2
310
E2E2E2E2E2E2E2E2E2E2E2E2E2E2E2E2E2E2E2E2E2E2E2E2E2E2E2E2E2E2E2E2E2E2E2E2E2E2E2E2E2E2E2E2E2E2E2E2E2E2E2E2E2E2E2E2E2E2E2E2E2E2E2E2E2E2E2E2E2E2E2E2E2E2E2E2E2E2E2F5F5F5E2E2E2E2E2E2E2E2E2E2E2E2E2E2E2E2E2E2E2F5F5F5F5F5F5F5F5F5F5F5F5F5F5F5F5F5F5F5F5F5F5F5F5F5F5
310
F5F5F5F5F5F5F5F5F5F5F5F5F5F5F5F5F5F5F5F5F5F5F5F5F5F5F5F5F5F5F5F5F5F5F5F5F5F5F5F5F5F5F5F5F5F5F5F5F5F5F5F5F5F5F5F5F5F5F5F5F5F5F5F5F5F5F5F5F5F5F5F5F5F5F5F5F5F5F5F5F5F5F5F5F5F5F5F5F5F5F5F5F5F5F5F5F5F5F5F5F5F5F5F5F5F5F5F5F5F5F5F5E2E2E2E2E2E2E2E2E2E2E2E2E2E2E2
310
E2E2E2E2E2F5F5F5E2E2E2E2E2E2E2E2E2E2E2E2E2E2E2E2E2E2E2F5F5F5F5F5F5F5F5F5F5F5F5F5F5F5F5F5F5F5F5F5F5F5F5F5F5F5F5F5F5F5F5F5F5F5F5F5F5F5F5F5F5F5F5F5F5F5F5F5F5F5F5F5F5F5F5F5F5F5F5F5F5F5F5F5F5F5F5F5F5F5F5F5F5F5F5F5F5F5F5F5F5F5F5F5F5F5F5F5F5F5F5F5F5F5F5F5F5F5F5
310
F5F5F5F5F5F5F5F5F5F5F5F5F5F5F5F5F5F5F5F5F5F5F5F5F5F5F5F5F5F5F5F5F5F5F5F5F5F5E2E2E2E2E2E2E2E2E2E2E2E2E2E2E2E2E2E2E2E2F5F5F5E2E2E2E2E2E2E2E2E2E2E2E2E2E2E2E2E2E2E2F5F5E2E2E2E2E2E2E2E2E2E2E2E2E2E2E2E2E2E2E2E2E2E2E2E2E2E2E2E2E2E2E2E2E2E2E2E2E2E2E2E2E2E2E2E2E2
310
E2E2E2E2E2E2E2E2E2E2E2E2E2E2E2E2E2E2E2E2E2E2E2E2E2E2E2E2E2E2E2E2E2E2E2E2E2E2E2E2E2E2E2E2E2E2E2E2E2E2E2E2E2E2E2E2E2E2E2E2E2E2E2F5E2F5E2F5F5F5F5F5F5F5F5F5E2F5E2F5E2F5E2F5F5F5F5F5E2E2F5E2E2E2E2E2E2E2E2E2E2E2E2E2E2E2E2E2E2E2E2F5F5F5E2E2E2E2E2E2E2E2E2E2E2E2E2
310
E2E2E2E2E2E2F5F5E2E2E2E2E2E2E2E2E2E2E2E2E2E2E2E2E2E2E2E2E2E2E2E2E2E2E2E2E2E2E2E2E2E2E2E2E2E2E2E2E2E2E2E2E2E2E2E2E2E2E2E2E2E2E2E2E2E2E2E2E2E2E2E2E2E2E2E2E2E2E2E2E2E2E2E2E2E2E2E2E2E2E2E2E2E2E2E2E2E2E2E2E2E2E2E2E2E2E2E2E2E2E2E2E2E2E2E2F5F5F5F5F5F5F5F5E2F5F5
310
F5F5F5F5E2F5F5F5F5F5F5F5F5F5E2E2F5E2E2E2E2E2E2E2E2E2E2E2E2E2E2E2E2E2E2E2E2F5F5F5E2E2E2E2E2E2E2E2E2E2E2E2E2E2E2E2E2E2E2F5F5E2E2E2F5F5F5F5F5F5F5F5F5F5F5F5F5F5F5F5F5F5F5F5F5F5F5F5F5F5F5F5F5F5F5F5F5F5F5F5F5F5F5F5F5F5F5F5F5F5F5F5F5F5F5F5F5F5E2E2E2E2E2E2E2E2E2
310
E2E2E2E2E2E2E2E2E2E2E2E2E2E2E2E2E2E2E2E2E2E2E2E2E2E2E2E2E2E2E2E2E2E2E2E2E2E2E2E2E2E2F5E2E2E2E2E2E2E2E2E2E2E2E2E2E2E2E2E2E2E2E2E2E2E2E2E2E2F5E2E2E2E2E2E2E2E2E2E2E2E2E2E2E2E2E2E2E2E2F5F5F5E2E2F5E2E2E2E2E2E2E2E2E2E2E2E2E2E2E2E2F5F5E2E2E2F5F5F5F5F5F5F5F5F5F5
310
F5E2F5E2E2F5F5F5F5F5F5F5F5E2F5F5F5F5E2F5F5F5F5E2F5F5F5F5F5E2F5F5F5F5F5F5F5E2F5F5F5F5E2F5E2E2E2E2E2E2E2E2E2E2E2E2E2E2E2E2E2E2E2E2E2E2E2E2E2E2E2E2E2E2E2E2E2E2E2E2E2E2E2E2E2E2E2E2E2E2E2E2E2E2E2F5F5F5F5F5F5F5F5F5F5F5F5F5F5F5F5F5F5F5F5F5F5F5F5F5F5F5F5E2E2E2E2
310
E2E2E2E2E2E2E2E2E2E2E2E2E2F5E2E2F5F5F5E2E2F5E2E2E2E2E2E2E2E2E2E2E2E2E2E2E2E2F5F5E2E2E2F5F5F5F5F5F5F5F5F5F5F5F5F5F5F5F5F5F5F5F5F5F5F5F5F5F5F5F5F5F5F5F5F5F5F5F5F5F5F5F5F5F5F5F5F5F5F5F5F5F5F5F5F5F5E2E2E2E2E2E2E2E2E2E2E2E2E2E2E2E2E2E2E2E2E2E2E2E2E2E2E2E2E2E2
310
E2E2E2E2E2E2E2E2E2E2E2E2E2E2E2E2E2E2E2E2E2E2E2E2E2E2E2E2E2E2E2E2E2E2E2E2E2E2E2E2E2E2E2E2E2E2E2E2F5E2E2E2E2E2E2E2E2E2E2E2E2E2E2E2E2E2F5E2E2F5F5F5E2E2F5E2E2E2E2E2E2E2E2E2E2E2E2E2E2E2E2F5F5E2E2E2F5F5F5F5F5F5F5F5F5F5F5F5F5F5F5F5F5F5F5F5F5F5F5F5F5F5F5F5F5F5F5
310
F5F5F5F5F5F5F5F5F5F5F5F5F5F5F5F5F5F5F5F5F5F5F5E2E2E2E2E2E2E2E2E2E2E2E2E2E2E2E2E2E2E2E2E2E2E2E2E2E2E2E2E2E2E2E2E2E2E2E2E2E2E2E2E2E2E2E2E2E2E2E2E2E2E2E2E2E2E2E2E2E2E2E2E2E2E2E2E2E2E2E2E2E2E2E2E2E2E2E2E2E2F5E2E2E2E2E2E2E2E2E2E2E2E2E2E2E2E2E2F5E2E2F5F5F5E2E2
310
F5E2E2E2E2E2E2E2E2E2E2E2E2E2E2E2E2F5F5E2E2E2E2E2E2E2E2E2E2E2E2E2E2E2E2E2E2E2E2E2E2E2F5F5F5F5F5F5F5F5F5F5F5F5F5E2E2E2E2E2E2E2E2E2E2E2E2E2E2E2F5F5F5F5F5E2E2E2E2E2E2E2E2E2E2E2E2E2E2E2E2E2E2E2E2E2E2E2E2E2E2E2E2E2E2E2E2E2E2E2E2E2E2E2E2E2E2E2E2E2E2E2E2E2E2E2E2
310
E2E2E2E2E2E2E2E2E2E2E2E2E2E2E2E2E2E2E2E2E2E2E2E2E2E2E2F5E2E2E2E2E2E2E2E2E2E2E2E2E2E2E2E2E2F5E2E2F5F5F5E2E2F5E2E2E2E2E2E2E2E2E2E2E2E2E2E2E2E2F5F5E2E2E2E2E2E2E2E2E2E2E2E2E2E2E2E2E2E2E2E2E2E2E2F5F5F5F5F5F5F5F5F5F5F5F5F5E2E2E2E2E2E2E2E2E2E2E2E2E2E2E2E2F5E2F5
310
E2E2E2E2E2E2E2E2E2E2E2E2E2E2E2E2E2E2E2E2E2E2E2E2E2E2E2E2E2E2E2E2E2E2E2E2E2E2E2E2E2E2E2E2E2E2E2E2E2E2E2E2E2E2E2E2E2E2E2E2E2E2E2E2E2E2E2E2E2E2E2E2E2E2E2E2E2E2E2E2F5E2E2E2E2E2E2E2E2E2E2E2E2E2E2E2E2E2F5E2E2F5F5F5E2E2F5E2E2E2E2E2E2E2E2E2E2E2E2E2E2E2E2F5F5E2E2
310
E2E2E2E2E2E2E2E2E2E2E2E2E2E2E2E2E2E2E2E2E2E2E2E2E2E2E2E2E2E2E2E2E2E2E2E2E2E2E2E2E2E2E2E2E2E2E2E2E2E2E2E2E2E2E2E2E2E2E2E2E2E2E2E2E2E2E2E2E2E2E2E2E2E2E2E2E2E2E2E2E2E2E2E2E2E2E2E2E2E2E2E2E2E2E2E2E2E2E2E2E2E2E2E2E2E2E2E2E2E2E2E2E2E2E2E2E2E2E2E2E2E2E2E2E2E2E2
310
E2E2E2E2E2E2F5E2E2E2E2E2E2E2E2E2E2E2E2E2E2E2E2E2F5E2E2F5F5F5E2E2F5E2E2E2E2E2E2E2E2E2E2E2E2E2E2E2E2F5F5E2E2E2E2E2E2E2E2E2E2E2E2E2E2E2E2E2E2E2E2E2E2E2E2E2E2E2E2E2E2E2E2E2E2E2E2E2E2E2E2E2E2E2E2E2E2E2E2E2E2E2E2E2E2E2E2E2E2E2E2E2E2E2E2E2E2E2E2E2E2E2E2E2E2E2E2
310
E2E2E2E2E2E2E2E2E2E2E2E2E2E2E2E2E2E2E2E2E2E2E2E2E2E2E2E2E2E2E2E2E2E2E2E2E2E2E2E2E2E2E2E2E2E2E2E2E2E2E2E2E2E2E2E2E2E2E2F5E2E2E2E2E2E2E2E2E2E2E2E2E2E2E2E2E2F5E2E2F5F5F5E2E2F5E2E2E2E2E2E2E2E2E2E2E2E2E2E2E2E2F5F5E2E2E2E2E2E2E2E2E2E2E2E2E2E2E2E2E2E2E2E2E2E2E2
310
E2E2E2E2E2E2E2E2E2E2E2E2E2E2E2E2E2E2E2E2E2E2E2E2E2E2E2E2E2E2E2E2E2E2E2E2E2E2E2E2E2E2E2E2E2E2E2E2E2E2E2E2E2E2E2E2E2E2E2E2E2E2E2E2E2E2E2E2E2E2E2E2E2E2E2E2E2E2E2E2E2E2E2E2E2E2E2E2E2E2E2E2E2E2E2E2E2E2E2E2E2E2E2E2E2E2E2E2E2E2E2E2F5E2E2E2E2E2E2E2E2E2E2E2E2E2E2
310
E2E2E2F5E2E2F5F5F5E2E2F5E2E2E2E2E2E2E2E2E2E2E2E2E2E2E2E2F5F5E2E2E2E2E2E2E2E2E2E2E2E2E2E2E2E2E2E2E2E2E2E2E2E2E2E2E2E2E2E2E2E2E2E2E2E2E2E2E2E2E2E2E2E2E2E2E2E2E2E2E2E2E2E2E2E2E2E2E2E2E2E2E2E2E2E2E2E2E2E2E2E2E2E2E2E2E2E2E2E2E2E2E2E2E2E2E2E2E2E2E2E2E2E2E2E2E2
310
E2E2E2E2E2E2E2E2E2E2E2E2E2E2E2E2E2E2E2E2E2E2E2E2E2E2E2E2E2E2E2E2E2E2E2E2E2E2F5E2E2E2E2E2E2E2E2E2E2E2E2E2E2E2E2E2F5E2E2F5F5F5E2E2F5E2E2E2E2E2E2E2E2E2E2E2E2E2E2E2E2F5F5E2E2E2E2E2E2E2E2E2E2E2E2E2E2E2E2E2E2E2E2E2E2E2E2E2E2E2E2E2E2E2E2E2E2E2E2E2E2E2E2E2E2E2E2
310
E2E2E2E2E2E2E2E2E2E2E2E2E2E2E2E2E2E2E2E2E2E2E2E2E2E2E2E2E2E2E2E2E2E2E2E2E2E2E2E2E2E2E2E2E2E2E2E2E2E2E2E2E2E2E2E2E2E2E2E2E2E2E2E2E2E2E2E2E2E2E2E2E2E2E2E2E2E2E2E2E2E2E2E2E2E2E2E2E2E2E2F5E2E2E2E2E2E2E2E2E2E2E2E2E2E2E2E2E2F5E2E2F5F5F5E2E2F5E2E2E2E2E2E2E2E2E2
310
E2E2E2E2E2E2E2F5F5E2E2E2E2E2E2E2E2E2E2E2E2E2E2E2E2E2E2E2E2E2E2E2E2E2E2E2E2E2E2E2E2E2E2E2E2E2E2E2E2E2E2E2E2E2E2E2E2E2E2E2E2E2E2E2E2E2E2E2E2E2E2E2E2E2E2E2E2E2E2E2E2E2E2E2E2E2E2E2E2E2E2E2E2E2E2E2E2E2E2E2E2E2E2E2E2E2E2E2E2E2E2E2E2E2E2E2E2E2E2E2E2E2E2E2E2E2E2
310
E2E2E2E2E2E2E2E2E2E2E2E2E2E2E2E2E2F5E2E2E2E2E2E2E2E2E2E2E2E2E2E2E2E2E2F5E2E2F5F5F5E2E2F5E2E2E2E2E2E2E2E2E2E2E2E2E2E2E2E2F5F5E2E2E2E2E2E2E2E2E2E2E2E2E2E2E2E2E2E2E2E2E2E2E2E2E2E2E2E2E2E2E2E2E2E2E2E2E2E2E2E2E2E2E2E2E2E2E2E2E2E2E2E2E2E2E2E2E2E2E2E2E2E2E2E2E2
310
E2E2E2E2E2E2E2E2E2E2E2E2E2E2E2E2E2E2E2E2E2E2E2E2E2E2E2E2E2E2E2E2E2E2E2E2E2E2E2E2E2E2E2E2E2E2E2E2E2E2E2E2E2E2E2E2E2E2E2E2E2E2E2E2E2E2E2E2E2E2F5E2E2E2E2E2E2E2E2E2E2E2E2E2E2E2E2E2F5E2E2F5F5F5E2E2F5E2E2E2E2E2E2E2E2E2E2E2E2E2E2E2E2F5F5E2E2E2E2E2E2E2E2E2E2E2E2
310
E2E2E2E2E2E2E2E2E2E2E2E2E2E2E2E2E2E2E2E2E2E2E2E2E2E2E2E2E2E2E2E2E2E2E2E2E2E2E2E2E2E2E2E2E2E2E2E2E2E2E2E2E2E2E2E2E2E2E2E2E2E2E2E2E2E2E2E2E2E2E2E2E2E2E2E2E2E2E2E2E2E2E2E2E2E2E2E2E2E2E2E2E2E2E2E2E2E2E2E2E2E2E2E2E2E2E2E2E2E2E2E2E2E2E2E2E2E2E2E2E2E2E2F5E2E2E2
310
E2E2E2E2E2E2E2E2E2E2E2E2E2E2F5E2E2F5F5F5E2E2F5E2E2E2E2E2E2E2E2E2E2E2E2E2E2E2E2F5F5E2E2E2E2E2E2E2E2E2E2E2E2E2E2E2E2E2E2E2E2E2E2E2E2E2E2E2E2E2E2E2E2E2E2E2E2E2E2E2E2E2E2E2E2E2E2E2E2E2E2E2E2E2E2E2E2E2E2E2E2E2E2E2E2E2E2E2E2E2E2E2E2E2E2E2E2E2E2E2E2E2E2E2E2E2E2
310
E2E2E2E2E2E2E2E2E2E2E2E2E2E2E2E2E2E2E2E2E2E2E2E2E2E2E2E2E2E2E2E2E2E2E2E2E2E2E2E2E2E2E2E2E2E2E2E2E2F5E2E2E2E2E2E2E2E2E2E2E2E2E2E2E2E2E2F5E2E2F5F5F5E2E2F5E2E2E2E2E2E2E2E2E2E2E2E2E2E2E2E2F5F5E2E2E2E2E2E2E2E2E2E2E2E2E2E2E2E2E2E2E2E2E2E2E2E2E2E2E2E2E2E2E2E2E2
310
E2E2E2E2E2E2E2E2E2E2E2E2E2E2E2E2E2E2E2E2E2E2E2E2E2E2E2E2E2E2E2E2E2E2E2E2E2E2E2E2E2E2E2E2E2E2E2E2E2E2E2E2E2E2E2E2E2E2E2E2E2E2E2E2E2E2E2E2E2E2E2E2E2E2E2E2E2E2E2E2E2E2E2E2E2E2E2E2E2E2E2E2E2E2E2E2E2E2E2E2E2E2F5E2E2E2E2E2E2E2E2E2E2E2E2E2E2E2E2E2F5E2E2F5F5F5E2
310
E2E2E2E2E2E2E2E2E2E2E2E2E2E2E2E2E2E2F5F5E2E2E2E2E2E2E2E2E2E2E2E2E2E2E2E2E2E2E2E2E2E2E2E2E2E2E2E2E2E2E2E2E2E2E2E2E2E2E2E2E2E2E2E2E2E2E2E2E2E2E2E2E2E2E2E2E2E2E2E2E2E2E2E2E2E2E2E2E2E2E2E2E2E2E2E2E2E2E2E2E2E2E2E2E2E2E2E2E2E2E2E2E2E2E2E2E2E2E2E2E2E2E2E2E2E2E2
310
E2E2E2E2E2E2E2E2E2E2E2E2E2E2E2E2E2E2E2E2E2E2E2E2E2E2E2E2F5E2E2E2E2E2E2E2E2E2E2E2E2E2E2E2E2E2E2E2E2F5F5F5E2E2E2E2E2E2E2E2E2E2E2E2E2E2E2E2E2E2E2F5F5E2E2E2E2E2E2E2E2E2E2E2E2E2E2E2E2E2E2E2E2E2E2E2E2E2E2E2E2E2E2E2E2E2E2E2E2E2E2E2E2E2E2E2E2E2E2E2E2E2E2E2E2E2E2
310
E2E2E2E2E2E2E2E2E2E2E2E2E2E2E2E2E2E2E2E2E2E2E2E2E2E2E2E2E2E2E2E2E2E2E2E2E2E2E2E2E2E2E2E2E2E2E2E2E2E2E2E2E2E2E2E2E2E2E2E2E2E2E2E2E2E2E2E2E2E2E2E2E2E2E2E2E2E2E2E2E2F5E2E2E2E2E2E2E2E2E2E2E2E2E2E2E2E2E2E2E2E2F5F5F5E2E2E2E2E2E2E2E2E2E2E2E2E2E2E2E2E2E2E2F5F5E2
310
E2E2E2E2E2E2E2E2E2E2E2E2E2E2E2E2E2E2E2E2E2E2E2E2E2E2E2E2E2E2E2E2E2E2E2E2E2E2E2E2E2E2E2E2E2E2E2E2E2E2E2E2E2E2E2E2E2E2E2E2E2E2E2E2E2E2E2E2E2E2E2E2E2E2E2E2E2E2E2E2E2E2E2E2E2E2E2E2E2E2E2E2E2E2E2E2E2E2E2E2E2E2E2E2E2E2E2E2E2E2E2E2E2E2E2E2E2E2E2E2E2E2E2E2E2E2E2
310
E2E2E2E2E2E2E2F5E2E2E2E2E2E2E2E2E2E2E2E2E2E2E2E2E2E2E2E2F5F5F5E2E2E2E2E2E2E2E2E2E2E2E2E2E2E2E2E2E2E2F5F5E2E2E2E2E2E2E2E2E2E2E2E2E2E2E2E2E2E2E2E2E2E2E2E2E2E2E2E2E2E2E2E2E2E2E2E2E2E2E2E2E2E2E2E2E2E2E2E2E2E2E2E2E2E2E2E2E2E2E2E2E2E2E2E2E2E2E2E2E2E2E228E2E2E2
310
E2E2E2E2E2E2E2E2E2E2E2E2E2E2E2E2E2E2E2E2E2E2E2E2E2E2E2E2E2E2E2E2E2E2E2E2E2E2E2E2E2E2E2E2E2E2E2E2E2E2E2E2E2E2E2E2E2E2E2E2F5E2E2E2E2E2E2E2E2E2E2E2E2E2E2E2E2E2E2E2E2F5F5F5E2E2E2E2E2E2E2E2E2E2E2E2E2E2E2E2E2E2E2F5F5E2E2E2E2E2E2E2E2E2E2E2E2E2E2E2E2E2E2E2E2E2E2
310
E2E2E2E2E2E2E2E2E2DCE2E2E2E2E2E2E2E2E2E2E2E2E2E2E2E2E2DCE2E2E2E2E2E2E2E2E2E2E2E2E2E2E2E2E2E2E2E2E228E2E2E2E2E2E2E2E2E2E2E2E2E2E2E2E2E2E2E2E2E2E2E2E2E2E2E2E2E2E2E2E2E2E2E2E2E2E2E2E2E2E2E2E2E2E2E2E2E2E2E2E2E2E2E2E2E2E2E2E2E2E2E2F5E2E2E2E2E2E2E2E2E2E2E2E2E2
310
E2E2E2E2E2E2E2F5F5F5E2E2E2E2E2E2E2E2E2E2E2E2E2E2E2E2E2E2E2F5F5E2E2E2E2E2E2E2E2E2E2E2E2E2E2E2E2E2E2E2E2E2E2E2E2E2E2E2E2E2E2F5DCF5F5F5F5F5F5F5F5F5F5F5F5F5F5F5F5F5F5F5F5F5F5F5F5F5F5F5F5F5F5F5F5F5F5F5F5F5F5F528F5F5F5F5F5F5F5F5F5F5F5F5F5F5F5F5F5F5F5F5F5F5F5F5
310
F5F5F5F5F5F5F5F5E2E2E2E2E2E2E2E2E2E2E2E2E2E2E2E2E2E2E2E2E2E2E2E2E2E2E2E2E2E2E2F5E2E2E2E2E2E2E2E2E2E2E2E2E2E2E2E2E2E2E2E2F5F5F5E2E2E2E2E2E2E2E2E2E2E2E2E2E2E2E2E2E2E2F5F5E2E2E2E2E2E2E2E2E2E2E2E2E2E2E2E2E2E2E2E2E2E2E2E2E2E2E2E2E2E2F5DCF5E2E2E2E2E2E2E2E2E2E2
310
E2E2E2E2E2E2DCE2E2E2E2E2E2E2E2E2E2E2E2E2E2E2E2E2E2E2E2E228E2E2E2E2E2E2E2E2E2E2E2E2E2E2E2E2E2E2E2E2E2E2E2E2E2E2E2E2F5E2E2F5E2E2E2E2E2E2E2E2E2E2E2E2E2E2E2E2E2E2E2E2E2E2E2E2E2E2E2E2E2E2E2F5E2E2E2E2E2E2E2E2E2E2E2E2E2E2E2E2E2E2E2E2F5F5F5E2E2E2E2E2E2E2E2E2E2E2
310
E2E2E2E2E2E2E2E2F5F5E2E2E2E2E2E2E2E2E2E2E2E2E2E2E2E2E2E2E2E2E2E2E2E2E2E2E2E2E2E2F5F5F5E2E2E2E2E2E2E2E2E2E2E2E2E2E2E2E2DCE2E2E2E2E2E2E2E2E2E2E2E2E2E2E2E2E2E2E2E2E228E2E2E2E2E2E2E2E2E2E2E2E2E2E2E2E2E2E2E2E2E2E2E2E2E2E2E2E2F5F5F5F5E2E2E2E2E2E2E2E2E2E2E2E2E2
310
E2E2E2E2E2E2E2E2E2E2E2E2E2E2E2E2E2E2F5E2E2E2E2E2E2E2E2E2E2E2E2E2E2E2E2E2E2E2E2F5F5F5E2E2E2E2E2E2E2E2E2E2E2E2E2E2E2E2E2E2E2F5F5E2E2E2E2E2E2E2E2E2E2E2E2E2E2E2E2E2E2E2E2E2E2E2E2E2E2E2E2E2E2F5E2F5F5F5F5F5F5F5F5F5F5F5F5F5F5F5F5F5DCF5F5F5F5F5F5F5F5F5F5F5F5F5F5
310
F5F5F5F5F5F5F528F5F5F52DF5F5F5BEF5F5F5F5F5F5F5F5F5F5F5F5F5F5F5F5F5F5F5F5F5DCE2F5E2E2E2E2E2E2E2E2E2E2E2E2E2E2E2E2E2E2E2E2E2E2E2E2E2E2E2E2E2E2E2F5E2E2E2E2E2E2E2E2E2E2E2E2E2E2E2E2E2E2E2E2F5F5F5E2E2F5E2E2E2E2E2E2E2E2E2E2E2E2E2E2E2E2F5F5E2E2E2E2E2E2E2E2E2E2E2
310
E2E2E2E2E2E2E2E2E2E2E2E2E2E2E2E2E2E2E2F5E2F5F5F5F5F5F5F5F5F5F5F5F5F5F5F5F5F5DC2DF5F5F5BEF5F5F5F5F5F5F5F5F5F5F5F5F5F5F5F528F5F5F5F5F5F5F5F5F5F5F5F5F5F5F5F5F5F5F5F5F5F5F5F5F5F5F5F5F5DCE2F5E2E2E2E2E2E2E2E2E2E2E2E2E2E2E2E2E2E2E2E2E2E2E2E2E2E2E2E2E2E2E2F5E2E2
310
E2E2E2E2E2E2E2E2E2E2E2E2E2E2E2F5E2E2F5F5F5E2E2F5E2E2E2E2E2E2E2E2E2E2E2E2E2E2E2E2F5F5E2E2E2E2E2E2E2E2E2E2E2E2E2E2E2E2E2E2E2E2E2E2E2E2E2E2E2E2E2E2F5F5F5F5F5F5F5F5F5F5F5F5F5F5F5F5F5F5F5DCF5F5F5F5F5F5F5F5F5F5F5F5F5F5F5F5F5F5F5F5F528F5F5F5F5F5F5F5F5F5F5F5F5F5
310
F5F5F5F5F5F5F5F5F5F5F5F5F5F5F5F5F5F5F5E2E2E2E2E2E2E2E2E2E2E2E2E2E2E2E2E2E2E2E2E2E2E2E2E2E2E2E2E2E2E2F5E2E2E2E2E2E2E2E2E2E2E2E2E2E2E2E2E2F5E2E2F5F5F5E2E2F5E2E2E2E2E2E2E2E2E2E2E2E2E2E2E2E2F5F5E2E2E2E2E2E2E2E2E2E2E2E2E2E2E2E2E2E2E2E2E2E2E2E2E2E2E2E2E2E2F5F5
310
F5F5F5F5F5F5F5E2E2E2E2E2E2E2E2E2E2DCE2E2E2E2E2E2E2E2E2E2E2F5F5F5F5F5F5F5F5F5F528F5F5F5F5F5F5F5F5F5F5F5F5F5F5F5F5F5F5F5F5F5F5F5F5F5F5F5F5F5F5F5F5E2E2E2E2E2E2E2E2E2E2E2E2E2E2E2E2E2E2E2E2E2E2E2E2E2E2E2E2E2E2E2F5E2E2E2E2E2E2E2E2E2E2E2E2E2E2E2E2E2F5E2E2F5F5F5
310
E2E2F5E2E2E2E2E2E2E2E2E2E2E2E2E2E2E2E2F5F5E2E2E2E2E2E2E2E2E2E2E2E2E2E2E2E2E2E2E2E2E2E2E2E2E2E2E2E2E2E2E2E2E2E2E2E2E2E2F5F5F5F5F5F5F5F5F5F5F5DCF5F5F5F5F5F5F5F5F5F5F5F5E2E2E2E2E2E2E2E2E228E2E2E2E2E2E2E2E2E2E2E2E2E2E2E2E2E2E2E2E2E2E2E2E2E2E2E2E2E2E2E2E2E2E2
310
E2E2E2E2E2E2E2E2E2E2E2E2E2E2E2E2E2E2E2E2E2E2E2E2E2E2E2E2E2F5E2E2E2E2E2E2E2E2E2E2E2E2E2E2E2E2E2F5E2E2F5F5F5E2E2F5E2E2E2E2E2E2E2E2E2E2E2E2E2E2E2E2F5F5E2E2E2E2E2E2E2E2E2E2E2E2E2E2E2E2E2E2E2E2E2E2E2E2E2E2E2E2E2E2E2E2E2E2E2E2E2E2E2E2E2E2E2E2E2E2E2E2E2E2E2E2E2
310
E2E2E2E2E2E2E2E2E2E2E2E2E2E2E2E2E2E228E2E2E2E2E2E2E2E2E2E2E2E2E2E2E2E2E2E2E2E2E2E2E2E2E2E2E2E2E2E2E2E2E2E2E2E2E2E2E2E2E2E2E2E2E2E2E2E2E2E2E2E2E2E2E2E2E2E2E2E2E2E2E2F5E2E2E2E2E2E2E2E2E2E2E2E2E2E2E2E2E2F5E2E2F5F5F5E2E2F5E2E2E2E2E2E2E2E2E2E2E2E2E2E2E2E2F5F5
310
E2E2E2E2E2E2E2E2E2E2E2E2E2E2E2E2E2E2E2E2E2E2E2E2E2E2E2E2E2E2E2E2E2E2E2E2E2E2E2E2E2E2E2E2E2E2E2E2E2E2E2E2E2E2E2E2E2E2E2E2E2E2E2E2E2E2E2E2E2E2E228E2E2E2E2E2E2E2E2E2E2E2E2E2E2E2E2E2E2E2E2E2E2E2E2E2E2E2E2E2E2E2E2E2E2E2E2E2E2E2E2E2E2E2E2E2E2E2E2E2E2E2E2E2E2E2
310
E2E2E2E2E2E2E2E2F5E2E2E2E2E2E2E2E2E2E2E2E2E2E2E2E2E2F5E2E2F5F5F5E2E2F5E2E2E2E2E2E2E2E2E2E2E2E2E2E2E2E2F5F5E2E2E2E2E2E2E2E2E2E2E2E2E2E2E2E2E2E2E2E2E2E2E2E2E2E2E2E2E2E2E2E2E2E2E2E2E2E2E2E2E2E2E2E2E2E2E2E2E2E2E2E2E2E2E2E2E2E2E2E2E2E2E2E2E2E2E2E2E2E2E228E2E2
310
E2E2E2E2E2E2E2E2E2E2E2E2E2E2E2E2E2E2E2E2E2E2E2E2E2E2E2E2E2E2E2E2E2E2E2E2E2E2E2E2E2E2E2E2E2E2E2E2E2E2E2E2E2E2E2E2E2E2E2E2E2F5E2E2E2E2E2E2E2E2E2E2E2E2E2E2E2E2E2F5E2E2F5F5F5E2E2F5E2E2E2E2E2E2E2E2E2E2E2E2E2E2E2E2F5F5E2E2E2E2E2E2E2E2E2E2E2E2E2E2E2E2E2E2E2E2E2
310
E2E2E2E2E2E2E2E2E2E2E2E2E2E2E2E2E2E2E2E2E2E2E2E2E2E2E2E2E2E2E2E2E2E2E2E2E2E2E2E2E2E2E2E2E2E2E2E2E2E228E2E2E2E2E2E2E2E2E2E2E2E2E2E2E2E2E2E2E2E2E2E2E2E2E2E2E2E2E2E2E2E2E2E2E2E2E2E2E2E2E2E2E2E2E2E2E2E2E2E2E2E2E2E2E2E2E2E2E2E2E2E2E2F5E2E2E2E2E2E2E2E2E2E2E2E2
310
E2E2E2E2E2F5E2E2F5F5F5E2E2F5E2E2E2E2E2E2E2E2E2E2E2E2E2E2E2E2F5F5E2E2E2E2E2E2E2E2E2E2E2E2E2E2E2E2E2E2E2E2E2E2E2E2E2E2E2E2E2E2E2E2E2E2E2E2E2E2E2E2E2E2E2E2E2E2E2E2E2E2E2E2E2E2E2E2E2E2E2E2E2E2E2E2E2E2E2E2E2E2E228E2E2E2E2E2E2E2E2E2E2E2E2E2E2E2E2E2E2E2E2E2E2E2
310
E2E2E2E2E2E2E2E2E2E2E2E2E2E2E2E2E2E2E2E2E2E2E2E2E2E2E2E2E2E2E2E2E2E2E2E2E2E2E2E2F5E2E2E2E2E2E2E2E2E2E2E2E2E2E2E2E2E2F5E2E2F5F5F5E2E2F5E2E2E2E2E2E2E2E2E2E2E2E2E2E2E2E2F5F5E2E2E2E2E2E2E2E2E2E2E2E2E2E2E2E2E2E2E2E2E2E2E2E2E2E2E2E2E2E2E2E2E2E2E2E2E2E2E2E2E2E2
310
E2E2E2E2E2E2E2E2E2E2E2E2E2E2E2E2E2E2E2E2E2E2E2E2E2E2E2E2E228E2E2E2E2E2E2E2E2E2E2E2E2E2E2E2E2E2E2E2E2E2E2E2E2E2E2E2E2E2E2E2E2E2E2E2E2E2E2E2E2E2E2E2E2E2E2E2E2E2E2E2E2E2E2E2E2E2E2E2E2E2E2E2F5E2E2E2E2E2E2E2E2E2E2E2E2E2E2E2E2E2F5E2E2F5F5F5E2E2F5E2E2E2E2E2E2E2
310
E2E2E2E2E2E2E2E2E2F5F5E2E2E2E2E2E2E2E2E2E2E2E2E2E2E2E2E2E2E2E2E2E2E2E2E2E2E2E2E2E2E2E2E2E2E2E2E2E2E2E2E2E2E2E2E2E2E2E2E2E2E2E2E2E2E2E2E2E2E2E2E2E2E2E2E2E2E2E2E2E2E228E2E2E2E2E2E2E2E2E2E2E2E2E2E2E2E2E2E2E2E2E2E2E2E2E2E2E2E2E2E2E2E2E2E2E2E2E2E2E2E2E2E2E2E2
310
E2E2E2E2E2E2E2E2E2E2E2E2E2E2E2E2E2E2E2F5E2E2E2E2E2E2E2E2E2E2E2E2E2E2E2E2E2F5E2E2F5F5F5E2E2F5E2E2E2E2E2E2E2E2E2E2E2E2E2E2E2E2F5F5E2E2E2E2E2E2E2E2E2E2E2E2E2E2E2E2E2E2E2E2E2E2E2E2E2E2E2E2E2E2E2E2E2E2E2E2E2E2E2E2E2E2E2E2E2E2E2E2E2E2E2E2E2E2E2E2E2E2E2E2E2E2E2
310
E2E2E2E2E2E2E2E228E2E2E2E2E2E2E2E2E2E2E2E2E2E2E2E2E2E2E2E2E2E2E2E2E2E2E2E2E2E2E2E2E2E2E2E2E2E2E2E2E2E2E2E2E2E2E2E2E2E2E2E2E2E2E2E2E2E2E2E2E2E2E2F5E2E2E2E2E2E2E2E2E2E2E2E2E2E2E2E2E2F5E2E2F5F5F5E2E2F5E2E2E2E2E2E2E2E2E2E2E2E2E2E2E2E2F5F5E2E2E2E2E2E2E2E2E2E2
310
E2E2E2E2E2E2E2E2E2E2E2E2E2E2E2E2E2E2E2E2E2E2E2E2E2E2E2E2E2E2E2E2E2E2E2E2E2E2E2E2E2E2E2E2E2E2E2E2E2E2E2E2E2E2E2E2E2E2E2E2E228E2E2E2E2E2E2E2E2E2E2E2E2E2E2E2E2E2E2E2E2E2E2E2E2E2E2E2E2E2E2E2E2E2E2E2E2E2E2E2E2E2E2E2E2E2E2E2E2E2E2E2E2E2E2E2E2E2E2E2E2E2E2E2F5E2
310
E2E2E2E2E2E2E2E2E2E2E2E2E2E2E2E2F5E2E2F5F5F5E2E2F5E2E2E2E2E2E2E2E2E2E2E2E2E2E2E2E2F5F5E2E2E2E2E2E2E2E2E2E2E2E2E2E2E2E2E2E2E2E2E2E2E2E2E2E2E2E2E2E2E2E2E2E2E2E2E2E2E2E2E2E2E2E2E2E2E2E2E2E2E2E2E2E2E2E2E2E2E2E2E2E2E2E2E2E2E2E2E2E2E228E2E2E2E2E2E2E2E2E2E2E2E2
310
E2E2E2E2E2E2E2E2E2E2E2E2E2E2E2E2E2E2E2E2E2E2E2E2E2E2E2E2E2E2E2E2E2E2E2E2E2E2E2E2E2E2E2E2E2E2E2E2E2E2E2F5E2E2E2E2E2E2E2E2E2E2E2E2E2E2E2E2E2F5E2E2F5F5F5E2E2F5E2E2E2E2E2E2E2E2E2E2E2E2E2E2E2E2F5F5E2E2E2E2E2E2E2E2E2E2E2E2E2E2E2E2E2E2E2E2E2E2E2E2E2E2E2E2E2E2E2
310
E2E2E2E2E2E2E2E2E2E2E2E2E2E2E2E2E2E2E2E2E2E2E2E2E2E2E2E2E2E2E2E2E2E2E2E2E2E2E2E228E2E2E2E2E2E2E2E2E2E2E2E2E2E2E2E2E2E2E2E2E2E2E2E2E2E2E2E2E2E2E2E2E2E2E2E2E2E2E2E2E2E2E2E2E2E2E2E2E2E2E2E2E2E2E2E2E2E2E2E2E2E2E2F5E2E2E2E2E2E2E2E2E2E2E2E2E2E2E2E2E2F5E2E2F5F5
310
F5E2E2E2E2E2E2E2E2E2E2E2E2E2E2E2E2E2E2E2F5F5E2E2E2E2E2E2E2E2E2E2E2E2E2E2E2E2E2E2E2E2E2E2E2E2E2E2E2E2E2E2E2E2E2E2E2E2E2E2E2E2E2E2E2E2E2E2E2E2E2E2E2E2E2E2E2E2E2E2E2E2E2E2E2E2E2E2E2E2E2E2E228E2E2E2E2E2E2E2E2E2E2E2E2E2E2E2E2E2E2E2E2E2E2E2E2E2E2E2E2E2E2E2E2E2
310
E2E2E2E2E2E2E2E2E2E2E2E2E2E2E2E2E2E2E2E2E2E2E2E2E2E2E2E2E2E2F5E2E2E2E2E2E2E2E2E2E2E2E2E2E2E2E2E2E2E2E2F5F5F5E2E2E2E2E2E2E2E2E2E2E2E2E2E2E2E2E2E2E2F5F5E2E2E2E2E2E2E2E2E2E2E2E2E2E2E2E2E2E2E2E2E2E2E2E2E2E2E2E2E2E2E2E2E2E2E2E2E2E2E2E2E2E2E2E2E2E2E2E2E2E2E2E2
310
E2E2E2E2E2E2E2E2E2E2E2E2E2E2E2E2E2E2E228E2E2E2E2E2E2E2E2E2E2E2E2E2E2E2E2E2E2E2E2E2E2E2E2E2E2E2E2E2E2E2E2E2E2E2E2E2E2E2E2E2E2E2E2E2E2E2E2E2E2E2E2E2E2E2E2E2E2E2E2E2E2E2F5E2E2E2E2E2E2E2E2E2E2E2E2E2E2E2E2E2E2E2E2F5F5F5E2E2E2E2E2E2E2E2E2E2E2E2E2E2E2E2E2E2E2F5
310
F5E2E2E2E2E2E2E2E2E2E2E2E2E2E2E2E2E2E2E2E2E2E2E2E2E2E2E2E2E2E2E2E2E2E2E2E2E2E2E2E2E2E2E2E2E2E2E2E2E2DCE2E2E2E2E2E2E2E2E2E2E2E2E2E2E2E2E2E2E2E2E228E2E2E2E2E2E2E2E2E2E2E2DCE2E2E2E2E2E2E2E2E2E2E2E2E2E2E2E2E2E2E2E2E2E2E2E2E2E2E2E2E2E2E2E2E2E2E2E2E2E2E2E2E2E2
310
E2E2E2E2E2E2E2E2E2F5E2E2E2E2E2E2E2E2E2E2E2E2E2E2E2E2E2E2E2E2F5F5F5E2E2E2E2E2E2E2E2E2E2E2E2E2E2E2E2E2E2E2F5F5E2E2E2E2E2E2E2E2E2E2F5F5F5F52D2DF5F5E2E2E2E2E2E2E2E2E2E2E2E2F5F5F5F5F5F5F5F5F5F5F5F5F5F5F5F5F5F5F5F5F5F5F5F5F5F5F5F5F5F5F5F5F5F5F5F5F5F5F5F5F528F5
310
F5F5F5F5F5F5F5F5F5F5F5F5F5F5F5F5F5F5F5F5F5F5F5F5F5F5F5F5F5F5F5E2E2E2E2E2E2E2E2E2E2E2F5F52D2DF5F5F5E2E2E2E2E2E2E2E2E2E2E2E2E2F5E2E2E2E2E2E2E2E2E2E2E2E2E2E2E2E2E2E2E2E2F5F5F5E2E2E2E2E2E2E2E2E2E2E2E2E2E2E2E2E2E2E2F5F5E2E2E2E2E2E2E2E2E2E2F5E2F5F5F5F5E2F5E2E2
310
E2E2E2E2E2E2E2E2E2E2F5E2F5F5F5F5F5F5F5DCDCDCDCDCDCDCDCDCDC2D2DDCDCDCDCDCDCDCDCDCDCF5F5F5F5F5F5F5F5F5F528F5F5F5F5F5F5F5F5F5F5F5F5F5F5F5F5F5F5F5F5F5F5F5F5F5F5F5F5F5E2E2F5E2E2E2E2E2E2E2E2E2E2E2F5E22D2D2DE2F5E2E2E2E2E2E2E2E2E2E2E2E2E2F5E2E2E2E2E2E2E2E2E2E2E2
310
E2E2E2E2E2E2E2E2E2F5F5F5E2E2E2E2E2E2E2E2E2E2E2E2E2E2E2E2E2E2E2F5F5E2E2E2E2E2E2E2E2E2E2DCDCDCBEBEE2E2F5E2E2E2E2E2E2E2E2E2E2E2E2F5F5F5E2E2E2E2E2F5DCDCE2E2E2E2E2E2E2E22D2DE2E2E2E2E2E2E2E2DCDCF5E2E2E2E2E2E2E2E2E228E2E2E2E2E2E2E2E2E2E2E2DCE2E2E2E2E2E2E2E2E2E2
310
E2E2E2E2E2E2F5E2F5F5E2E2E2E2E2E2E2E2E2E2E2F5E2BEBEE2DCF5E2E2E2E2E2E2E2E2E2E2E2E2E2F5E2E2E2E2E2E2E2E2E2E2E2E2E2E2E2E2E2E2E2E2F5F5F5E2E2E2E2E2E2E2E2E2E2E2E2E2E2E2E2E2E2E2F5F5E2E2E2E2E2E2E2E2E2E2DCDCDCE2E2E2E2F5E2E2E2E2E2E2E2E2E2E2E2E2F5F5F5F5F5F5F5F5F5E2E2
310
E2E2E2E2E2E2E2E2DCE2E2E2E2E2E2E2E2E2E2E2F5E2E2E2E2E2E2E2E2E228E2E2E2E2E2E2E2E2E2E2E2DCE2E2E2E2E2E2E2E2E2E2E2E2F5F5F5F5F5F5F5F5E2E2E2E2E2E2E2E2E2E2E2F5E2E2E2DCDCF5DCE2E2E2E2E2E2E2E2E2E2E2E2F5E2E2E2E2E2E2E2E2E2E2E2E2E2E2E2E2E2E2E2E2F5F5F5E2E2E2E2E2E2E2E2E2
310
E2E2E2E2E2E2E2E2E2E2F5F5E2E2E2E2E2E2E2E2E2E2F5DCDCE2E2E2E2F5E2E2E2E2E2E2E2E2E2E2E2E2F5F5F5E2E2E2E2F5F5E2E2E2E2E2E2E2E2E2E2DCE2E2E2E2E2E2E2E2E2E2E2F5F5F5F5F5F5F5F5F5F528F5F5F5F5F5F5F5F5F5F5F5F5F5F5F5F5F5F5F5F5F5F5F5F5F5E2E2E2F5F5F5F5E2E2E2E2E2E2E2E2E2E2E2
310
F5E2E2E2E2DCF5E2E2E2E2E2E2E2E2E2E2E2E2E2F5E2E2E2E2E2E2E2E2E2E2E2E2E2E2E2E2E2E2E2E2F5F5F5E2E2E2E2E2E2E2E2E2E2E2E2E2E2E2E2E2E2E2F5F5E2E2E2E2E2E2E2E2E2E2DCE2E2E2E2E2E2F5E2E2E2E2E2E2E2E2E2E2E2E2F5DCF5E2E2E2E2F5F5E2E2E2E2E2E2E2E2E2E2DCE2E2E2E2E2E2E2E2E2E2E2F5
310
E2E2E2E2E2E2E2E2E228E2E2E2E2E2E2E2E2E2E2E2DCE2E2E2E2E2E2E2E2E2E2E2E2F5E2E2E2F5E2DCF5E2E2E2E2E2E2E2E2E2E2E2F5E2E2E2E2E2F5E2E2E2E2E2E2E2E2E2E2E2E2E2F5E2E2E2E2E2E2E2E2E2E2E2E2E2E2E2E2E2E2E2E2F5F5F5E2E2F5E2E2E2E2E2E2E2E2E2E2E2E2E2E2E2E2F5F5E2E2E2E2E2E2E2E2E2
310
E2DCE2E2E2E2E2E2F5E2E2E2E2E2E2E2E2E2E2E2E2F5E2F5E2E2E2E2F5F5E2E2E2E2E2E2E2E2E2E2DCE2E2E2E2E2E2E2E2E2E2E2F5E2E2E2E2E2E2E2E2E228E2E2E2E2E2E2E2E2E2E2E2DCE2E2E2E2E2E2E2E2E2E2E2E2F5E2E2E2F5E2E2F5E2E2E2E2E2E2E2E2E2E2E2F5E2E2E2E2E2F5E2E2E2E2E2E2E2E2E2E2E2E2E2F5
310
E2E2E2E2E2E2E2E2E2E2E2E2E2E2E2E2E2F5E2E2F5F5F5E2E2F5E2E2E2E2E2E2E2E2E2E2E2E2E2E2E2E2F5F5E2E2E2E2E2E2E2E2E2E2DCE2E2E2E2E2E2F5E2E2E2E2E2E2E2E2E2E2E2E2F5E2F5E2E2E2E2F5F5E2E2E2E2E2E2E2E2E2E2DCE2E2E2E2E2E2E2E2E2E2E2F5F5F5F5F5F5F5F5F5F528F5F5F5F5F5F5F5F5F5F5F5
310
F5F5F5F5F5F5F5F5F5F5F5F5F5F5E2E2E2F5E2E2F5E2E2E2E2E2E2E2E2E2E2E2F5E2E2E2E2E2F5E2E2E2E2E2E2E2E2E2E2E2E2E2F5E2E2E2E2E2E2E2E2E2E2E2E2E2E2E2E2E2F5E2E2F5F5F5E2E2F5E2E2E2E2E2E2E2E2E2E2E2E2E2E2E2E2F5F5E2E2E2E2E2E2E2E2E2E2DCE2E2E2E2E2E2F5E2E2E2E2E2E2E2E2E2E2E2E2
310
F5E2F5F5F5F5F5F5F5E2E2E2E2E2E2E2E2E2E2DCE2E2E2E2E2E2E2E2E2E2E2F5F5F5F5F5F5F5F5F5F528F5F5F5F5F5F5F5F5F5F5F5DCF5F5F5F5F5F5F5F5F5F5F5F5F5F5F5F5F5E2E2F5E2E2E2E2E2E2E2E2E2E2E2F5E2E2E2E2E2F5E2E2E2E2E2E2E2E2E2E2E2E2E2F5E2E2E2E2E2E2E2E2E2E2E2E2E2E2E2E2E2F5E2E2F5
310
F5F5E2E2F5E2E2E2E2E2E2E2E2E2E2E2E2E2E2E2E2F5F5E2E2E2E2E2E2E2E2E2E2DCE2E2E2F5E2E2F5E2E2E2E2E2E2E2E2E2E2E2E2F5E2F5F5F5F5F5F5F5E2E2E2E2E2E2E2E2E2E2DCE2E2E2E2E2E2E2E2E2E2E2F5F5F5F5F5F5F5F5F5F528F5F5F5F5F5F5F5F5F5F5F5DCF5F5F5F5F5F5F5F5F5F5F5F5F5F5F5F5F5E2E2F5
310
E2E2E2E2E2E2E2E2E2E2E2F5E2F5E2E2E2F5E2E2E2E2E2E2E2E2E2E2E2E2E2F5E2E2E2E2E2E2E2E2E2E2E2E2E2E2E2E2E2F5E2E2F5F5F5E2E2F5E2E2E2E2E2E2E2E2E2E2E2E2E2E2E2E2F5F5E2E2E2E2E2E2E2E2E2E2DCE2E2F5DCF5E2F5E2E2E2E2E2E2E2E2E2E2E2E2F5E2F5E2F5E2F5F5F5E2E2E2E2E2E2E2E2E2E2DCE2
310
E2E2E2E2E2E2E2E2E2E2F5E2E2E2E2E2E2E2E2E228E2E2E2E2E2E2E2E2E2E2E2DCE2E2E2E2F5F5F5DCDCDCDCDCF5F5E2F5F5E2E2F5E2E2E2E2E2E2E2E2E2E2E2F5F5DCF5E2E2F5E2E2E2E2E2E2E2E2E2E2E2E2E2F5E2E2E2E2E2E2E2E2E2E2E2E2E2E2E2E2E2F5E2E2F5F5F5E2E2F5E2E2E2E2E2E2E2E2E2E2E2E2E2E2E2E2
310
F5F5E2E2E2E2E2E2E2E2E2E2DCDCDCF5DCF5F5F5E2E2E2E2E2E2E2E2E2E2E2E2F5E2F5E2E2E2E2F5F5E2E2E2E2E2E2E2E2E2E2DCE2E2E2E2E2E2E2E2E2E2E2F5E2E2E2E2E2E2E2E2E228E2E2E2E2E2E2E2E2E2E2E2DCE2E2E2E2DCDCDCDCDCDCDCDCF5DCDCDCF5DCDCF5E2E2E2E2E2E2E2E2E2E2E2F5F5DCDCF5DCF5E2E2E2
310
E2E2E2E2E2E2E2E2E2E2F5E2E2E2E2E2E2E2E2E2E2E2E2E2E2E2E2E2F5E2E2F5F5F5E2E2F5E2E2E2E2E2E2E2E2E2E2E2E2E2E2E2E2F5F5E2E2E2E2E2E2E2E2E2E2DCDCDCF5F5F5E2F5E2E2E2E2E2E2E2E2E2E2E2E2F5E2F5F5F5F5F5F5F5DCDCE2E2E2E2E2E2E2BE2D2DE2E2E2E2E2E2E2E2DCDCF5F5F5F5F5F5F5F5F5F528
310
F5F5F5F5F5F5F5F5F5F5F5DCF5F5F5F5F5F5F5F5F5F5F5F5F5E2F5F5F5E2E2F5E2E2E2E2E2E2E2E2E2E2E2F5F5F5F5F5F5F5DCE2E2E2E2E2E2E2E2E2E2E2E2F5E2E2E2E2E2E2E2E2E2E2E2E2E2E2E2E2E2F5E2E2F5F5F5E2E2F5E2E2E2E2E2E2E2E2E2E2E2E2E2E2E2E2F5F5E2E2E2E2E2E2E2E2E2E2F5DCDCDCDCE2E2F5E2
310
E2E2E2E2E2E2E2E2E2E2E2F5E2F5E2F5F5E2F5F5DCDCDCDCDCDCDCDCDCDC2D2DDCDCDCDCDCDCDCDCDCDCF5F5F5F5F5F5F5F5F5F528F5F5F5F5F5F5F5F5F5F5F5DCF5F5F5F5F5F5F5F5F5F5F5F5F5F5F5F5F5E2E2F5E2E2E2E2E2E2E2E2E2E2E2F5E2E2F5F5F5F5E2E2E2E2E2E2E2E2E2E2E2E2E2F5E2E2E2E2E2E2E2E2E2E2
310
E2E2E2E2E2E2E2F5E2E2F5F5F5E2E2F5E2E2E2E2E2E2E2E2E2E2E2E2E2E2E2E2F5F5E2E2E2E2E2E2E2E2E2E2F5E2E2DCE2E2E2F5E2E2E2E2E2E2E2E2E2E2E2E2F5E2F5F5F5F5F5F5F5E2E2E2E2E2E2E2E2E2E22DE2E2E2E2E2E2E2E2E2E2E2F5E2E2E2E2E2E2E2E2E228E2E2E2E2E2E2E2E2E2E2E2DCE2E2E2E2E2E2E2E2E2
310
E2E2E2F5F5F5F5F5E2E2F5E2E2E2E2E2E2E2E2E2E2E2F5E2E2E2F5E2F5E2E2E2E2E2E2E2E2E2E2E2E2E2F5E2E2E2E2E2E2E2E2E2E2E2E2E2E2E2E2E2F5E2E2F5F5F5E2E2F5E2E2E2E2E2E2E2E2E2E2E2E2E2E2E2E2F5F5E2E2E2E2E2E2E2E2E2E2F5E2E2E2E2E2E2F5E2E2E2E2E2E2E2E2E2E2E2E2F5E2F5E2DCE2E2E2F5E2
310
E2E2E2E2E2E2E2E2E2DCE2E2E2E2E2E2E2E2E2E2E2F5E2E2E2E2E2E2E2E2E228E2E2E2E2E2E2E2E2E2E2E2DCE2E2E2E2E2E2E2E2E2E2E2E2E2E2E2DCF5E2E2F5E2E2E2E2E2E2E2E2E2E2E2F5E2E2E2E2E2F5E2E2E2E2E2E2E2E2E2E2E2E2E2F5E2E2E2E2E2E2E2E2E2E2E2E2E2E2E2E2E2F5E2E2F5F5F5E2E2F5E2E2E2E2E2
310
E2E2E2E2E2E2E2E2E2E2E2F5F5E2E2E2E2E2E2E2E2E2E2F5E2E2E2E2E2E2F5E2E2E2E2E2E2E2E2E2E2E2E2F5E2F5F5F5F5F5E2F5F5F5F5F5F5F5F5F5F5F5DCF5F5F5F5F5F5F5F5F5F5F5F5E2E2E2E2E2E2E2E2E228E2E2E2E2E2E2E2E2E2E2E2DCE2E2E2E2E2E2E2E2E2E2E2E2E2F5F5F5F5E2E2F5E2E2E2E2E2E2E2E2E2E2
310
E2F5E2E2E2E2E2F5E2E2E2E2E2E2E2E2E2E2E2E2E2F5E2E2E2E2E2E2E2E2E2E2E2E2E2E2E2E2E2F5E2E2F5F5F5E2E2F5E2E2E2E2E2E2E2E2E2E2E2E2E2E2E2E2F5F5E2E2E2E2E2E2E2E2E2E2F5E2E2DCE2E2E2F5E2E2E2E2E2E2E2E2E2E2E2E2F5E2F5F5DCF5F5F5F5F5F5F5F5F5F5F5F5F5F5DCF5F5F5F5F5F5F5F5F5F5F5
310
F5F5F5F5F5F5F5F5F5F528F5F5F5F5F5F5F5F5F5F5F5DCF5F5F5F5F5F5F5F5F5F5F5F5F5F5F5F5F5E2E2F5E2E2E2E2E2E2E2E2E2E2E2F5E2E2E2E2E2F5E2E2E2E2E2E2E2E2E2E2E2E2E2F5E2E2E2E2E2E2E2E2E2E2E2E2E2E2E2E2E2F5E2E2F5F5F5E2E2F5E2E2E2E2E2E2E2E2E2E2E2E2E2E2E2E2F5F5E2E2E2E2E2E2E2E2
310
E2E2F5E2E2F5E2E2E2F5E2E2E2E2E2E2E2E2E2E2E2E2F5E2F5F5F5F5F5F5F5F5F5F5F5F5F5F5F5F5F5DCF5F5F5F5F5F5F5F5F5F5F5F5F5F5F5F5F5F5F5F5F528F5F5F5F5F5F5F5F5F5F5F5DCF5F5F5F5F5F5F5F5F5F5F5F5F5F5F5DCF5E2E2F5E2E2E2E2E2E2E2E2E2E2E2F5E2E2DCE2E2F5E2E2E2E2E2E2E2E2E2E2E2E2E2
310
F5E2E2E2E2E2E2E2E2E2E2E2E2E2E2E2E2E2F5E2E2F5F5F5E2E2F5E2E2E2E2E2E2E2E2E2E2E2E2E2E2E2E2F5F5E2E2E2E2E2E2E2E2E2E2F5E2DCF5F5DCE2F5E2E2E2E2E2E2E2E2E2E2E2E2F5E2F5F5E2E2E2E2E2E2E2E2E2E2E2E2E2E2E2DCE2E2E2E2E2E2E2E2E2E2E2E2E2E2E2E2E2E2E2E2E228E2E2E2E2E2E2E2E2E2E2
310
E2DCE2E2E2E2E2E2E2E2E2E2E2E2E2E2E2E2F5E2E2F5E2E2E2E2E2E2E2E2E2E2E2F5E2DCDCDCDCF5E2E2E2E2E2E2E2E2E2E2E2E2E2F5E2E2E2E2E2E2E2E2E2E2E2E2E2E2E2E2E2F5E2E2F5F5F5E2E2F5E2E2E2E2E2E2E2E2E2E2E2E2E2E2E2E2F5F5E2E2E2E2E2E2E2E2E2E2F5E2E2F5F5E2E2F5E2E2E2E2E2E2E2E2E2E2E2
310
E2F5F5F5F5E2E2E2E2E2E2E2E2E2E2E2E2E2E2E2DCE2E2E2E2E2E2E2E2E2E2E2E2E2E2E2E2E2E2E2E2E228E2E2E2E2E2E2E2E2E2E2E2DCE2E2E2E2E2E2E2E2E2E2E2E2E2E2E2E2F5E2F5F5E2E2E2E2E2E2E2E2E2E2E2F5E2E2DCDCE2F5E2E2E2E2E2E2E2E2E2E2E2E2E2F5E2E2E2E2E2E2E2E2E2E2E2E2E2E2E2E2E2F5E2E2
310
F5F5F5E2E2E2E2E2E2E2E2E2E2E2E2E2E2E2E2E2E2E2F5F5E2E2E2E2E2E2E2E2E2DCDCDCE2DCE2E2E2F5E2E2E2E2E2E2E2E2E2E2E2E2F5F5F5F5F5F5F5F5F5F5F5F5F5F5F5F5F5F5F5DCF5F5F5F5F5F5F5F5F5F5F5F5F5F5F5F5F5F5F5F5F528F5F5F5F5F5F5F5F5F5F5F5DCF5F5F5F5F5F5F5F5F5F5F5F5F5F5F5F5F5F5F5
310
F5E2E2E2E2E2E2E2E2E2E2E2F5E2E2E2E2E2DCDCE2E2E2E2E2E2E2E2E2E2E2E2F5E2E2E2E2E2E2E2E2E2E2E2E2E2E2E2E2E2E2E2E2F5F5F5E2E2E2E2E2E2E2E2E2E2E2E2E2E2E2E2E2E2E2F5F5E2E2E2E2E2E2E2E2E2E2F5E2F5F5F5E2E2F5E2E2E2E2E2E2E2E2E2E2E2E2F5F5F5F5F5F5F5F5F5F5F5F5F5F5F5F5F5F5F5DC
310
F5F5F5F5F5F5F5F5F5F5F5F5F5F5F5F5F5F5F5F5F528F5F5F5F5F5F5F5F5F5F5F5DCF5F5F5F5F5F5F5F5F5F5F5F5F5F5F5F5F5F5F5F5E2E2E2E2E2E2E2E2E2E2E2F5E2E2F5F5E2F5E2E2E2E2E2E2E2E2E2E2E2E2E2F5E2E2E2E2E2E2E2E2E2E2E2E2E2E2E2E2E2E2E2E2F5F5F5E2E2E2E2E2E2E2E2E2E2E2E2E2E2E2E2E2E2
310
E2F5F5E2E2E2E2E2E2E2E2E2E2F5F5F5F5F5F5F5F5E2E2E2E2E2E2E2E2E2E2E2E2F5DCF5F5F5F5F5F5F5F5F5F5F5F5F5F5F5F5F5DCF5F5F5F5F5F5F5F5F5F5F5F5F5F5F5F5F5F5F5F5F528F5F5F5F5F5F5F5F5F5F5F5DCF5F5F5F5F5F5F5F5F5F5F5F5F5F5F5F5F5F5DCF5E2E2E2E2E2E2E2E2E2E2E2F5F5F5F5F5F5F5E2E2
310
E2E2E2E2E2E2E2E2E2E2E2F5E2E2E2E2E2E2E2E2E2E2E2E2E2E2E2E2E2E2E2E2F5F5F5E2E2E2E2E2E2E2E2E2E2E2E2E2E2E2E2E2E2E2F5F5E2E2E2E2E2E2E2E2E2E2E2E2E2E2E2E2E2E2E2E2E2E2E2E2E2E2E2E2E2E2E2E2E2E2E2E2E2E2E2E2E2E2E2E2E2E2E2E2E2DCE2E2E2E2E2E2E2E2E2E2E2E2E2E2E2E2E2E2E2E2E2
310
28E2E2E2E2E2E2E2E2E2E2E2DCE2E2E2E2E2E2E2E2E2E2E2E2E2E2E2E2E2E2E2E2E2E2E2E2E2E2E2E2E2E2E2E2E2E2E2E2E2E2E2E2E2E2E2E2E2E2E2E2E2E2E2F5E2E2E2E2E2E2E2E2E2E2E2E2E2E2E2E2E2E2E2E2F5F5F5E2E2E2E2E2E2E2E2E2E2E2E2E2E2E2E2E2E2E2F5F5E2E2E2E2E2E2E2E2E2E2E2E2E2E2E2E2E2E2
310
E2E2E2E2E2E2E2E2E2E2E2E2E2E2E2E2E2E2E2E2E2E2E2E2E2E2E2E2E2E2E2E2E2E2E2E2E2E2E2E2E2E2E2E2E2E2E22828282828282828282828282828E2E2E2E2E2E2E2E2E2E2E2E2E2E2E2E2E2E2E2E2E2E2E2E2E2E2E2E2E2E2E2E2E2E2E2E2E2E2E2E2E2E2E2E2E2E2E2E2E2E2E2E2E2E2E2E2F5E2E2E2E2E2E2E2E2E2
310
E2E2E2E2E2E2E2E2E2E2E2F5F5F5E2E2E2E2E2E2E2E2E2E2E2E2E2E2E2E2E2E2E2F5F5E2E2E2E2E2E2E2E2E2E2E2E2E2E2E2E2E2E2E2E2E2E2E2E2E2E2E2E2E2E2E2E2E2E2E2E2E2E2E2E2E2E2E2E2E2E2E2E2E2E2E2E2E2E2E2E2E2E2E2E2E2E2E2E2E22828282828282828282828282828E2E2E2E2E2E2E2E2E2E2E2E2E2
310
E2E2E2E2E2E2E2E2E2E2E2E2E2E2E2E2E2E2E2E2E2E2E2E2E2E2E2E2E2E2E2E2E2E2E2E2E2E2E2E2E2E2E2F5E2E2E2E2E2E2E2E2E2E2E2E2E2E2E2E2E2E2E2E2F5F5F5E2E2E2E2E2E2E2E2E2E2E2E2E2E2E2E2E2E2E2F5F5E2E2E2E2E2E2E2E2E2E2E2E2E2E2E2E2E2E2E2E2E2E2E2E2E2E2E2E2E2E2E2E2E2E2E2E2E2E2E2
310
E2E2E2E2E2E2E2E2E2E2E2E2E2E2E2E2E2E2E2E2E2E2E2E2E2E2E2E2E2E2E2E2E2E2E2E2E2E2E2E2E2E2E2E2E2E2E2E2E2E2E2E2E2E2E2E2E2E2E2E2E2E2E2E2E2E2E2E2E2E2E2E2E2E2E2E2E2E2E2E2E2E2E2E2E2E2E2E2E2E2E2E2E2E2E2E2F5E2E2E2E2E2E2E2E2E2E2E2E2E2E2E2E2E2E2E2E2F5F5F5E2E2E2E2E2E2E2
310
E2E2E2E2E2E2E2E2E2E2E2E2F5F5E2E2E2E2E2E2E2E2E2E2E2E2E2E2E2E2E2E2E2E2E2E2E2E2E2E2E2E2E2E2E2E2E2E2E2E2E2E2E2E2E2E2E2E2E2E2E2E2E2E2E2E2E2E2E2E2E2E2E2E2E2E2E2E2E2E2E2E2E2E2E2E2E2E2E2E2E2E2E2E2E2E2E2E2E2E2E2E2E2E2E2E2E2E2E2E2E2E2E2E2E2E2E2E2E2E2E2E2E2E2E2E2E2
310
E2E2E2E2E2E2E2E2E2E2E2E2E2E2E2E2E2E2E2E2E2E2F5E2E2E2E2E2E2E2E2E2E2E2E2E2E2E2E2E2E2E2E2F5F5F5E2E2E2E2E2E2E2E2E2E2E2E2E2E2E2E2E2E2E2F5F5E2E2E2E2E2E2E2E2E2E2E2E2E2E2E2E2E2E2E2E2E2E2E2E2E2E2E2E2E2E2E2E2E2E2E2E2E2E2E2E2E2E2E2E2E2E2E2E2E2E2E2E2E2E2E2E2E2E2E2E2
310
E2E2E2E2E2E2E2E2E2E2E2E2E2E2E2E2E2E2E2E2E2E2E2E2E2E2E2E2E2E2E2E2E2E2E2E2E2E2E2E2E2E2E2E2E2E2E2E2E2E2E2E2E2E2E2E2E2E2E2E2E2E2E2E2E2E2E2E2E2E2E2E2E2E2E2F5E2E2E2E2E2E2E2E2E2E2E2E2E2E2E2E2E2E2E2E2F5F5F5E2E2F5E2E2E2E2E2E2E2E2E2E2E2E2E2E2E2E2F5F5E2E2E2E2E2E2E2
310
E2E2E2E2E2E2E2E2E2E2E2E2E2E2E2E2E2E2E2E2E2E2E2E2E2E2E2E2E2E2E2E2E2E2E2E2E2E2E2E2E2E2E2E2E2E2E2E2E2E2E2E2E2E2E2E2E2E2E2E2E2E2E2E2E2E2E2E2E2E2E2E2E2E2E2E2E2E2E2E2E2E2E2E2E2E2E2E2E2E2E2E2E2E2E2E2E2E2E2E2E2E2E2E2E2E2E2E2E2E2E2E2E2E2E2E2E2E2E2E2E2E2E2E2E2E2E2
310
E2F5E2E2E2E2E2E2E2E2E2E2E2E2E2E2E2E2E2F5E2E2F5F5F5E2E2F5E2E2E2E2E2E2E2E2E2E2E2E2E2E2E2E2F5F5E2E2E2E2E2E2E2E2E2E2E2E2E2E2E2E2E2E2E2E2E2E2E2E2E2E2E2E2E2E2E2E2E2E2E2E2E2E2E2E2E2E2E2E2E2E2E2E2E2E2E2E2E2E2E2E2E2E2E2E2E2E2E2E2E2E2E2E2E2E2E2E2E2E2E2E2E2E2E2E2E2
310
E2E2E2E2E2E2E2E2E2E2E2E2E2E2E2E2E2E2E2E2E2E2E2E2E2E2E2E2E2E2E2E2E2E2E2E2E2E2E2E2E2E2E2E2E2E2E2E2E2E2E2E2E2E2F5E2E2E2E2E2E2E2E2E2E2E2E2E2E2E2E2E2F5E2E2F5F5F5E2E2F5E2E2E2E2E2E2E2E2E2E2E2E2E2E2E2E2F5F5E2E2E2E2E2E2E2E2E2E2E2E2E2E2E2E2E2E2E2E2E2E2E2E2E2E2E2E2
310
E2E2E2E2E2E2E2E2E2E2E2E2E2E2E2E2E2E2E2E2E2E2E2E2E2E2E2E2E2E2E2E2E2E2E2E2E2E2E2E2E2E2E2E2E2E2E2E2E2E2E2E2E2E2E2E2E2E2E2E2E2E2E2E2E2E2E2E2E2E2E2E2E2E2E2E2E2E2E2E2E2E2E2E2E2E2E2E2E2E2E2E2E2E2E2E2E2E2E2E2E2E2E2E2E2E2E2F5E2E2E2E2E2E2E2E2E2E2E2E2E2E2E2E2E2F5E2
310
E2F5F5F5E2E2F5E2E2E2E2E2E2E2E2E2E2E2E2E2E2E2E2F5F5E2E2E2E2E2E2E2E2E2E2E2E2E2E2E2E2E2E2E2E2E2E2E2E2E2E2E2E2E2E2E2E2E2E2E2E2E2E2E2E2E2E2E2E2E2E2E2E2E2E2E2E2E2E2E2E2E2E2E2E2E2E2E2E2E2E2E2E2E2E2E2E2E2E2E2E2E2E2E2E2E2E2E2E2E2E2E2E2E2E2E2E2E2E2E2E2E2E2E2E2E2E2
310
E2E2E2E2E2E2E2E2E2E2E2E2E2E2E2E2E2E2E2E2E2E2E2E2E2E2E2E2E2E2E2E2E2F5E2E2E2E2E2E2E2E2E2E2E2E2E2E2E2E2E2F5E2E2F5F5F5E2E2F5E2E2E2E2E2E2E2E2E2E2E2E2E2E2E2E2F5F5E2E2E2E2E2E2E2E2E2E2E2E2E2E2E2E2E2E2E2E2E2E2E2E2E2E2E2E2E2E2E2E2E2E2E2E2E2E2E2E2E2E2E2E2E2E2E2E2E2
310
E2E2E2E2E2E2E2E2E2E2E2E2E2E2E2E2E2E2E2E2E2E2E2E2E2E2E2E2E2E2E2E2E2E2E2E2E2E2E2E2E2E2E2E2E2E2E2E2E2E2E2E2E2E2E2E2E2E2E2E2E2E2E2E2E2E2E2E2E2E2E2E2E2E2E2E2E2E2E2E2E2E2E2E2E2E2F5E2E2E2E2E2E2E2E2E2E2E2E2E2E2E2E2E2F5E2E2F5F5F5E2E2F5E2E2E2E2E2E2E2E2E2E2E2E2E2E2
310
E2E2F5F5E2E2E2E2E2E2E2E2E2E2E2E2E2E2E2E2E2E2E2E2E2E2E2E2E2E2E2E2E2E2E2E2E2E2E2E2E2E2E2E2E2E2E2E2E2E2E2E2E2E2E2E2E2E2E2E2E2E2E2E2E2E2E2E2E2E2E2E2E2E2E2E2E2E2E2E2E2E2E2E2E2E2E2E2E2E2E2E2E2E2E2E2E2E2E2E2E2E2E2E2E2E2E2E2E2E2E2E2E2E2E2E2E2E2E2E2E2E2E2E2E2E2E2
310
E2E2E2E2E2E2E2E2E2E2E2E2F5E2E2E2E2E2E2E2E2E2E2E2E2E2E2E2E2E2F5E2E2F5F5F5E2E2F5E2E2E2E2E2E2E2E2E2E2E2E2E2E2E2E2F5F5E2E2E2E2E2E2E2E2E2E2E2E2E2E2E2E2E2E2E2E2E2E2E2E2E2E2E2E2E2E2E2E2E2E2E2E2E2E2E2E2E2E2E2E2E2E2E2E2E2E2E2E2E2E2E2E2E2E2E2E2E2E2E2E2E2E2E2E2E2E2
310
E2E2E2E2E2E2E2E2E2E2E2E2E2E2E2E2E2E2E2E2E2E2E2E2E2E2E2E2E2E2E2E2E2E2E2E2E2E2E2E2E2E2E2E2E2E2E2E2E2E2E2E2E2E2E2E2E2E2E2E2E2E2E2E2E2F5E2E2E2E2E2E2E2E2E2E2E2E2E2E2E2E2E2F5E2E2F5F5F5E2E2F5E2E2E2E2E2E2E2E2E2E2E2E2E2E2E2E2F5F5E2E2F5F5F5F5F5F5F5F5F5F5F5F5F5F5F5
310
F5F5F5E2F5F5F5F5F5F5F5F5F5F5F5E2E2E2E2E2E2E2E2E2E2E2E2E2E2E2E2E2E2E2E2E2E2E2E2E2E2E2E2E2E2E2E2E2E2E2E2E2E2E2E2E2E2E2E2E2E2E2E2E2E2E2E2E2E2E2E2E2E2E2E2E2E2E2E2E2E2E2E2E2E2E2E2E2E2E2E2E2E2E2E2E2E2E2E2E2E2E2E2E2E2E2E2E2E2E2E2E2E2E2E2E2E2E2F5E2E2E2E2E2E2E2E2
310
E2E2E2E2E2E2E2E2E2F5E2E2F5F5F5E2E2F5E2E2E2E2E2E2E2E2E2E2E2E2E2E2E2E2F5F5E2E2F5F5F5F5E2F5F5F5F5F5F5E2F5F5F5F5F5F5E2F5F5F5F5F5F5F5F5F5F5F5E2E2E2E2E2E2E2E2E2E2E2E2E2E2E2E2E2E2E2E2E2E2E2E2E2E2E2E2E2E2E2E2E2E2E2E2E2E2E2E2E2E2E2E2E2E2E2E2E2E2E2E2E2E2E2E2E2E2E2
310
E2E2E2E2E2E2E2E2E2E2E2E2E2E2E2E2E2E2E2E2E2E2E2E2E2E2E2E2E2E2E2E2E2E2E2E2E2E2E2E2E2E2E2E2F5E2E2E2E2E2E2E2E2E2E2E2E2E2E2E2E2E2F5E2E2F5F5F5E2E2F5E2E2E2E2E2E2E2E2E2E2E2E2E2E2E2E2F5F5E2E2F5F5E2F5F5F5F5F5E2F5F5F5F5F5F5F5F5F5E2F5F5F5F5F5F5F5F5F5F5F5E2E2E2E2E2E2
310
E2E2E2E2E2E2E2E2E2E2E2E2E2E2E2E2E2E2E2E2E2E2E2E2E2E2E2E2E2E2E2E2E2E2E2E2E2E2E2E2E2E2E2E2E2E2E2E2E2E2E2E2E2E2E2E2E2E2E2E2E2E2E2E2E2E2E2E2E2E2E2E2E2E2E2E2E2E2E2E2E2E2E2E2E2E2E2E2E2E2E2E2E2E2E2E2E2F5E2E2E2E2E2E2E2E2E2E2E2E2E2E2E2E2E2F5E2E2F5F5F5E2E2F5E2E2E2
310
E2E2E2E2E2E2E2E2E2E2E2E2E2F5F5E2E2F5F5F5F5F5F5F5F5F5F5F5F5F5F5F5F5F5F5F5F5F5F5F5F5F5F5F5F5E2E2E2E2E2E2E2E2E2E2E2E2E2E2E2E2E2E2E2E2E2E2E2E2E2E2E2E2E2E2E2E2E2E2E2E2E2E2E2E2E2E2E2E2E2E2E2E2E2E2E2E2E2E2E2E2E2E2E2E2E2E2E2E2E2E2E2E2E2E2E2E2E2E2E2E2E2E2E2E2E2E2
310
E2E2E2E2E2E2E2E2E2E2E2E2E2E2E2E2E2E2E2E2E2E2E2F5E2E2E2E2E2E2E2E2E2E2E2E2E2E2E2E2E2F5E2E2F5F5F5E2E2F5E2E2E2E2E2E2E2E2E2E2E2E2E2E2E2E2F5F5E2E2F5F5F5F5F5F5F5E2F5F5F5F5F5F5F5F5F5F5F5F5F5F5F5F5F5F5F5F5E2E2E2E2E2E2E2E2E2E2E2E2E2E2E2E2E2E2E2E2E2E2E2E2E2E2E2E2E2
310
E2E2E2E2E2E2E2E2E2E2E2E2E2E2E2E2E2E2E2E2E2E2E2E2E2E2E2E2E2E2E2E2E2E2E2E2E2E2E2E2E2E2E2E2E2E2E2E2E2E2E2E2E2E2E2E2E2E2E2E2E2E2E2E2E2E2E2E2E2E2E2E2E2E2E2E2F5E2E2E2E2E2E2E2E2E2E2E2E2E2E2E2E2E2F5E2E2F5F5F5E2E2F5E2E2E2E2E2E2E2E2E2E2E2E2E2E2E2E2F5F5E2E2E2E2E2E2
310
E2E2E2E2E2E2E2E2E2E2E2E2E2E2E2E2E2E2E2E2E2E2E2E2E2E2E2E2E2E2E2E2E2E2E2E2E2E2E2E2E2E2E2E2E2E2E2E2E2E2E2E2E2E2E2E2E2E2E2E2E2E2E2E2E2E2E2E2E2E2E2E2E2E2E2E2E2E2E2E2E2E2E2E2E2E2E2E2E2E2E2E2E2E2E2E2E2E2E2E2E2E2E2E2E2E2E2E2E2E2E2E2E2E2E2E2E2E2E2E2E2E2E2E2E2E2E2
310
E2E2F5E2E2E2E2E2E2E2E2E2E2E2E2E2E2E2E2E2F5E2E2F5F5F5E2E2F5E2E2E2E2E2E2E2E2E2E2E2E2E2E2E2E2F5F5E2E2E2E2E2E2E2E2E2E2E2E2E2E2E2E2E2E2E2E2E2E2E2E2E2E2E2E2E2E2E2E2E2E2E2E2E2E2E2E2E2E2E2E2E2E2E2E2E2E2E2E2E2E2E2E2E2E2E2E2E2E2E2E2E2E2E2E2E2E2E2E2E2E2E2E2E2E2E2E2
310
E2E2E2E2E2E2E2E2E2E2E2E2E2E2E2E2E2E2E2E2E2E2E2E2E2E2E2E2E2E2E2E2E2E2E2E2E2E2E2E2E2E2E2E2E2E2E2E2E2E2E2E2E2E2E2F5E2E2E2E2E2E2E2E2E2E2E2E2E2E2E2E2E2F5E2E2F5F5F5E2E2F5E2E2E2E2E2E2E2E2E2E2E2E2E2E2E2E2F5F5F5F5F5F5F5F5F5F5F5F5F5F5F5F5F5F5F5F5F5F5F5F5F5F5F5F5F5
310
E2E2E2E2E2E2E2E2E2E2E2E2E2E2E2E2E2E2E2E2E2E2E2E2E2E2E2E2E2E2E2E2E2E2E2E2E2E2E2E2E2E2E2E2E2E2E2E2E2E2E2E2E2E2E2E2E2E2E2E2E2E2E2E2E2E2E2E2E2E2E2E2E2E2E2E2E2E2E2E2E2F5F5F5F5F5F5F5F5F5F5F5F5F5F5F5F5F5F5F5F5F5F5F5F5F5F5F5F5E2E2E2E2E2E2E2E2E2E2E2E2E2E2E2E2E2F5
310
E2E2F5F5F5E2E2E2E2E2E2E2E2E2E2E2E2E2E2E2E2E2E2E2F5F5E2F5F5F5F5F5F5F5F5F5F5F5E2F5F5F5F5F5F5F5F5F5F5F5E2F5F5E2E2E2E2E2E2E2E2E2E2E2E2E2E2E2E2E2E2E2E2E2E2E2E2E2E2E2E2E2E2E2E2E2E2E2E2E2E2E2E2E2E2E2E2E2E2E2E2E2E2E2E2E2E2E2E2E2E2E2E2E2E2E2E2E2E2E2E2E2E2E2E2E2E2
310
E2E2E2E2E2E2E2F5E2E2E2E2E2E2F5E2F5F5F5F5E2E2F5F5E2F5E2E2E2E2E2E2E2E2F5E2E2E2E2E2E2E2E2E2E2E2E2E2E2E2E2E2E2E2E2F5F5F5E2E2E2E2E2E2E2E2E2E2E2E2E2E2E2E2E2E2E2F5F5E2F5F5F5F5F5E2F5F5F5F5F5E2F5F5F5F5E2F5F5F5F5F5F5F5F5F5E2E2E2E2E2E2E2E2E2E2E2E2E2E2E2E2E2E2E2E2E2
310
E2E2E2E2E2E2E2E2E2E2E2E2E2E2E2E2E2E2E2E2E2E2E2E2E2E2E2E2E2E2E2E2E2E2E2E2E2E2E2E2E2E2E2E2E2E2E2E2E2E2E2E2E2E2E2E2E2E2E2E2F5E2E2E2E2E2E2F5F5F5F5F5E2E2E2F5E2E2F5E2E2E2E2E2E2E2E2F5E2E2E2E2E2E2E2E2E2E2E2E2E2E2E2E2E2E2E2E2F5F5F5E2E2E2E2E2E2E2E2E2E2E2E2E2E2E2E2
310
E2E2E2F5F5E2F5F5F5F5F5E2F5F5F5F5F5E2F5F5F5F5E2F5F5F5F5F5F5F5E2F5E2E2E2E2E2E2E2E2E2E2E2E2E2E2E2E2E2E2E2E2E2E2E2E2E2E2E2E2E2E2E2E2E2E2E2E2E2E2E2E2E2E2E2E2E2E2E2E2E2E2E2E2E2E2E2E2E2E2E2E2E2E2E2E2E2E2E2E2E2E2E2E2E2E2E2E2E2E2E2E2E2F5E2E2E2E2E2E2F5F5E2E2E2E2E2
310
E2F5E2E2F5E2E2E2E2E2E2E2E2F5E2E2E2E2E2E2E2E2E2E2E2E2E2E2E2E2E2E2E2E2F5F5F5E2E2E2E2E2E2E2E2E2E2E2E2E2E2E2E2E2E2E2F5F5F5F5F5F5F5F5F5F5F5F5F5F5F5F5F5F5F5F5F5F5F5F5F5F5F5F5F5F5F5F5F5F5F5F5F5F5F5F5F5F5F5F5F5F5F5F5F5F5F5F5F5F5F5F5F5F5F5F5F5F5F5F5F5F5F5F5F5F5F5
310
F5F5F5F5F5F5F5F5F5F5F5F5F5F5F5F5F5F5F5F5F5F5F5F5F5F5F5F5F5F5F5F5F5F5F5F5F5F5F5F5F5F5F5F5F5F5F5F5F5F5F5F5F5F5F5F5F5F5F5F5F5F5F5F5F5F5F5E2E2E2E2E2E2E2E2E2E2E2E2E2E2E2E2E2E2E2E2F5F5F5E2E2E2E2E2E2E2E2E2E2E2E2E2E2E2E2E2E2E2F5F5F5F5F5F5F5F5F5F5F5F5F5F5F5F5F5F5
310
F5F5F5F5F5F5F5F5F5F5F5F5F5F5F5F5F5F5F5F5F5F5F5F5F5F5F5F5F5F5F5F5F5F5F5F5F5F5F5F5F5F5F5F5F5F5F5F5F5F5F5F5F5F5F5F5F5F5F5F5F5F5F5F5F5F5F5F5F5F5F5F5F5F5F5F5F5F5F5F5F5F5F5F5F5F5F5F5F5F5F5F5F5F5F5F5F5F5F5F5F5F5F5F5F5F5F5F5F5F5F5F5F5F5F5F5F5F5F5F5E2E2E2E2E2E2E2
310
E2E2E2E2E2E2E2E2E2E2E2E2E2F5F5F5E2E2E2E2E2E2E2E2E2E2E2E2E2E2E2E2E2E2E2E2E2E2E2E2E2E2E2E2E2E2E2E2E2E2E2E2E2E2E2E2E2E2E2E2E2E2E2E2E2E2E2E2E2E2E2E2E2E2E2E2E2E2E2E2E2E2E2E2E2E2E2E2E2E2E2E2E2E2E2E2E2E2E2E2E2E2E2E2E2E2E2E2E2E2E2E2E2E2E2E2E2E2E2E2E2E2E2E2E2E2E2
310
E2E2E2E2E2E2E2E2E2E2E2E2E2E2E2E2E2E2E2E2E2E2E2E2E2E2E2E2E2E2E2E2E2E2E2E2E2E2E2E2E2E2E2E2E2E2E2E2E2E2E2E2E2E2E2E2E2E2E2E2E2E2E2E2E2E2F5F5F5E2E2E2E2E2E2E2E2E2E2E2E2E2E2E2E2E2E2E2E2E2E2E2E2E2E2E2E2E2E2E2E2E2E2E2E2E2E2E2E2E2E2E2E2E2E2E2E2E2E2E2E2E2E2E2E2E2E2
310
E2E2E2E2E2E2E2E2E2E2E2E2E2E2E2E2E2E2E2E2E2E2E2E2E2E2E2E2E2E2E2E2E2E2E2E2E2E2E2E2E2E2E2E2E2E2E2E2E2E2E2E2E2E2E2E2E2E2E2E2E2E2E2E2E2E2E2E2E2E2E2E2E2E2E2E2E2E2E2E2E2E2E2E2E2E2E2E2E2E2E2E2E2E2E2E2E2E2E2E2E2E2E2E2E2E2E2E2E2E2E2E2E2E2E2E2E2E2E2F5F5F5E2E2E2E2E2
310
E2E2E2E2E2E2E2E2E2E2E2E2E2E2E2E2E2E2E2E2E2E2E2E2E2E2E2E2E2E2E2E2E2E2E2E2E2E2E2E2E2E2E2E2E2E2E2E2E2E2E2E2E2E2E2E2E2E2E2E2E2E2E2E2E2E2E2E2E2E2E2E2E2E2E2E2E2E2E2E2E2E2E2E2E2E2E2E2E2E2E2E2E2E2E2E2E2E2E2E2E2E2E2E2E2E2E2E2E2E2E2E2E2E2E2E2E2E2E2E2E2E2E2E2E2E2E2
310
E2E2E2E2E2E2E2E2E2E2E2E2E2E2E2E2E2E2E2E2E2E2E2E2E2E2E2E2E2E2E2E2E2E2E2E2E2E2E2E2E2E2E2E2E2F5F5F5E2E2E2E2E2E2E2E2E2E2E2E2E2E2E2E2E2E2E2E2E2E2E2E2E2E2E2E2E2E2E2E2E2E2E2E2E2E2E2E2E2E2E2E2E2E2E2E2E2E2E2E2E2E2E2E2E2E2E2E2E2E2E2E2E2E2E2E2E2E2E2E2E2E2E2E2E2E2E2
310
E2E2E2E2E2E2E2E2E2E2E2E2E2E2E2E2E2E2E2E2E2E2E2E2E2E2E2E2E2E2E2E2E2E2E2E2E2E2E2E2E2E2E2E2E2E2E2E2E2E2E2E2E2E2E2E2E2E2E2E2E2E2E2E2E2E2E2E2E2E2E2E2E2E2E2E2E2E2E2E2E2E2E2E2E2E2E2E2E2E2E2E2E2E2E2E2E2E2F5F5F5E2E2F5E2E2E2E2E2E2E2E2E2E2E2E2E2E2E2E2E2E2E2E2E2E2E2
310
E2E2E2E2E2E2E2E2E2E2E2E2E2E2E2E2E2E2E2E2E2E2E2E2E2E2E2E2E2E2E2E2E2E2E2E2E2E2E2E2E2E2E2E2E2E2E2E2E2E2E2E2E2E2E2E2E2E2E2E2E2E2E2E2E2E2E2E2E2E2E2E2E2E2E2E2E2E2E2E2E2E2E2E2E2E2E2E2E2E2E2E2E2E2E2E2E2E2E2E2E2E2E2E2E2E2E2E2E2E2E2E2E2E2E2E2E2E2E2E2E2E2E2E2E2E2E2
310
E2E2E2E2E2E2E2E2E2E2E2E2E2E2E2E2E2E2E2E2E2F5E2E2F5F5F5E2E2F5E2E2E2E2E2E2E2E2E2E2E2E2E2E2E2E2E2E2E2E2E2E2E2E2E2E2E2E2E2E2E2E2E2E2E2E2E2E2E2E2E2E2E2E2E2E2E2E2E2E2E2E2E2E2E2E2E2E2E2E2E2E2E2E2E2E2E2E2E2E2E2E2E2E2E2E2E2E2E2E2E2E2E2E2E2E2E2E2E2E2E2E2E2E2E2E2E2
310
E2E2E2E2E2E2E2E2E2E2E2E2E2E2E2E2E2E2E2E2E2E2E2E2E2E2E2E2E2E2E2E2E2E2E2E2E2E2E2E2E2E2E2E2E2E2E2E2E2E2E2E2E2E2E2E2E2E2E2E2E2E2E2E2E2E2E2E2E2E2E2E2E2E2F5E2E2F5F5F5E2E2F5E2E2E2E2E2E2E2E2E2E2E2E2E2E2E2E2E2E2E2E2E2E2E2E2E2E2E2E2E2E2E2E2E2E2E2E2E2E2E2E2E2E2E2E2
310
E2E2E2E2E2E2E2E2E2E2E2E2E2E2E2E2E2E2E2E2E2E2E2E2E2E2E2E2E2E2E2E2E2E2E2E2E2E2E2E2E2E2E2E2E2E2E2E2E2E2E2E2E2E2E2E2E2E2E2E2E2E2E2E2E2E2E2E2E2E2E2E2E2E2E2E2E2E2E2E2E2E2E2E2E2E2E2E2E2E2E2E2E2E2E2E2E2E2E2E2E2E2E2E2E2E2E2E2E2E2E2E2E2E2E2E2E2E2E2E2E2E2E2E2E2E2E2
310
F5E2E2F5F5F5E2E2F5E2E2E2E2E2E2E2E2E2E2E2E2E2E2E2E2E2E2E2E2E2E2E2E2E2E2E2E2E2E2E2E2E2E2E2E2E2E2E2E2E2E2E2E2E2E2E2E2E2E2E2E2E2E2E2E2E2E2E2E2E2E2E2E2E2E2E2E2E2E2E2E2E2E2E2E2E2E2E2E2E2E2E2E2E2E2E2E2E2E2E2E2E2E2E2E2E2E2E2E2E2E2E2E2E2E2E2E2E2E2E2E2E2E2E2E2E2E2
310
E2E2E2E2E2E2E2E2E2E2E2E2E2E2E2E2E2E2E2E2E2E2E2E2E2E2E2E2E2E2E2E2E2E2E2E2E2E2E2E2E2E2E2E2E2E2E2E2E2E2E2E2E2F5E2E2F5F5F5E2E2F5E2E2E2E2E2E2E2E2E2E2E2E2E2E2E2E2E2E2E2E2E2E2E2E2E2E2E2E2E2E2E2E2E2E2E2E2E2E2E2E2E2E2E2E2E2E2E2E2E2E2E2E2E2E2E2E2E2E2E2E2E2E2E2E2E2
310
E2E2E2E2E2E2E2E2E2E2E2E2E2E2E2E2E2E2E2E2E2E2E2E2E2E2E2E2E2E2E2E2E2E2E2E2E2E2E2E2E2E2E2E2E2E2E2E2E2E2E2E2E2E2E2E2E2E2E2E2E2E2E2E2E2E2E2E2E2E2E2E2E2E2E2E2E2E2E2E2E2E2E2E2E2E2E2E2E2E2E2E2E2E2E2E2E2E2E2E2E2E2E2E2E2E2F5E2E2F5F5F5E2E2F5E2E2E2E2E2E2E2E2E2E2E2E2
310
E2E2E2E2E2E2E2E2E2E2E2E2E2E2E2E2E2E2E2E2E2E2E2E2E2E2E2E2E2E2E2E2E2E2E2E2E2E2E2E2E2E2E2E2E2E2E2E2E2E2E2E2E2E2E2E2E2E2E2E2E2E2E2E2E2E2E2E2E2E2E2E2E2E2E2E2E2E2E2E2E2E2E2E2E2E2E2E2E2E2E2E2E2E2E2E2E2E2E2E2E2E2E2E2E2E2E2E2E2E2E2E2E2E2E2E2E2E2E2E2E2E2E2E2E2E2E2
310
E2E2E2E2E2E2E2E2E2E2E2E2E2E2E2E2E2E2E2E2E2E2E2E2E2E2E2E2E2E2E2E2F5E2E2F5F5F5E2E2F5E2E2E2E2E2E2E2E2E2E2E2E2E2E2E2E2E2E2E2E2E2E2E2E2E2E2E2E2E2E2E2E2E2E2E2E2E2E2E2E2E2E2E2E2E2E2E2E2E2E2E2E2E2E2E2E2E2E2E2E2E2E2E2E2E2E2E2E2E2E2E2E2E2E2E2E2E2E2E2E2E2E2E2E2E2E2
310
E2E2E2E2E2E2E2E2E2E2E2E2E2E2E2E2E2E2E2E2E2E2E2E2E2E2E2E2E2E2E2E2E2E2E2E2E2E2E2E2E2E2E2E2E2E2E2E2E2E2E2E2E2E2E2E2E2E2E2E2E2E2E2E2E2E2E2E2E2E2E2E2E2E2E2E2E2E2E2E2E2E2E2E2E2F5E2E2F5F5F5E2E2F5F5F5F5F5F5F5F5E2E2E2E2E2E2E2E2E2F5F5F5F5F5F5F5F5F5F5F5F5F5F5F5F5E2
310
E2E2E2E2E2E2E2E2F5F5F5F5F5F5F5F5F5F5F5F5F5F5F5F5E2E2E2E2E2E2E2E2F5F5F5F5F5F5F5F5F5F5F5F5F5F5F5F5E2E2E2E2E2E2E2E2E2F5F5F5F5F5F5F5F5F5F5F5F5F5F5F5F5E2E2E2E2E2E2E2E2F5F5F5F5F5F5F5F5F5F5F5F5F5F5F5F5E2E2E2E2E2E2E2E2E2F5F5F5F5F5F5F5F5F5F5F5F5F5F5F5F5E2E2E2E2E2
310
E2E2E2E2F5F5F5F5F5F5F5F5E2E2F5F5F5E2E2E2E2E2E2E2E2E2E2E2E2E2E2E2E2E2E2E2E2E2E2E2E2E2E2E2E2E2E2E2E2E2E2E2E2E2E2E2E2E2E2E2E2E2E2E2E2E2E2E2E2E2E2E2E2E2E2E2E2E2E2E2E2E2E2E2E2E2E2E2E2E2E2E2E2E2E2E2E2E2E2E2E2E2E2E2E2E2E2E2E2E2E2E2E2E2E2E2E2E2E2E2E2E2E2E2E2E2E2
310
E2E2E2E2E2E2E2E2E2E2E2E2E2E2E2E2E2E2E2E2E2E2E2E2E2E2E2E2E2E2E2E2E2E2E2E2E2E2E2E2E2E2E2E2E2E2E2E2E2E2E2E2E2E2E2E2E2E2E2E2E2E2E2E2E2E2E2F5F5F5E2E2E2E2E2E2E2E2E2E2E2E2E2E2E2E2E2E2E2E2E2E2E2E2E2E2E2E2E2E2E2E2E2E2E2E2E2E2E2E2E2E2E2E2E2E2E2E2E2E2E2E2E2E2E2E2E2
310
E2E2E2E2E2E2E2E2E2E2E2E2E2E2E2E2E2E2E2E2E2E2E2E2E2E2E2E2E2E2E2E2E2E2E2E2E2E2E2E2E2E2E2E2E2E2E2E2E2E2E2E2E2E2E2E2E2E2E2E2E2E2E2E2E2E2E2E2E2E2E2E2E2E2E2E2E2E2E2E2E2E2E2E2E2E2E2E2E2E2E2E2E2E2E2E2E2E2E2E2E2E2E2E2E2E2E2E2E2E2E2E2E2E2E2E2E2E2E2E2F5EFF5F5F5F5F5
310
F5F5F5F5F5F5F5F5F5F5F5F5F5F5F5F5F5F5F5F5F5F5F5F5F5F5F5F5F5F5F5F5F5F5F5F5F5F5F5F5F5F5F5F5F5F5F5F5F5F5F5F5F5F5F5F5F5F5F5F5F5F5F5F5F5F5F5F5F5F5F5F5F5F5F5F5F5F5F5F5F5F5F5F5F5F5F5F5F5F5F5F5F5F5F5F5F5F5F5F5F5F5F5F5F5F5F5F5F5F5F5F5F5F5F5F5F5F5F5F5F5F5F5F5F5F5F5
310
F5F5F5F5F5F5F5F5F5F5F5F5F5F5F5F5F5F5F5F5F5F5F5F5F5F5F5F5F5F5F5F5F5F5F5F5F5F5F5F5F5F5F5F5F5F5F5EF
  0
ENDSEC
  0
EOF
