  0
SECTION
  2
HEADER
  0
ENDSEC
  0
SECTION
  2
TABLES
  0
TABLE
  2
LTYPE
 70
     4
  0
LTYPE
  2
CONTINUOUS
 70
    64
  3
Solid line
 72
    65
 73
     0
 40
0.000000
  0
LTYPE
  2
DASHED
 70
    64
  3
__ __ __ __ __ __ __ __ __ __ __ __ __ __ __
 72
    65
 73
     2
 40
3.500000
 49
2.000000
 49
-1.500000
  0
LTYPE
  2
CENTER
 70
    64
  3
____ _ ____ _ ____ _ ____ _ ____ _ ____ _ ____
 72
    65
 73
     4
 40
17.500000
 49
13.000000
 49
-1.500000
 49
1.500000
 49
-1.500000
  0
LTYPE
  2
PHANTOM
 70
    64
  3
_____ _ _ _____ _ _ _____ _ _ _____ _ _ ____  
 72
    65
 73
     6
 40
15.500000
 49
8.000000
 49
-1.500000
 49
1.500000
 49
-1.500000
 49
1.500000
 49
-1.500000
  0
LTYPE
  2
DASHED1
 70
    64
  3
__ __ __ __ __ __ __ __ __ __ __ __ __ __ __
 72
    65
 73
     2
 40
1.500000
 49
1.000000
 49
-0.500000
  0
LTYPE
  2
DASHED2
 70
    64
  3
__ __ __ __ __ __ __ __ __ __ __ __ __ __ __
 72
    65
 73
     2
 40
3.500000
 49
2.500000
 49
-1.000000
  0
LTYPE
  2
DASHED3
 70
    64
  3
__ __ __ __ __ __ __ __ __ __ __ __ __ __ __
 72
    65
 73
     2
 40
6.000000
 49
4.000000
 49
-2.000000
  0
LTYPE
  2
DASHED4
 70
    64
  3
__ __ __ __ __ __ __ __ __ __ __ __ __ __ __
 72
    65
 73
     2
 40
12.000000
 49
10.000000
 49
-2.000000
  0
LTYPE
  2
DASHED5
 70
    64
  3
__ __ __ __ __ __ __ __ __ __ __ __ __ __ __
 72
    65
 73
     2
 40
17.000000
 49
15.000000
 49
-2.000000
  0
LTYPE
  2
DASHED6
 70
    64
  3
__ __ __ __ __ __ __ __ __ __ __ __ __ __ __
 72
    65
 73
     2
 40
29.000000
 49
27.000000
 49
-2.000000
  0
LTYPE
  2
PHANTOM1
 70
    64
  3
_____ _ _ _____ _ _ _____ _ _ _____ _ _ ____  
 72
    65
 73
     6
 40
31.000000
 49
25.000000
 49
-1.500000
 49
1.000000
 49
-1.000000
 49
1.000000
 49
-1.500000
  0
LTYPE
  2
PHANTOM2
 70
    64
  3
_____ _ _ _____ _ _ _____ _ _ _____ _ _ ____  
 72
    65
 73
     6
 40
36.000000
 49
27.000000
 49
-1.500000
 49
2.500000
 49
-1.000000
 49
2.500000
 49
-1.500000
  0
LTYPE
  2
PHANTOM3
 70
    64
  3
_____ _ _ _____ _ _ _____ _ _ _____ _ _ ____  
 72
    65
 73
     6
 40
78.000000
 49
64.000000
 49
-2.000000
 49
4.000000
 49
-2.000000
 49
4.000000
 49
-2.000000
  0
LTYPE
  2
CENTER1
 70
    64
  3
____ _ ____ _ ____ _ ____ _ ____ _ ____ _ ____
 72
    65
 73
     4
 40
19.000000
 49
14.000000
 49
-1.000000
 49
3.000000
 49
-1.000000
  0
LTYPE
  2
CENTER2
 70
    64
  3
____ _ ____ _ ____ _ ____ _ ____ _ ____ _ ____
 72
    65
 73
     4
 40
28.500000
 49
25.000000
 49
-1.000000
 49
1.500000
 49
-1.000000
  0
LTYPE
  2
CENTER3
 70
    64
  3
____ _ ____ _ ____ _ ____ _ ____ _ ____ _ ____
 72
    65
 73
     4
 40
31.500000
 49
27.000000
 49
-1.000000
 49
2.500000
 49
-1.000000
  0
LTYPE
  2
CENTER4
 70
    64
  3
____ _ ____ _ ____ _ ____ _ ____ _ ____ _ ____
 72
    65
 73
     4
 40
50.000000
 49
45.000000
 49
-1.000000
 49
3.000000
 49
-1.000000
  0
LTYPE
  2
CENTER5
 70
    64
  3
____ _ ____ _ ____ _ ____ _ ____ _ ____ _ ____
 72
    65
 73
     4
 40
100.000000
 49
92.000000
 49
-2.000000
 49
4.000000
 49
-2.000000
  0
LTYPE
  2
SBK1
 70
    64
  3
______ _ _ _ ______ _ _ _ ______ _ _ _ _____  
 72
    65
 73
     8
 40
60.500000
 49
45.000000
 49
-2.000000
 49
2.500000
 49
-2.000000
 49
2.500000
 49
-2.000000
 49
2.500000
 49
-2.000000
  0
LTYPE
  2
SBK2
 70
    64
  3
______ _ _ _ ______ _ _ _ ______ _ _ _ _____  
 72
    65
 73
     8
 40
84.000000
 49
64.000000
 49
-2.000000
 49
4.000000
 49
-2.000000
 49
4.000000
 49
-2.000000
 49
4.000000
 49
-2.000000
  0
LTYPE
  2
STCH
 70
    64
  3
__ __ __ __ __ __ __ __ __ __ __ __ __ __ __
 72
    65
 73
     2
 40
3.000000
 49
1.000000
 49
-2.000000
  0
LTYPE
  2
MTCH
 70
    64
  3
_____ _ _ _____ _ _ _____ _ _ _____ _ _ ____  
 72
    65
 73
     6
 40
80.000000
 49
66.000000
 49
-2.000000
 49
4.000000
 49
-2.000000
 49
4.000000
 49
-2.000000
  0
ENDTAB
  0
TABLE
  2
LAYER
 70
     1
  0
LAYER
  2
0
 70
     0
 62
     7
  6
CONTINUOUS
  0
ENDTAB
  0
TABLE
  2
STYLE
 70
     1
  0
STYLE
  2
STANDARD
 70
     0
 40
0.000000
 41
1.000000
 50
0.000000
 71
     0
 42
0.200000
  3
txt
  4
BIGFONT
  0
ENDTAB
  0
TABLE
  2
VIEW
 70
     0
  0
ENDTAB
  0
ENDSEC
  0
SECTION
  2
BLOCKS
  0
ENDSEC
  0
SECTION
  2
ENTITIES
  0
LINE
  8
0
 10
-147.558594
 20
-60.895096
 11
-147.558594
 21
-88.895081
  0
LINE
  8
0
 10
162.431396
 20
-88.895081
 11
162.431396
 21
-60.895096
  0
LINE
  8
0
  6
CENTER
 62
     2
 10
-67.568604
 20
-51.925095
 11
-67.568604
 21
-92.925079
  0
LINE
  8
0
 10
-136.558594
 20
-60.895096
 11
-136.558594
 21
-88.895081
  0
LINE
  8
0
 10
151.431396
 20
-60.895096
 11
151.431396
 21
-88.895081
  0
LINE
  8
0
 62
     4
 10
81.656395
 20
-71.125076
 11
83.206398
 21
-72.665085
  0
LINE
  8
0
 62
     4
 10
81.656403
 20
-72.665092
 11
83.206406
 21
-71.125092
  0
LINE
  8
0
 62
     4
 10
101.936401
 20
-70.705093
 11
107.991318
 21
-70.705093
  0
LINE
  8
0
 62
     4
 10
101.936401
 20
-73.085083
 11
107.991318
 21
-73.085083
  0
LINE
  8
0
 62
     4
 10
100.436394
 20
-70.295074
 11
101.936394
 21
-70.705078
  0
LINE
  8
0
 62
     4
 10
100.436401
 20
-73.495079
 11
101.936401
 21
-73.085083
  0
LINE
  8
0
 62
     4
 10
101.936401
 20
-73.085083
 11
101.936401
 21
-70.705093
  0
LINE
  8
0
 62
     4
 10
100.436401
 20
-73.495079
 11
100.436401
 21
-70.295090
  0
LINE
  8
0
 62
     4
 10
85.436401
 20
-73.495079
 11
85.436401
 21
-70.295090
  0
LINE
  8
0
 62
     4
 10
79.436401
 20
-73.495079
 11
79.436401
 21
-70.295090
  0
LINE
  8
0
 62
     4
 10
-68.343605
 20
-71.125076
 11
-66.793610
 21
-72.665077
  0
LINE
  8
0
 62
     4
 10
-68.343605
 20
-72.665077
 11
-66.793610
 21
-71.125076
  0
LINE
  8
0
 62
     4
 10
-48.063599
 20
-70.705093
 11
-42.008606
 21
-70.705093
  0
LINE
  8
0
 62
     4
 10
-48.063599
 20
-73.085083
 11
-42.008606
 21
-73.085083
  0
LINE
  8
0
 62
     4
 10
-49.563610
 20
-70.295074
 11
-48.063595
 21
-70.705078
  0
LINE
  8
0
 62
     4
 10
-49.563606
 20
-73.495087
 11
-48.063610
 21
-73.085083
  0
LINE
  8
0
 62
     4
 10
-48.063599
 20
-73.085083
 11
-48.063599
 21
-70.705093
  0
LINE
  8
0
 62
     4
 10
-49.563599
 20
-73.495079
 11
-49.563599
 21
-70.295090
  0
LINE
  8
0
 62
     4
 10
-64.563599
 20
-73.495079
 11
-64.563599
 21
-70.295090
  0
LINE
  8
0
 62
     4
 10
-70.563599
 20
-73.495079
 11
-70.563599
 21
-70.295090
  0
LINE
  8
0
 10
101.431396
 20
-66.145096
 11
104.931396
 21
-66.145096
  0
LINE
  8
0
 10
104.931396
 20
-66.145096
 11
104.931396
 21
-67.395096
  0
LINE
  8
0
 10
151.431396
 20
-80.395081
 11
162.431396
 21
-80.395081
  0
LINE
  8
0
 10
-136.558594
 20
-80.395081
 11
-147.558594
 21
-80.395081
  0
LINE
  8
0
 10
151.431396
 20
-60.895096
 11
162.431396
 21
-60.895096
  0
LINE
  8
0
 10
-147.558594
 20
-60.895096
 11
-136.558594
 21
-60.895096
  0
LINE
  8
0
 10
138.431396
 20
-60.895096
 11
138.431396
 21
-62.395096
  0
LINE
  8
0
 10
138.431396
 20
-60.895096
 11
145.431396
 21
-60.895096
  0
LINE
  8
0
 10
145.431396
 20
-60.895096
 11
145.431396
 21
-62.395096
  0
LINE
  8
0
 10
-130.558594
 20
-60.895096
 11
-130.558594
 21
-62.395096
  0
LINE
  8
0
 10
-130.558594
 20
-60.895096
 11
-123.558594
 21
-60.895096
  0
LINE
  8
0
 10
-123.558594
 20
-60.895096
 11
-123.558594
 21
-62.395096
  0
LINE
  8
0
 10
101.431396
 20
-66.145096
 11
101.431396
 21
-67.395096
  0
LINE
  8
0
 10
105.681396
 20
-65.395096
 11
105.681396
 21
-67.395096
  0
LINE
  8
0
 10
104.931404
 20
-66.145081
 11
105.681396
 21
-65.395088
  0
LINE
  8
0
 62
     2
 10
132.431396
 20
-66.145096
 11
104.931396
 21
-66.145096
  0
LINE
  8
0
 10
132.431396
 20
-65.395096
 11
105.681396
 21
-65.395096
  0
LINE
  8
0
 10
132.431396
 20
-62.395096
 11
132.431396
 21
-67.395096
  0
LINE
  8
0
 10
132.431396
 20
-62.395096
 11
151.431396
 21
-62.395096
  0
LINE
  8
0
 62
     2
 10
-117.558594
 20
-66.145096
 11
-112.558594
 21
-66.145096
  0
LINE
  8
0
 10
-117.558594
 20
-65.395096
 11
-112.558594
 21
-65.395096
  0
LINE
  8
0
 10
-117.558594
 20
-62.395096
 11
-117.558594
 21
-67.395096
  0
LINE
  8
0
 10
-136.558594
 20
-62.395096
 11
-117.558594
 21
-62.395096
  0
LINE
  8
0
 10
151.431396
 20
-69.395096
 11
162.431396
 21
-69.395096
  0
LINE
  8
0
 10
-136.558594
 20
-69.395096
 11
-147.558594
 21
-69.395096
  0
LINE
  8
0
 10
-25.568604
 20
-66.395096
 11
-25.568604
 21
-67.395096
  0
LINE
  8
0
 10
-59.568604
 20
-66.395096
 11
-59.568604
 21
-67.395096
  0
LINE
  8
0
 10
-75.568604
 20
-66.395096
 11
-75.568604
 21
-67.395096
  0
LINE
  8
0
 10
-109.558594
 20
-66.395096
 11
-109.558594
 21
-67.395096
  0
LINE
  8
0
 10
-22.568604
 20
-66.395096
 11
-112.558594
 21
-66.395096
  0
LINE
  8
0
 10
-112.558594
 20
-58.895096
 11
-112.558594
 21
-66.395096
  0
LINE
  8
0
 10
-22.568604
 20
-58.895096
 11
-22.568604
 21
-66.395096
  0
LINE
  8
0
 10
-112.558594
 20
-58.895096
 11
-22.568604
 21
-58.895096
  0
LINE
  8
0
 10
-136.558594
 20
-73.495079
 11
151.431396
 21
-73.495079
  0
LINE
  8
0
 10
-136.558594
 20
-70.295090
 11
151.431396
 21
-70.295090
  0
LINE
  8
0
 10
-136.558594
 20
-67.395096
 11
151.431396
 21
-67.395096
  0
LINE
  8
0
 10
-147.558594
 20
-88.895081
 11
162.431396
 21
-88.895081
  0
LINE
  8
0
  6
CENTER
 62
     2
 10
-142.558594
 20
-92.895081
 11
-142.558594
 21
-84.895081
  0
LINE
  8
0
  6
PHANTOM
 62
     3
 10
18.496460
 20
-92.925079
 11
18.496460
 21
-21.400940
  0
LINE
  8
0
  6
CENTER
 62
     2
 10
222.951401
 20
66.104904
 11
234.971390
 21
66.104904
  0
LINE
  8
0
  6
DASHED
 62
     2
 10
229.931396
 20
63.854904
 11
232.431396
 21
63.854904
  0
LINE
  8
0
  6
DASHED
 62
     2
 10
229.931396
 20
70.354904
 11
229.931396
 21
61.854904
  0
LINE
  8
0
  6
DASHED
 62
     2
 10
226.231400
 20
61.854904
 11
229.931396
 21
61.854904
  0
LINE
  8
0
  6
DASHED
 62
     2
 10
226.231400
 20
61.854904
 11
226.231400
 21
63.854904
  0
LINE
  8
0
  6
DASHED
 62
     2
 10
225.231400
 20
63.854904
 11
226.231400
 21
63.854904
  0
LINE
  8
0
  6
DASHED
 62
     2
 10
225.231400
 20
68.354904
 11
226.231400
 21
68.354904
  0
LINE
  8
0
  6
DASHED
 62
     2
 10
226.231400
 20
70.354904
 11
226.231400
 21
68.354904
  0
LINE
  8
0
  6
DASHED
 62
     2
 10
226.231400
 20
70.354904
 11
229.931396
 21
70.354904
  0
LINE
  8
0
  6
DASHED
 62
     2
 10
229.931396
 20
68.354904
 11
232.431396
 21
68.354904
  0
LINE
  8
0
  6
DASHED
 62
     2
 10
225.231400
 20
68.354904
 11
225.231400
 21
63.854904
  0
LINE
  8
0
  6
CENTER
 62
     2
 10
223.341400
 20
32.104904
 11
234.971390
 21
32.104904
  0
LINE
  8
0
  6
DASHED
 62
     2
 10
229.931396
 20
29.854904
 11
232.431396
 21
29.854904
  0
LINE
  8
0
  6
DASHED
 62
     2
 10
229.931396
 20
36.354904
 11
229.931396
 21
27.854904
  0
LINE
  8
0
  6
DASHED
 62
     2
 10
226.231400
 20
27.854904
 11
229.931396
 21
27.854904
  0
LINE
  8
0
  6
DASHED
 62
     2
 10
226.231400
 20
27.854904
 11
226.231400
 21
29.854904
  0
LINE
  8
0
  6
DASHED
 62
     2
 10
225.231400
 20
29.854904
 11
226.231400
 21
29.854904
  0
LINE
  8
0
  6
DASHED
 62
     2
 10
225.231400
 20
34.354904
 11
226.231400
 21
34.354904
  0
LINE
  8
0
  6
DASHED
 62
     2
 10
226.231400
 20
36.354904
 11
226.231400
 21
34.354904
  0
LINE
  8
0
  6
DASHED
 62
     2
 10
226.231400
 20
36.354904
 11
229.931396
 21
36.354904
  0
LINE
  8
0
  6
DASHED
 62
     2
 10
229.931396
 20
34.354904
 11
232.431396
 21
34.354904
  0
LINE
  8
0
  6
DASHED
 62
     2
 10
225.231400
 20
34.354904
 11
225.231400
 21
29.854904
  0
LINE
  8
0
  6
DASHED
 62
     2
 10
231.931396
 20
57.604904
 11
231.931396
 21
40.604904
  0
LINE
  8
0
  6
DASHED
 62
     2
 10
232.431396
 20
58.104916
 11
231.931396
 21
57.604916
  0
LINE
  8
0
  6
DASHED
 62
     2
 10
232.431396
 20
40.104916
 11
231.931396
 21
40.604919
  0
LINE
  8
0
  6
DASHED
 62
     2
 10
226.881393
 20
27.854904
 11
226.881393
 21
36.354904
  0
LINE
  8
0
  6
DASHED
 62
     2
 10
226.881393
 20
61.854904
 11
226.881393
 21
70.354904
  0
LINE
  8
0
 10
202.431396
 20
84.104904
 11
202.431396
 21
21.094910
  0
LINE
  8
0
 10
232.431396
 20
21.094910
 11
217.031403
 21
21.094910
  0
LINE
  8
0
 10
232.431396
 20
21.094910
 11
232.431396
 21
106.104904
  0
LINE
  8
0
 10
213.831406
 20
21.594910
 11
213.831406
 21
21.094910
  0
LINE
  8
0
 10
213.331406
 20
22.094925
 11
213.831406
 21
21.594923
  0
LINE
  8
0
 10
213.331406
 20
22.094910
 11
213.331406
 21
23.694916
  0
LINE
  8
0
 10
217.531403
 20
22.094910
 11
219.031403
 21
22.094910
  0
LINE
  8
0
 10
217.531387
 20
22.094910
 11
217.031387
 21
21.594910
  0
LINE
  8
0
 10
217.031403
 20
21.594910
 11
217.031403
 21
21.094910
  0
LINE
  8
0
 10
213.831406
 20
21.094910
 11
202.431396
 21
21.094910
  0
LINE
  8
0
 10
212.931396
 20
26.094910
 11
212.931396
 21
21.094910
  0
LINE
  8
0
 10
223.931396
 20
26.094910
 11
212.931396
 21
26.094910
  0
LINE
  8
0
  6
CENTER
 62
     2
 10
223.401398
 20
62.594910
 11
201.361404
 21
62.594910
  0
LINE
  8
0
 10
204.431396
 20
106.104904
 11
204.431396
 21
21.094910
  0
LINE
  8
0
 10
220.421402
 20
22.894913
 11
222.031403
 21
22.894913
  0
LINE
  8
0
 10
219.671402
 20
25.694916
 11
222.031403
 21
25.694916
  0
LINE
  8
0
 10
219.031403
 20
22.094910
 11
220.421402
 21
22.894909
  0
LINE
  8
0
 10
217.161392
 20
24.894913
 11
218.281403
 21
24.894913
  0
LINE
  8
0
 10
218.281403
 20
24.894909
 11
219.671402
 21
25.694908
  0
LINE
  8
0
 10
223.931396
 20
26.094910
 11
223.931396
 21
21.094910
  0
LINE
  8
0
 10
202.431396
 20
84.104904
 11
204.431396
 21
84.104904
  0
LINE
  8
0
  6
CENTER
 62
     2
 10
213.931396
 20
72.264908
 11
213.931396
 21
53.673172
  0
LINE
  8
0
 10
204.431396
 20
106.104904
 11
232.431396
 21
106.104904
  0
LINE
  8
0
 10
214.681396
 20
67.548386
 11
214.681396
 21
57.659668
  0
LINE
  8
0
 10
213.181396
 20
67.546524
 11
213.181396
 21
57.661530
  0
LINE
  8
0
 62
     4
 10
214.431396
 20
25.542313
 11
215.181168
 21
25.542313
  0
LINE
  8
0
 62
     1
 10
214.431396
 20
25.297028
 11
214.431396
 21
25.542313
  0
LINE
  8
0
 62
     4
 10
214.431381
 20
25.542309
 11
214.181396
 21
25.292313
  0
LINE
  8
0
 62
     4
 10
214.181396
 20
25.132309
 11
214.181396
 21
25.292313
  0
LINE
  8
0
 62
     4
 10
215.681641
 20
25.542313
 11
216.431396
 21
25.542313
  0
LINE
  8
0
 62
     1
 10
216.431396
 20
25.296692
 11
216.431396
 21
25.542313
  0
LINE
  8
0
 62
     4
 10
216.431396
 20
25.542313
 11
216.681412
 21
25.292309
  0
LINE
  8
0
 62
     4
 10
216.681396
 20
25.131851
 11
216.681396
 21
25.292313
  0
LINE
  8
0
  6
CENTER
 62
     1
 10
215.431396
 20
29.972305
 11
215.431396
 21
19.902313
  0
LINE
  8
0
  6
CENTER
 62
     1
 10
217.077835
 20
23.312302
 11
213.788406
 21
23.312302
  0
LINE
  8
0
  6
CENTER
 62
     1
 10
216.166687
 20
22.862305
 11
214.678986
 21
22.862305
  0
LINE
  8
0
  6
CENTER
 62
     1
 10
216.166687
 20
23.762314
 11
214.678986
 21
23.762314
  0
LINE
  8
0
 62
     4
 10
217.481400
 20
22.062302
 11
217.481400
 21
23.512314
  0
LINE
  8
0
 62
     4
 10
213.381409
 20
22.062302
 11
213.381409
 21
23.512314
  0
LINE
  8
0
 62
     4
 10
213.381393
 20
22.062300
 11
213.931366
 21
21.512304
  0
LINE
  8
0
 62
     4
 10
213.931396
 20
21.012314
 11
213.931396
 21
21.462311
  0
LINE
  8
0
 62
     4
 10
217.481369
 20
22.062307
 11
216.931396
 21
21.512312
  0
LINE
  8
0
 62
     4
 10
216.931396
 20
21.012314
 11
216.931396
 21
21.462311
  0
LINE
  8
0
 62
     4
 10
214.431396
 20
20.542313
 11
216.431396
 21
20.542313
  0
LINE
  8
0
 62
     4
 10
213.931396
 20
20.962311
 11
216.931396
 21
20.962311
  0
LINE
  8
0
 62
     4
 10
216.681412
 20
20.792316
 11
216.431381
 21
20.542305
  0
LINE
  8
0
 62
     4
 10
216.681396
 20
20.792313
 11
216.681396
 21
20.962311
  0
LINE
  8
0
 62
     1
 10
216.431396
 20
20.542313
 11
216.431396
 21
20.962311
  0
LINE
  8
0
 62
     4
 10
216.931396
 20
20.962311
 11
216.931396
 21
21.512314
  0
LINE
  8
0
 62
     4
 10
213.931396
 20
20.962311
 11
213.931396
 21
21.512314
  0
LINE
  8
0
 62
     4
 10
214.181381
 20
20.792305
 11
214.431381
 21
20.542297
  0
LINE
  8
0
 62
     4
 10
214.181396
 20
20.792313
 11
214.181396
 21
20.962311
  0
LINE
  8
0
 62
     1
 10
214.431396
 20
20.542313
 11
214.431396
 21
20.962311
  0
LINE
  8
0
  6
CENTER
 62
     2
 10
228.431396
 20
100.604904
 11
236.431396
 21
100.604904
  0
LINE
  8
0
 62
     4
 10
-199.059280
 20
20.962311
 11
-202.059265
 21
20.962311
  0
LINE
  8
0
 62
     4
 10
-202.609268
 20
22.062302
 11
-202.609268
 21
23.512314
  0
LINE
  8
0
 62
     4
 10
-198.509277
 20
22.062302
 11
-198.509277
 21
23.512314
  0
LINE
  8
0
 62
     4
 10
-199.059280
 20
20.962311
 11
-199.059280
 21
21.512314
  0
LINE
  8
0
 62
     4
 10
-202.059265
 20
20.962311
 11
-202.059265
 21
21.512314
  0
LINE
  8
0
 62
     4
 10
-198.509293
 20
22.062311
 11
-199.059280
 21
21.512312
  0
LINE
  8
0
 62
     4
 10
-202.609268
 20
22.062325
 11
-202.059235
 21
21.512308
  0
LINE
  8
0
 62
     4
 10
-198.509277
 20
22.762314
 11
-202.609268
 21
22.762314
  0
LINE
  8
0
 62
     4
 10
-198.659271
 20
22.862305
 11
-202.459259
 21
22.862305
  0
LINE
  8
0
 62
     4
 10
-202.559265
 20
22.962311
 11
-202.559265
 21
23.462311
  0
LINE
  8
0
 62
     4
 10
-198.559280
 20
22.962311
 11
-198.559280
 21
23.462311
  0
LINE
  8
0
 62
     4
 10
-198.659271
 20
23.562302
 11
-202.459259
 21
23.562302
  0
LINE
  8
0
 62
     1
 10
-201.559265
 20
20.542313
 11
-201.559265
 21
20.962311
  0
LINE
  8
0
 62
     1
 10
-199.559280
 20
20.542313
 11
-199.559280
 21
20.962311
  0
LINE
  8
0
 62
     4
 10
-199.559280
 20
20.542313
 11
-201.559265
 21
20.542313
  0
LINE
  8
0
 62
     4
 10
-199.559280
 20
25.542313
 11
-201.559265
 21
25.542313
  0
LINE
  8
0
 62
     4
 10
-199.309265
 20
20.792309
 11
-199.559265
 21
20.542301
  0
LINE
  8
0
 62
     4
 10
-201.559265
 20
25.542301
 11
-201.809265
 21
25.292309
  0
LINE
  8
0
 62
     4
 10
-201.809265
 20
20.792305
 11
-201.559265
 21
20.542309
  0
LINE
  8
0
 62
     4
 10
-199.559265
 20
25.542307
 11
-199.309265
 21
25.292313
  0
LINE
  8
0
 62
     4
 10
-199.309280
 20
23.562302
 11
-199.309280
 21
25.292313
  0
LINE
  8
0
 62
     1
 10
-199.559280
 20
23.562302
 11
-199.559280
 21
25.542313
  0
LINE
  8
0
 62
     1
 10
-201.559265
 20
23.562302
 11
-201.559265
 21
25.542313
  0
LINE
  8
0
 62
     4
 10
-201.809265
 20
23.562302
 11
-201.809265
 21
25.292313
  0
LINE
  8
0
 62
     4
 10
-199.309280
 20
20.792313
 11
-199.309280
 21
20.962311
  0
LINE
  8
0
 62
     1
 10
-199.559280
 20
22.762314
 11
-199.559280
 21
22.862305
  0
LINE
  8
0
 62
     1
 10
-201.559265
 20
22.762314
 11
-201.559265
 21
22.862305
  0
LINE
  8
0
 62
     4
 10
-201.809265
 20
20.792313
 11
-201.809265
 21
20.962311
  0
LINE
  8
0
 62
     4
 10
-199.309280
 20
22.762314
 11
-199.309280
 21
22.862305
  0
LINE
  8
0
 62
     4
 10
-201.809265
 20
22.762314
 11
-201.809265
 21
22.862305
  0
LINE
  8
0
 10
-198.308594
 20
67.546524
 11
-198.308594
 21
57.661530
  0
LINE
  8
0
 10
-199.808594
 20
67.548386
 11
-199.808594
 21
57.659668
  0
LINE
  8
0
 10
-189.558594
 20
106.104904
 11
-217.558594
 21
106.104904
  0
LINE
  8
0
  6
CENTER
 62
     2
 10
-209.138596
 20
93.604904
 11
-200.968597
 21
93.604904
  0
LINE
  8
0
  6
CENTER
 62
     2
 10
-199.058594
 20
72.264908
 11
-199.058594
 21
53.673172
  0
LINE
  8
0
 10
-187.558594
 20
84.104904
 11
-189.558594
 21
84.104904
  0
LINE
  8
0
 10
-209.058594
 20
26.094910
 11
-209.058594
 21
21.094910
  0
LINE
  8
0
 10
-203.408615
 20
24.894909
 11
-204.798599
 21
25.694908
  0
LINE
  8
0
 10
-202.288589
 20
24.894913
 11
-203.408600
 21
24.894913
  0
LINE
  8
0
 10
-204.158615
 20
22.094910
 11
-205.548615
 21
22.894909
  0
LINE
  8
0
 10
-204.798599
 20
25.694916
 11
-207.158600
 21
25.694916
  0
LINE
  8
0
 10
-205.548599
 20
22.894913
 11
-207.158600
 21
22.894913
  0
LINE
  8
0
  6
CENTER
 62
     2
 10
-213.188171
 20
70.604904
 11
-203.058594
 21
70.604904
  0
LINE
  8
0
  6
CENTER
 62
     2
 10
-207.558594
 20
77.121750
 11
-207.558594
 21
64.394913
  0
LINE
  8
0
 10
-189.558594
 20
106.104904
 11
-189.558594
 21
21.094910
  0
LINE
  8
0
  6
CENTER
 62
     2
 10
-205.058594
 20
99.029114
 11
-205.058594
 21
89.104904
  0
LINE
  8
0
  6
CENTER
 62
     2
 10
-208.528595
 20
62.594910
 11
-186.488602
 21
62.594910
  0
LINE
  8
0
 10
-209.058594
 20
26.094910
 11
-198.058594
 21
26.094910
  0
LINE
  8
0
 10
-198.058594
 20
26.094910
 11
-198.058594
 21
21.094910
  0
LINE
  8
0
  6
CENTER
 62
     1
 10
-200.558594
 20
26.864914
 11
-200.558594
 21
18.944916
  0
LINE
  8
0
 10
-198.958603
 20
21.094910
 11
-187.558594
 21
21.094910
  0
LINE
  8
0
 10
-202.158600
 20
21.594910
 11
-202.158600
 21
21.094910
  0
LINE
  8
0
 10
-202.658600
 20
22.094915
 11
-202.158600
 21
21.594913
  0
LINE
  8
0
 10
-202.658600
 20
22.094910
 11
-204.158600
 21
22.094910
  0
LINE
  8
0
 10
-198.458603
 20
22.094910
 11
-198.458603
 21
23.694916
  0
LINE
  8
0
 10
-198.458588
 20
22.094915
 11
-198.958588
 21
21.594913
  0
LINE
  8
0
 10
-198.958603
 20
21.594910
 11
-198.958603
 21
21.094910
  0
LINE
  8
0
 10
-217.558594
 20
21.094910
 11
-217.558594
 21
106.104904
  0
LINE
  8
0
 10
-217.558594
 20
21.094910
 11
-202.158600
 21
21.094910
  0
LINE
  8
0
 10
-187.558594
 20
84.104904
 11
-187.558594
 21
21.094910
  0
LINE
  8
0
  6
DASHED
 62
     2
 10
-212.008591
 20
61.854904
 11
-212.008591
 21
70.354904
  0
LINE
  8
0
  6
DASHED
 62
     2
 10
-212.008591
 20
27.854904
 11
-212.008591
 21
36.354904
  0
LINE
  8
0
  6
DASHED
 62
     2
 10
-217.558594
 20
40.104916
 11
-217.058594
 21
40.604919
  0
LINE
  8
0
  6
DASHED
 62
     2
 10
-217.558594
 20
58.104916
 11
-217.058594
 21
57.604916
  0
LINE
  8
0
  6
DASHED
 62
     2
 10
-217.058594
 20
57.604904
 11
-217.058594
 21
40.604904
  0
LINE
  8
0
  6
DASHED
 62
     2
 10
-210.358597
 20
34.354904
 11
-210.358597
 21
29.854904
  0
LINE
  8
0
  6
DASHED
 62
     2
 10
-215.058594
 20
34.354904
 11
-217.558594
 21
34.354904
  0
LINE
  8
0
  6
DASHED
 62
     2
 10
-211.358597
 20
36.354904
 11
-215.058594
 21
36.354904
  0
LINE
  8
0
  6
DASHED
 62
     2
 10
-211.358597
 20
36.354904
 11
-211.358597
 21
34.354904
  0
LINE
  8
0
  6
DASHED
 62
     2
 10
-210.358597
 20
34.354904
 11
-211.358597
 21
34.354904
  0
LINE
  8
0
  6
DASHED
 62
     2
 10
-210.358597
 20
29.854904
 11
-211.358597
 21
29.854904
  0
LINE
  8
0
  6
DASHED
 62
     2
 10
-211.358597
 20
27.854904
 11
-211.358597
 21
29.854904
  0
LINE
  8
0
  6
DASHED
 62
     2
 10
-211.358597
 20
27.854904
 11
-215.058594
 21
27.854904
  0
LINE
  8
0
  6
DASHED
 62
     2
 10
-215.058594
 20
36.354904
 11
-215.058594
 21
27.854904
  0
LINE
  8
0
  6
DASHED
 62
     2
 10
-215.058594
 20
29.854904
 11
-217.558594
 21
29.854904
  0
LINE
  8
0
  6
CENTER
 62
     2
 10
-208.468597
 20
32.104904
 11
-220.098587
 21
32.104904
  0
LINE
  8
0
  6
DASHED
 62
     2
 10
-210.358597
 20
68.354904
 11
-210.358597
 21
63.854904
  0
LINE
  8
0
  6
DASHED
 62
     2
 10
-215.058594
 20
68.354904
 11
-217.558594
 21
68.354904
  0
LINE
  8
0
  6
DASHED
 62
     2
 10
-211.358597
 20
70.354904
 11
-215.058594
 21
70.354904
  0
LINE
  8
0
  6
DASHED
 62
     2
 10
-211.358597
 20
70.354904
 11
-211.358597
 21
68.354904
  0
LINE
  8
0
  6
DASHED
 62
     2
 10
-210.358597
 20
68.354904
 11
-211.358597
 21
68.354904
  0
LINE
  8
0
  6
DASHED
 62
     2
 10
-210.358597
 20
63.854904
 11
-211.358597
 21
63.854904
  0
LINE
  8
0
  6
DASHED
 62
     2
 10
-211.358597
 20
61.854904
 11
-211.358597
 21
63.854904
  0
LINE
  8
0
  6
DASHED
 62
     2
 10
-211.358597
 20
61.854904
 11
-215.058594
 21
61.854904
  0
LINE
  8
0
  6
DASHED
 62
     2
 10
-215.058594
 20
70.354904
 11
-215.058594
 21
61.854904
  0
LINE
  8
0
  6
DASHED
 62
     2
 10
-215.058594
 20
63.854904
 11
-217.558594
 21
63.854904
  0
LINE
  8
0
  6
CENTER
 62
     2
 10
-208.078598
 20
66.104904
 11
-220.098587
 21
66.104904
  0
LINE
  8
0
  6
CENTER
 62
     2
 10
-221.558594
 20
100.604904
 11
-213.558594
 21
100.604904
  0
LINE
  8
0
 62
     4
 10
-69.568604
 20
73.104904
 11
-69.568604
 21
71.104904
  0
LINE
  8
0
  6
CENTER
 62
     1
 10
-71.118607
 20
71.104904
 11
-64.108597
 21
71.104904
  0
LINE
  8
0
  6
CENTER
 62
     1
 10
-71.058594
 20
73.104904
 11
-64.018600
 21
73.104904
  0
LINE
  8
0
 62
     4
 10
-65.568604
 20
73.104904
 11
-65.568604
 21
71.104904
  0
LINE
  8
0
 10
-133.058594
 20
52.234917
 11
-131.558594
 21
51.364910
  0
LINE
  8
0
 10
-131.558594
 20
54.824917
 11
-130.058594
 21
53.954918
  0
LINE
  8
0
 10
-131.558594
 20
51.364906
 11
-130.058609
 21
52.234913
  0
LINE
  8
0
 10
-133.058594
 20
53.954910
 11
-131.558594
 21
54.824909
  0
LINE
  8
0
 10
-130.058594
 20
53.954910
 11
-130.058594
 21
52.234909
  0
LINE
  8
0
 10
-133.058594
 20
53.954910
 11
-133.058594
 21
52.234909
  0
LINE
  8
0
 10
-124.058594
 20
52.234905
 11
-122.558594
 21
51.364910
  0
LINE
  8
0
 10
-122.558594
 20
54.824917
 11
-121.058601
 21
53.954918
  0
LINE
  8
0
 10
-122.558594
 20
51.364906
 11
-121.058594
 21
52.234905
  0
LINE
  8
0
 10
-124.058601
 20
53.954918
 11
-122.558601
 21
54.824913
  0
LINE
  8
0
 10
-121.058594
 20
53.954910
 11
-121.058594
 21
52.234909
  0
LINE
  8
0
 10
-124.058594
 20
53.954910
 11
-124.058594
 21
52.234909
  0
LINE
  8
0
 10
-128.558594
 20
71.744919
 11
-127.058601
 21
70.874924
  0
LINE
  8
0
 10
-127.058594
 20
74.334915
 11
-125.558601
 21
73.464912
  0
LINE
  8
0
 10
-127.058594
 20
70.874908
 11
-125.558594
 21
71.744904
  0
LINE
  8
0
 10
-128.558594
 20
73.464912
 11
-127.058601
 21
74.334908
  0
LINE
  8
0
 10
-125.558594
 20
73.464905
 11
-125.558594
 21
71.744919
  0
LINE
  8
0
 10
-128.558594
 20
73.464905
 11
-128.558594
 21
71.744919
  0
LINE
  8
0
 10
140.431305
 20
71.744949
 11
141.931396
 21
70.874901
  0
LINE
  8
0
 10
141.931274
 20
74.334984
 11
143.431351
 21
73.464935
  0
LINE
  8
0
 10
141.931396
 20
70.874901
 11
143.431381
 21
71.744911
  0
LINE
  8
0
 10
140.431396
 20
73.464897
 11
141.931412
 21
74.334892
  0
LINE
  8
0
 10
143.431396
 20
73.464905
 11
143.431396
 21
71.744919
  0
LINE
  8
0
 10
140.431396
 20
73.464905
 11
140.431396
 21
71.744919
  0
LINE
  8
0
 10
144.931305
 20
52.234962
 11
146.431381
 21
51.364918
  0
LINE
  8
0
 10
146.431274
 20
54.824989
 11
147.931351
 21
53.954948
  0
LINE
  8
0
 10
146.431396
 20
51.364906
 11
147.931396
 21
52.234905
  0
LINE
  8
0
 10
144.931396
 20
53.954884
 11
146.431412
 21
54.824894
  0
LINE
  8
0
 10
147.931396
 20
53.954910
 11
147.931396
 21
52.234909
  0
LINE
  8
0
 10
144.931396
 20
53.954910
 11
144.931396
 21
52.234909
  0
LINE
  8
0
 10
135.931198
 20
52.235012
 11
137.431274
 21
51.364967
  0
LINE
  8
0
 10
137.431366
 20
54.824924
 11
138.931244
 21
53.955002
  0
LINE
  8
0
 10
137.431396
 20
51.364899
 11
138.931396
 21
52.234898
  0
LINE
  8
0
 10
135.931381
 20
53.954899
 11
137.431381
 21
54.824898
  0
LINE
  8
0
 10
138.931396
 20
53.954910
 11
138.931396
 21
52.234909
  0
LINE
  8
0
 10
135.931396
 20
53.954910
 11
135.931396
 21
52.234909
  0
LINE
  8
0
 10
101.431396
 20
58.344910
 11
104.931396
 21
58.344910
  0
LINE
  8
0
 10
101.431396
 20
66.844910
 11
104.931396
 21
66.844910
  0
LINE
  8
0
 10
104.931396
 20
58.344910
 11
104.931396
 21
66.844910
  0
LINE
  8
0
 10
101.431396
 20
58.344910
 11
101.431396
 21
66.844910
  0
LINE
  8
0
 10
135.431396
 20
86.604904
 11
135.431396
 21
83.404907
  0
LINE
  8
0
 10
-120.558594
 20
86.604904
 11
-120.558594
 21
83.404907
  0
LINE
  8
0
 10
151.431396
 20
106.104904
 11
162.431396
 21
106.104904
  0
LINE
  8
0
 10
-136.558594
 20
106.104904
 11
-147.558594
 21
106.104904
  0
LINE
  8
0
 10
-135.558594
 20
92.954903
 11
150.431396
 21
92.954903
  0
LINE
  8
0
 10
-135.558594
 20
91.604904
 11
150.431396
 21
91.604904
  0
LINE
  8
0
 10
-135.558594
 20
97.254906
 11
150.431396
 21
97.254906
  0
LINE
  8
0
 10
-135.558594
 20
98.604904
 11
150.431396
 21
98.604904
  0
LINE
  8
0
 10
-120.558594
 20
83.404907
 11
-136.558594
 21
83.404907
  0
LINE
  8
0
 10
-125.608597
 20
81.854904
 11
-123.108597
 21
81.854904
  0
LINE
  8
0
 10
-125.608597
 20
81.854904
 11
-125.608597
 21
83.404907
  0
LINE
  8
0
 62
     2
 10
-125.108597
 20
81.854904
 11
-125.108597
 21
83.404907
  0
LINE
  8
0
 62
     2
 10
-123.608597
 20
81.854904
 11
-123.608597
 21
83.404907
  0
LINE
  8
0
 10
-123.108597
 20
81.854904
 11
-123.108597
 21
83.404907
  0
LINE
  8
0
  6
CENTER
 62
     2
 10
-124.358597
 20
87.294907
 11
-124.358597
 21
81.224915
  0
LINE
  8
0
 10
-126.608597
 20
80.904907
 11
-131.108597
 21
80.904907
  0
LINE
  8
0
 10
-131.108597
 20
83.404907
 11
-131.108597
 21
80.904907
  0
LINE
  8
0
 10
-126.608597
 20
83.404907
 11
-126.608597
 21
80.904907
  0
LINE
  8
0
  6
CENTER
 62
     2
 10
-128.858597
 20
88.394905
 11
-128.858597
 21
80.064911
  0
LINE
  8
0
 10
135.431396
 20
83.404907
 11
151.431396
 21
83.404907
  0
LINE
  8
0
 10
140.481201
 20
81.854904
 11
137.981201
 21
81.854904
  0
LINE
  8
0
 10
140.481201
 20
81.854904
 11
140.481201
 21
83.404907
  0
LINE
  8
0
 62
     2
 10
139.981201
 20
81.854904
 11
139.981201
 21
83.404907
  0
LINE
  8
0
 62
     2
 10
138.481201
 20
81.854904
 11
138.481201
 21
83.404907
  0
LINE
  8
0
 10
137.981201
 20
81.854904
 11
137.981201
 21
83.404907
  0
LINE
  8
0
  6
CENTER
 62
     2
 10
139.231201
 20
87.294907
 11
139.231201
 21
81.224915
  0
LINE
  8
0
 10
150.431396
 20
103.604904
 11
150.431396
 21
86.604904
  0
LINE
  8
0
 10
151.431396
 20
90.004906
 11
150.431396
 21
90.004906
  0
LINE
  8
0
 10
151.431396
 20
102.604904
 11
150.431396
 21
102.604904
  0
LINE
  8
0
 10
141.481201
 20
80.904907
 11
145.981201
 21
80.904907
  0
LINE
  8
0
 10
145.981201
 20
83.404907
 11
145.981201
 21
80.904907
  0
LINE
  8
0
 10
141.481201
 20
83.404907
 11
141.481201
 21
80.904907
  0
LINE
  8
0
  6
CENTER
 62
     2
 10
143.731201
 20
88.394905
 11
143.731201
 21
80.064911
  0
LINE
  8
0
 10
-136.558594
 20
90.004906
 11
-135.558594
 21
90.004906
  0
LINE
  8
0
 10
-135.558594
 20
103.604904
 11
-135.558594
 21
86.604904
  0
LINE
  8
0
 10
-136.558594
 20
102.604904
 11
-135.558594
 21
102.604904
  0
LINE
  8
0
  6
CENTER
 62
     2
 10
-32.568604
 20
76.604904
 11
-32.568604
 21
21.905258
  0
LINE
  8
0
  6
CENTER
 62
     2
 10
-106.399323
 20
72.104904
 11
-28.068604
 21
72.104904
  0
LINE
  8
0
 10
-22.568604
 20
84.104904
 11
-112.558594
 21
84.104904
  0
LINE
  8
0
 10
-22.568604
 20
21.094910
 11
-22.568604
 21
84.104904
  0
LINE
  8
0
 10
-136.558594
 20
86.604904
 11
151.431396
 21
86.604904
  0
LINE
  8
0
 10
-92.558594
 20
86.604904
 11
-92.558594
 21
84.104904
  0
LINE
  8
0
 10
-42.568604
 20
86.604904
 11
-42.568604
 21
84.104904
  0
LINE
  8
0
 10
-135.558594
 20
103.604904
 11
150.431396
 21
103.604904
  0
LINE
  8
0
  6
CENTER
 62
     2
 10
-28.068604
 20
26.094910
 11
-106.302689
 21
26.094910
  0
LINE
  8
0
  6
CENTER
 62
     2
 10
-102.558594
 20
76.604904
 11
-102.558594
 21
21.905258
  0
LINE
  8
0
 10
-117.558594
 20
74.104904
 11
-112.558594
 21
74.104904
  0
LINE
  8
0
 10
-22.568604
 20
74.104904
 11
132.431396
 21
74.104904
  0
LINE
  8
0
  6
CENTER
 62
     2
 10
163.431396
 20
38.594910
 11
151.431396
 21
38.594910
  0
LINE
  8
0
  6
CENTER
 62
     2
 10
163.431396
 20
100.604904
 11
151.431396
 21
100.604904
  0
LINE
  8
0
  6
CENTER
 62
     2
 10
157.431396
 20
106.214905
 11
157.431396
 21
31.412125
  0
LINE
  8
0
  6
CENTER
 62
     2
 10
-148.558594
 20
38.594910
 11
-136.558594
 21
38.594910
  0
LINE
  8
0
  6
CENTER
 62
     2
 10
-148.558594
 20
100.604904
 11
-136.558594
 21
100.604904
  0
LINE
  8
0
  6
CENTER
 62
     2
 10
-142.558594
 20
106.604904
 11
-142.558594
 21
31.145920
  0
LINE
  8
0
 10
-117.558594
 20
50.844910
 11
-112.558594
 21
50.844910
  0
LINE
  8
0
 10
-117.558594
 20
55.344910
 11
-112.558594
 21
55.344910
  0
LINE
  8
0
 10
132.431396
 20
50.844910
 11
-22.568604
 21
50.844910
  0
LINE
  8
0
 10
132.431396
 20
55.344910
 11
-22.568604
 21
55.344910
  0
LINE
  8
0
 10
-22.568604
 20
56.994919
 11
132.431396
 21
56.994919
  0
LINE
  8
0
 10
-22.568604
 20
59.494919
 11
101.431396
 21
59.494919
  0
LINE
  8
0
 10
-22.568604
 20
65.694916
 11
101.431396
 21
65.694916
  0
LINE
  8
0
 10
-22.568604
 20
68.204910
 11
132.431396
 21
68.204910
  0
LINE
  8
0
  6
CENTER
 62
     2
 10
82.431396
 20
13.240555
 11
82.431396
 21
110.978241
  0
LINE
  8
0
 10
-22.568604
 20
27.594910
 11
151.431396
 21
27.594910
  0
LINE
  8
0
 10
-136.558594
 20
27.594910
 11
-112.558594
 21
27.594910
  0
LINE
  8
0
 10
91.431396
 20
64.094910
 11
91.431396
 21
61.094910
  0
LINE
  8
0
 10
91.431396
 20
61.094910
 11
101.431396
 21
61.094910
  0
LINE
  8
0
 10
91.431396
 20
64.094910
 11
101.431396
 21
64.094910
  0
LINE
  8
0
 10
132.431396
 20
36.594910
 11
-22.568604
 21
36.594910
  0
LINE
  8
0
 10
132.431396
 20
48.594910
 11
-22.568604
 21
48.594910
  0
LINE
  8
0
 10
104.931404
 20
58.344910
 11
105.681396
 21
57.594913
  0
LINE
  8
0
 10
105.681396
 20
67.604904
 11
105.681396
 21
57.594910
  0
LINE
  8
0
 10
104.931404
 20
66.844917
 11
105.681389
 21
67.604904
  0
LINE
  8
0
 10
151.431396
 20
68.604904
 11
132.431396
 21
68.604904
  0
LINE
  8
0
  6
CENTER
 62
     2
 10
163.281250
 20
62.594910
 11
89.651398
 21
62.594910
  0
LINE
  8
0
 10
151.431396
 20
33.594910
 11
132.431396
 21
33.594910
  0
LINE
  8
0
 10
132.431396
 20
76.604904
 11
132.431396
 21
33.594910
  0
LINE
  8
0
 10
132.431396
 20
76.604904
 11
151.431396
 21
76.604904
  0
LINE
  8
0
 10
132.431396
 20
57.594910
 11
105.681396
 21
57.594910
  0
LINE
  8
0
 62
     2
 10
132.431396
 20
58.344910
 11
104.931396
 21
58.344910
  0
LINE
  8
0
 10
132.431396
 20
67.604904
 11
105.681396
 21
67.604904
  0
LINE
  8
0
 62
     2
 10
132.431396
 20
66.844910
 11
104.931396
 21
66.844910
  0
LINE
  8
0
 10
-117.558594
 20
57.594910
 11
-112.558594
 21
57.594910
  0
LINE
  8
0
 62
     2
 10
-117.558594
 20
58.344910
 11
-112.558594
 21
58.344910
  0
LINE
  8
0
 62
     2
 10
-117.558594
 20
66.844910
 11
-112.558594
 21
66.844910
  0
LINE
  8
0
 10
-117.558594
 20
67.604904
 11
-112.558594
 21
67.604904
  0
LINE
  8
0
 10
-136.558594
 20
68.604904
 11
-117.558594
 21
68.604904
  0
LINE
  8
0
 10
-117.558594
 20
36.594910
 11
-112.558594
 21
36.594910
  0
LINE
  8
0
 10
-117.558594
 20
48.594910
 11
-112.558594
 21
48.594910
  0
LINE
  8
0
 10
-117.558594
 20
76.604904
 11
-136.558594
 21
76.604904
  0
LINE
  8
0
 10
-117.558594
 20
76.604904
 11
-117.558594
 21
33.594910
  0
LINE
  8
0
 10
-136.558594
 20
33.594910
 11
-117.558594
 21
33.594910
  0
LINE
  8
0
 10
-112.558594
 20
21.094910
 11
-112.558594
 21
84.104904
  0
LINE
  8
0
  6
CENTER
 62
     2
 10
-67.568604
 20
13.240555
 11
-67.568604
 21
111.504906
  0
LINE
  8
0
 10
151.431396
 20
21.094910
 11
151.431396
 21
106.104904
  0
LINE
  8
0
 10
-136.558594
 20
21.094910
 11
-136.558594
 21
106.104904
  0
LINE
  8
0
 10
162.431396
 20
21.094910
 11
162.431396
 21
106.104904
  0
LINE
  8
0
 10
-147.558594
 20
21.094910
 11
162.431396
 21
21.094910
  0
LINE
  8
0
 10
-147.558594
 20
21.094910
 11
-147.558594
 21
106.104904
  0
LINE
  8
0
  6
PHANTOM
 62
     3
 10
18.496460
 20
-21.400940
 11
18.496460
 21
111.504906
  0
LINE
  8
0
 10
-35.250000
 20
-159.000000
 11
-35.250000
 21
-175.000000
  0
LINE
  8
0
 10
-57.250000
 20
-159.000000
 11
-57.250000
 21
-175.000000
  0
LINE
  8
0
 10
-79.250000
 20
-159.000000
 11
-79.250000
 21
-175.000000
  0
LINE
  8
0
 10
-101.250000
 20
-159.000000
 11
-101.250000
 21
-175.000000
  0
LINE
  8
0
 10
-123.250000
 20
-159.000000
 11
-123.250000
 21
-175.000000
  0
LINE
  8
0
 10
-261.250000
 20
-159.000000
 11
-261.250000
 21
-175.000000
  0
LINE
  8
0
 10
-261.250000
 20
-175.000000
 11
-35.250000
 21
-175.000000
  0
LINE
  8
0
 10
-261.250000
 20
-167.000000
 11
-35.250000
 21
-167.000000
  0
LINE
  8
0
 10
-211.250000
 20
-159.000000
 11
-211.250000
 21
-175.000000
  0
LINE
  8
0
 10
-189.250000
 20
-159.000000
 11
-189.250000
 21
-175.000000
  0
LINE
  8
0
 10
-167.250000
 20
-159.000000
 11
-167.250000
 21
-175.000000
  0
LINE
  8
0
 10
-145.250000
 20
-159.000000
 11
-145.250000
 21
-175.000000
  0
LINE
  8
0
 10
-261.250000
 20
-159.000000
 11
-35.250000
 21
-159.000000
  0
LINE
  8
0
 10
-281.250000
 20
195.500000
 11
282.099854
 21
195.500000
  0
LINE
  8
0
 10
-281.250000
 20
195.500000
 11
-281.250000
 21
-195.000000
  0
LINE
  8
0
 10
282.099854
 20
195.500000
 11
282.099854
 21
-195.000000
  0
LINE
  8
0
 10
-281.250000
 20
-195.000000
 11
282.099854
 21
-195.000000
  0
LINE
  8
0
 10
162.099976
 20
-175.000000
 11
162.099976
 21
-195.000000
  0
LINE
  8
0
 10
162.099976
 20
-175.000000
 11
282.099854
 21
-175.000000
  0
LINE
  8
0
 10
162.099976
 20
175.500000
 11
282.099854
 21
175.500000
  0
LINE
  8
0
 10
-281.250000
 20
175.500000
 11
-161.250000
 21
175.500000
  0
LINE
  8
0
 10
162.099976
 20
195.500000
 11
162.099976
 21
175.500000
  0
LINE
  8
0
 10
-161.250000
 20
195.500000
 11
-161.250000
 21
175.500000
  0
ARC
  8
0
 62
     1
 10
-42.769577
 20
-72.490082
 40
0.965976
 50
321.978394
 51
38.021618
  0
ARC
  8
0
 62
     1
 10
-41.247620
 20
-71.300095
 40
0.965976
 50
141.978378
 51
218.021622
  0
ARC
  8
0
 62
     1
 10
107.230743
 20
-72.490082
 40
0.965660
 50
321.963745
 51
38.036255
  0
ARC
  8
0
 62
     1
 10
108.751892
 20
-71.300095
 40
0.965660
 50
141.963745
 51
218.036255
  0
CIRCLE
  8
0
 62
     4
 10
82.436401
 20
-71.895096
 40
1.500000
  0
CIRCLE
  8
0
 62
     4
 10
-67.563599
 20
-71.895096
 40
1.500000
  0
ARC
  8
0
 10
215.432083
 20
23.702301
 40
2.100684
 50
34.591579
 51
180.201645
  0
CIRCLE
  8
0
 10
213.937531
 20
62.604034
 40
5.000000
  0
CIRCLE
  8
0
 62
     2
 10
213.937531
 20
62.604034
 40
4.250000
  0
CIRCLE
  8
0
 10
213.937531
 20
62.604034
 40
6.500000
  0
ARC
  8
0
 10
222.037537
 20
24.294907
 40
1.400013
 50
269.748962
 51
90.251038
  0
ARC
  8
0
 62
     4
 10
215.431396
 20
23.507645
 40
2.050003
 50
0.000000
 51
179.999954
  0
CIRCLE
  8
0
 62
     4
 10
215.431396
 20
22.862305
 40
0.250000
  0
CIRCLE
  8
0
 62
     4
 10
215.431396
 20
23.762314
 40
0.250000
  0
CIRCLE
  8
0
 62
     4
 10
215.431396
 20
23.312302
 40
1.299999
  0
CIRCLE
  8
0
 62
     4
 10
215.431396
 20
22.862305
 40
0.450000
  0
CIRCLE
  8
0
 62
     4
 10
215.431396
 20
23.762314
 40
0.450000
  0
CIRCLE
  8
0
 10
-207.558594
 20
70.604904
 40
2.066999
  0
CIRCLE
  8
0
 10
-205.058594
 20
93.604904
 40
2.066999
  0
ARC
  8
0
 62
     4
 10
-202.463898
 20
23.466934
 40
0.095481
 50
87.224525
 51
182.778961
  0
ARC
  8
0
 62
     4
 10
-202.459717
 20
22.961853
 40
0.099549
 50
179.736526
 51
270.263489
  0
ARC
  8
0
 62
     4
 10
-200.566971
 20
23.511292
 40
2.042298
 50
127.465431
 51
179.971527
  0
ARC
  8
0
 62
     4
 10
-200.559952
 20
23.507156
 40
2.050681
 50
0.143939
 51
52.418770
  0
ARC
  8
0
 62
     4
 10
-198.663910
 20
22.966949
 40
0.104742
 50
272.538269
 51
357.461853
  0
ARC
  8
0
 62
     4
 10
-198.659958
 20
23.461624
 40
0.100680
 50
0.385338
 51
89.617920
  0
CIRCLE
  8
0
 62
     2
 10
-205.064728
 20
93.604019
 40
2.500000
  0
ARC
  8
0
 10
-207.164734
 20
24.294907
 40
1.400013
 50
89.748962
 51
270.251038
  0
CIRCLE
  8
0
 62
     2
 10
-207.564728
 20
70.604034
 40
2.500000
  0
CIRCLE
  8
0
 10
-199.064728
 20
62.604034
 40
6.500000
  0
CIRCLE
  8
0
 62
     2
 10
-199.064728
 20
62.604034
 40
4.250000
  0
CIRCLE
  8
0
 10
-199.064728
 20
62.604034
 40
5.000000
  0
ARC
  8
0
 10
-200.559280
 20
23.702301
 40
2.100691
 50
359.798309
 51
145.408417
  0
CIRCLE
  8
0
 10
-32.568604
 20
26.094910
 40
1.620999
  0
CIRCLE
  8
0
 10
-102.558594
 20
26.094910
 40
1.620999
  0
CIRCLE
  8
0
 10
-102.558594
 20
72.104904
 40
1.620999
  0
CIRCLE
  8
0
 10
-32.568604
 20
72.104904
 40
1.620999
  0
CIRCLE
  8
0
 62
     4
 10
-67.560928
 20
26.100021
 40
2.000000
  0
ARC
  8
0
 62
     4
 10
-67.568604
 20
71.104904
 40
2.000008
 50
180.000000
 51
0.000000
  0
ARC
  8
0
 62
     4
 10
-67.568604
 20
73.104904
 40
2.000008
 50
0.000000
 51
180.000000
  0
CIRCLE
  8
0
 10
-131.558594
 20
53.094910
 40
2.980385
  0
CIRCLE
  8
0
 10
-131.558594
 20
53.094910
 40
3.500000
  0
CIRCLE
  8
0
 10
-122.558594
 20
53.094910
 40
2.980385
  0
CIRCLE
  8
0
 10
-122.558594
 20
53.094910
 40
3.500000
  0
CIRCLE
  8
0
 10
-127.058594
 20
72.604919
 40
2.980385
  0
CIRCLE
  8
0
 10
-127.058594
 20
72.604904
 40
3.500000
  0
CIRCLE
  8
0
 10
141.931396
 20
72.604919
 40
2.980385
  0
CIRCLE
  8
0
 10
141.931396
 20
72.604904
 40
3.500000
  0
CIRCLE
  8
0
 10
146.431396
 20
53.094910
 40
2.980385
  0
CIRCLE
  8
0
 10
146.431396
 20
53.094910
 40
3.500000
  0
CIRCLE
  8
0
 10
137.431396
 20
53.094910
 40
2.980385
  0
CIRCLE
  8
0
 10
137.431396
 20
53.094910
 40
3.500000
  0
CIRCLE
  8
0
 62
     2
 10
-32.564743
 20
72.104034
 40
2.000000
  0
CIRCLE
  8
0
 10
-142.564728
 20
38.604034
 40
2.400000
  0
CIRCLE
  8
0
 10
157.435059
 20
38.604034
 40
2.400000
  0
CIRCLE
  8
0
 10
157.435059
 20
100.604019
 40
2.400000
  0
CIRCLE
  8
0
 10
-142.564728
 20
100.604019
 40
2.400000
  0
CIRCLE
  8
0
 10
157.435059
 20
38.604034
 40
4.000000
  0
CIRCLE
  8
0
 10
157.435059
 20
100.604019
 40
4.000000
  0
CIRCLE
  8
0
 10
-142.564728
 20
38.604034
 40
4.000000
  0
CIRCLE
  8
0
 10
-142.564728
 20
100.604019
 40
4.000000
  0
CIRCLE
  8
0
 62
     2
 10
-102.564728
 20
26.104019
 40
2.000000
  0
CIRCLE
  8
0
 62
     2
 10
-32.564743
 20
26.104019
 40
2.000000
  0
CIRCLE
  8
0
 62
     2
 10
-102.564728
 20
72.104034
 40
2.000000
  0
CIRCLE
  8
0
 10
141.935059
 20
72.604034
 40
3.500000
  0
CIRCLE
  8
0
 10
-127.064720
 20
72.604034
 40
3.500000
  0
TEXT
  8
0
 10
-55.642658
 20
-157.050003
 40
4.500000
  1
（ｍｍ）
 50
0.000000
 41
0.833333
 51
0.000000
  7
STANDARD
  0
TEXT
  8
0
 10
-269.839050
 20
146.380005
 40
6.300000
  1
(WITH SENSOR SWITCH)
 50
0.000000
 41
1.052632
 51
0.000000
  7
STANDARD
  0
TEXT
  8
0
 10
-53.392658
 20
-174.050003
 40
4.500000
  1
450
 50
0.000000
 41
1.052632
 51
0.000000
  7
STANDARD
  0
TEXT
  8
0
 10
-53.392658
 20
-166.050003
 40
4.500000
  1
600
 50
0.000000
 41
1.052632
 51
0.000000
  7
STANDARD
  0
TEXT
  8
0
 10
-75.392654
 20
-174.050003
 40
4.500000
  1
350
 50
0.000000
 41
1.052632
 51
0.000000
  7
STANDARD
  0
TEXT
  8
0
 10
-75.392654
 20
-166.050003
 40
4.500000
  1
500
 50
0.000000
 41
1.052632
 51
0.000000
  7
STANDARD
  0
TEXT
  8
0
 10
-97.392654
 20
-174.050003
 40
4.500000
  1
250
 50
0.000000
 41
1.052632
 51
0.000000
  7
STANDARD
  0
TEXT
  8
0
 10
-97.392654
 20
-166.050003
 40
4.500000
  1
400
 50
0.000000
 41
1.052632
 51
0.000000
  7
STANDARD
  0
TEXT
  8
0
 10
-119.392654
 20
-174.050003
 40
4.500000
  1
200
 50
0.000000
 41
1.052632
 51
0.000000
  7
STANDARD
  0
TEXT
  8
0
 10
-119.392654
 20
-166.050003
 40
4.500000
  1
350
 50
0.000000
 41
1.052632
 51
0.000000
  7
STANDARD
  0
TEXT
  8
0
 10
-141.392654
 20
-174.050003
 40
4.500000
  1
150
 50
0.000000
 41
1.052632
 51
0.000000
  7
STANDARD
  0
TEXT
  8
0
 10
-141.392654
 20
-166.050003
 40
4.500000
  1
300
 50
0.000000
 41
1.052632
 51
0.000000
  7
STANDARD
  0
TEXT
  8
0
 10
-250.142654
 20
-166.050003
 40
4.500000
  1
STROKE
 50
0.000000
 41
1.052632
 51
0.000000
  7
STANDARD
  0
TEXT
  8
0
 10
-175.642654
 20
-157.050003
 40
4.500000
  1
STRETCH LIST
 50
0.000000
 41
1.052632
 51
0.000000
  7
STANDARD
  0
TEXT
  8
0
 10
-207.392654
 20
-166.050003
 40
4.500000
  1
150
 50
0.000000
 41
1.052632
 51
0.000000
  7
STANDARD
  0
TEXT
  8
0
 10
-185.392654
 20
-166.050003
 40
4.500000
  1
200
 50
0.000000
 41
1.052632
 51
0.000000
  7
STANDARD
  0
TEXT
  8
0
 10
-163.392654
 20
-166.050003
 40
4.500000
  1
250
 50
0.000000
 41
1.052632
 51
0.000000
  7
STANDARD
  0
TEXT
  8
0
 10
-202.892654
 20
-174.050003
 40
4.500000
  1
0
 50
0.000000
 41
1.052632
 51
0.000000
  7
STANDARD
  0
TEXT
  8
0
 10
-183.142654
 20
-174.050003
 40
4.500000
  1
50
 50
0.000000
 41
1.052632
 51
0.000000
  7
STANDARD
  0
TEXT
  8
0
 10
-163.392654
 20
-174.050003
 40
4.500000
  1
100
 50
0.000000
 41
1.052632
 51
0.000000
  7
STANDARD
  0
TEXT
  8
0
 10
-252.392654
 20
-174.050003
 40
4.500000
  1
STRETCH
 50
0.000000
 41
1.052632
 51
0.000000
  7
STANDARD
  0
TEXT
  8
0
 62
     3
 10
-8.896197
 20
118.778305
 40
4.500000
  1
STRETCH LINE
 50
0.000000
 41
1.052632
 51
0.000000
  7
STANDARD
  0
TEXT
  8
0
 10
-272.299713
 20
180.830002
 40
6.300000
  1
RODLESS CYLINDER
 50
0.000000
 41
1.052632
 51
0.000000
  7
STANDARD
  0
TEXT
  8
0
 10
196.250259
 20
180.830002
 40
6.300000
  1
Ｖｅｒ．　１．０
 50
0.000000
 41
0.833333
 51
0.000000
  7
STANDARD
  0
TEXT
  8
0
 10
167.564667
 20
-192.100006
 40
9.000000
  1
KOGANEI CORP.
 50
0.000000
 41
1.052632
 51
0.000000
  7
STANDARD
  0
TEXT
  8
0
 10
-270.049713
 20
155.830002
 40
6.300000
  1
MODEL:ORS10*ST(150)
 50
0.000000
 41
1.052632
 51
0.000000
  7
STANDARD
  0
ENDSEC
  0
EOF
