  0
SECTION
  2
HEADER
  0
ENDSEC
  0
SECTION
  2
TABLES
  0
TABLE
  2
LTYPE
 70
     4
  0
LTYPE
  2
CONTINUOUS
 70
    64
  3
Solid line
 72
    65
 73
     0
 40
0.000000
  0
LTYPE
  2
DASHED
 70
    64
  3
__ __ __ __ __ __ __ __ __ __ __ __ __ __ __
 72
    65
 73
     2
 40
3.500000
 49
2.000000
 49
-1.500000
  0
LTYPE
  2
CENTER
 70
    64
  3
____ _ ____ _ ____ _ ____ _ ____ _ ____ _ ____
 72
    65
 73
     4
 40
17.500000
 49
13.000000
 49
-1.500000
 49
1.500000
 49
-1.500000
  0
LTYPE
  2
PHANTOM
 70
    64
  3
_____ _ _ _____ _ _ _____ _ _ _____ _ _ ____  
 72
    65
 73
     6
 40
15.500000
 49
8.000000
 49
-1.500000
 49
1.500000
 49
-1.500000
 49
1.500000
 49
-1.500000
  0
LTYPE
  2
DASHED1
 70
    64
  3
__ __ __ __ __ __ __ __ __ __ __ __ __ __ __
 72
    65
 73
     2
 40
1.500000
 49
1.000000
 49
-0.500000
  0
LTYPE
  2
DASHED2
 70
    64
  3
__ __ __ __ __ __ __ __ __ __ __ __ __ __ __
 72
    65
 73
     2
 40
3.500000
 49
2.500000
 49
-1.000000
  0
LTYPE
  2
DASHED3
 70
    64
  3
__ __ __ __ __ __ __ __ __ __ __ __ __ __ __
 72
    65
 73
     2
 40
6.000000
 49
4.000000
 49
-2.000000
  0
LTYPE
  2
DASHED4
 70
    64
  3
__ __ __ __ __ __ __ __ __ __ __ __ __ __ __
 72
    65
 73
     2
 40
12.000000
 49
10.000000
 49
-2.000000
  0
LTYPE
  2
DASHED5
 70
    64
  3
__ __ __ __ __ __ __ __ __ __ __ __ __ __ __
 72
    65
 73
     2
 40
17.000000
 49
15.000000
 49
-2.000000
  0
LTYPE
  2
DASHED6
 70
    64
  3
__ __ __ __ __ __ __ __ __ __ __ __ __ __ __
 72
    65
 73
     2
 40
29.000000
 49
27.000000
 49
-2.000000
  0
LTYPE
  2
PHANTOM1
 70
    64
  3
_____ _ _ _____ _ _ _____ _ _ _____ _ _ ____  
 72
    65
 73
     6
 40
31.000000
 49
25.000000
 49
-1.500000
 49
1.000000
 49
-1.000000
 49
1.000000
 49
-1.500000
  0
LTYPE
  2
PHANTOM2
 70
    64
  3
_____ _ _ _____ _ _ _____ _ _ _____ _ _ ____  
 72
    65
 73
     6
 40
36.000000
 49
27.000000
 49
-1.500000
 49
2.500000
 49
-1.000000
 49
2.500000
 49
-1.500000
  0
LTYPE
  2
PHANTOM3
 70
    64
  3
_____ _ _ _____ _ _ _____ _ _ _____ _ _ ____  
 72
    65
 73
     6
 40
78.000000
 49
64.000000
 49
-2.000000
 49
4.000000
 49
-2.000000
 49
4.000000
 49
-2.000000
  0
LTYPE
  2
CENTER1
 70
    64
  3
____ _ ____ _ ____ _ ____ _ ____ _ ____ _ ____
 72
    65
 73
     4
 40
19.000000
 49
14.000000
 49
-1.000000
 49
3.000000
 49
-1.000000
  0
LTYPE
  2
CENTER2
 70
    64
  3
____ _ ____ _ ____ _ ____ _ ____ _ ____ _ ____
 72
    65
 73
     4
 40
28.500000
 49
25.000000
 49
-1.000000
 49
1.500000
 49
-1.000000
  0
LTYPE
  2
CENTER3
 70
    64
  3
____ _ ____ _ ____ _ ____ _ ____ _ ____ _ ____
 72
    65
 73
     4
 40
31.500000
 49
27.000000
 49
-1.000000
 49
2.500000
 49
-1.000000
  0
LTYPE
  2
CENTER4
 70
    64
  3
____ _ ____ _ ____ _ ____ _ ____ _ ____ _ ____
 72
    65
 73
     4
 40
50.000000
 49
45.000000
 49
-1.000000
 49
3.000000
 49
-1.000000
  0
LTYPE
  2
CENTER5
 70
    64
  3
____ _ ____ _ ____ _ ____ _ ____ _ ____ _ ____
 72
    65
 73
     4
 40
100.000000
 49
92.000000
 49
-2.000000
 49
4.000000
 49
-2.000000
  0
LTYPE
  2
SBK1
 70
    64
  3
______ _ _ _ ______ _ _ _ ______ _ _ _ _____  
 72
    65
 73
     8
 40
60.500000
 49
45.000000
 49
-2.000000
 49
2.500000
 49
-2.000000
 49
2.500000
 49
-2.000000
 49
2.500000
 49
-2.000000
  0
LTYPE
  2
SBK2
 70
    64
  3
______ _ _ _ ______ _ _ _ ______ _ _ _ _____  
 72
    65
 73
     8
 40
84.000000
 49
64.000000
 49
-2.000000
 49
4.000000
 49
-2.000000
 49
4.000000
 49
-2.000000
 49
4.000000
 49
-2.000000
  0
LTYPE
  2
STCH
 70
    64
  3
__ __ __ __ __ __ __ __ __ __ __ __ __ __ __
 72
    65
 73
     2
 40
3.000000
 49
1.000000
 49
-2.000000
  0
LTYPE
  2
MTCH
 70
    64
  3
_____ _ _ _____ _ _ _____ _ _ _____ _ _ ____  
 72
    65
 73
     6
 40
80.000000
 49
66.000000
 49
-2.000000
 49
4.000000
 49
-2.000000
 49
4.000000
 49
-2.000000
  0
ENDTAB
  0
TABLE
  2
LAYER
 70
     1
  0
LAYER
  2
0
 70
     0
 62
     7
  6
CONTINUOUS
  0
ENDTAB
  0
TABLE
  2
STYLE
 70
     1
  0
STYLE
  2
STANDARD
 70
     0
 40
0.000000
 41
1.000000
 50
0.000000
 71
     0
 42
0.200000
  3
txt
  4
BIGFONT
  0
ENDTAB
  0
TABLE
  2
VIEW
 70
     0
  0
ENDTAB
  0
ENDSEC
  0
SECTION
  2
BLOCKS
  0
ENDSEC
  0
SECTION
  2
ENTITIES
  0
LINE
  8
0
 10
565.402588
 20
390.676514
 11
565.402588
 21
-391.383636
  0
LINE
  8
0
 10
-564.624817
 20
390.676514
 11
-564.624817
 21
-391.383636
  0
LINE
  8
0
 10
-564.624817
 20
390.676514
 11
565.402588
 21
390.676514
  0
LINE
  8
0
 10
-564.624817
 20
-391.383636
 11
565.402588
 21
-391.383636
  0
LINE
  8
0
 10
339.128418
 20
-356.028290
 11
565.402588
 21
-356.028290
  0
LINE
  8
0
 10
339.128418
 20
355.321167
 11
565.402588
 21
355.321167
  0
LINE
  8
0
 10
-564.624817
 20
355.321167
 11
-338.350616
 21
355.321167
  0
LINE
  8
0
 10
339.128418
 20
-356.028290
 11
339.128418
 21
-391.383636
  0
LINE
  8
0
 10
339.128418
 20
355.321167
 11
339.128418
 21
390.676514
  0
LINE
  8
0
 10
-338.350616
 20
390.676514
 11
-338.350616
 21
355.321167
  0
LINE
  8
0
 10
-564.624817
 20
-20.353561
 11
565.402588
 21
-20.353561
  0
LINE
  8
0
 10
-179.611115
 20
-20.353561
 11
-179.611115
 21
-391.383636
  0
LINE
  8
0
 10
174.388885
 20
-20.353561
 11
174.388885
 21
-391.383636
  0
LINE
  8
0
  6
CENTER
 62
     2
 10
-497.972595
 20
-319.110199
 11
-387.699402
 21
-319.110199
  0
LINE
  8
0
  6
CENTER
 62
     2
 10
-331.949524
 20
-319.110199
 11
-247.949524
 21
-319.110199
  0
LINE
  8
0
  6
CENTER
 62
     2
 10
-289.949524
 20
-305.769348
 11
-289.949524
 21
-364.110199
  0
LINE
  8
0
  6
CENTER
 62
     2
 10
-114.244286
 20
-319.110260
 11
-20.366150
 21
-319.110260
  0
LINE
  8
0
  6
CENTER
 62
     2
 10
18.050385
 20
-319.110260
 11
102.050385
 21
-319.110260
  0
LINE
  8
0
  6
CENTER
 62
     2
 10
60.050385
 20
-306.483002
 11
60.050385
 21
-364.110260
  0
LINE
  8
0
 10
174.388885
 20
-205.868591
 11
565.402588
 21
-205.868591
  0
LINE
  8
0
  6
PHANTOM
 62
     2
 10
295.774872
 20
-92.831917
 11
295.774872
 21
-145.831879
  0
LINE
  8
0
  6
CENTER
 62
     2
 10
252.566040
 20
-129.831909
 11
338.928192
 21
-129.831909
  0
LINE
  8
0
  6
CENTER
 62
     2
 10
396.774719
 20
-129.831909
 11
480.774719
 21
-129.831909
  0
LINE
  8
0
  6
CENTER
 62
     2
 10
438.774872
 20
-87.831917
 11
438.774872
 21
-171.831909
  0
LINE
  8
0
  6
CENTER
 62
     2
 10
259.323792
 20
-244.038483
 11
259.323792
 21
-329.038483
  0
LINE
  8
0
  6
CENTER
 62
     2
 10
207.785645
 20
-284.038483
 11
358.073792
 21
-284.038483
  0
LINE
  8
0
  6
CENTER
 62
     2
 10
405.323792
 20
-284.038483
 11
493.323792
 21
-284.038483
  0
LINE
  8
0
  6
CENTER
 62
     2
 10
449.323792
 20
-241.538483
 11
449.323792
 21
-326.538483
  0
LINE
  8
0
 10
-564.624817
 20
-35.353561
 11
565.402588
 21
-35.353561
  0
LINE
  8
0
 10
174.388885
 20
-220.868591
 11
565.402588
 21
-220.868591
  0
LINE
  8
0
 10
424.666656
 20
33.666664
 11
443.366669
 21
33.666664
  0
LINE
  8
0
 10
443.666656
 20
39.509140
 11
443.666656
 21
33.966667
  0
LINE
  8
0
 10
440.018738
 20
39.223461
 11
443.314545
 21
39.804600
  0
LINE
  8
0
 10
439.666656
 20
41.183388
 11
439.666656
 21
39.518883
  0
LINE
  8
0
 10
442.666656
 20
62.166664
 11
442.666656
 21
45.466667
  0
LINE
  8
0
 10
443.666656
 20
79.084686
 11
443.666656
 21
75.966660
  0
LINE
  8
0
 10
441.666656
 20
75.666664
 11
443.366669
 21
75.666664
  0
LINE
  8
0
 10
441.666626
 20
81.650002
 11
443.549591
 21
79.405991
  0
LINE
  8
0
 10
384.666656
 20
33.666664
 11
365.966644
 21
33.666664
  0
LINE
  8
0
 10
365.666656
 20
39.509140
 11
365.666656
 21
33.966667
  0
LINE
  8
0
 10
369.314545
 20
39.223446
 11
366.018738
 21
39.804588
  0
LINE
  8
0
 10
369.666656
 20
41.183388
 11
369.666656
 21
39.518883
  0
LINE
  8
0
 10
366.666656
 20
60.466625
 11
366.666656
 21
45.466667
  0
LINE
  8
0
 10
365.666656
 20
79.084686
 11
365.666656
 21
77.466644
  0
LINE
  8
0
 10
367.666626
 20
81.650169
 11
365.783600
 21
79.406059
  0
LINE
  8
0
 10
367.491516
 20
100.474350
 11
367.234406
 21
100.167938
  0
LINE
  8
0
 10
367.373871
 20
99.789673
 11
367.258972
 21
99.886108
  0
LINE
  8
0
 10
359.666656
 20
140.666656
 11
449.666656
 21
140.666656
  0
LINE
  8
0
 10
359.166687
 20
140.166672
 11
359.666687
 21
140.666656
  0
LINE
  8
0
 10
449.666748
 20
140.666718
 11
450.166718
 21
140.166733
  0
LINE
  8
0
  6
CENTER
 62
     2
 10
404.666656
 20
145.666656
 11
404.666656
 21
31.666664
  0
LINE
  8
0
 10
356.666656
 20
76.666672
 11
362.666656
 21
76.666672
  0
LINE
  8
0
 10
344.666656
 20
137.166656
 11
344.666656
 21
86.735855
  0
LINE
  8
0
 10
464.666656
 20
137.166656
 11
464.666656
 21
86.735863
  0
LINE
  8
0
 10
347.666656
 20
140.166656
 11
461.666656
 21
140.166656
  0
LINE
  8
0
 10
344.666595
 20
86.735825
 11
356.666565
 21
76.666649
  0
LINE
  8
0
 10
364.666626
 20
80.066696
 11
367.666626
 21
83.641960
  0
LINE
  8
0
 10
364.666656
 20
80.066666
 11
364.666656
 21
77.466644
  0
LINE
  8
0
 10
444.666687
 20
80.066658
 11
441.666656
 21
83.641945
  0
LINE
  8
0
 10
444.666656
 20
80.066666
 11
444.666656
 21
76.666672
  0
LINE
  8
0
 10
452.666656
 20
76.666672
 11
444.666656
 21
76.666672
  0
LINE
  8
0
 10
464.666626
 20
86.735886
 11
452.666626
 21
76.666687
  0
LINE
  8
0
 10
444.666656
 20
80.066666
 11
444.666656
 21
76.666672
  0
LINE
  8
0
 10
441.666656
 20
99.666664
 11
441.666656
 21
47.666664
  0
LINE
  8
0
 10
367.666656
 20
99.666664
 11
367.666656
 21
47.666664
  0
LINE
  8
0
 10
378.666656
 20
110.666664
 11
430.666656
 21
110.666664
  0
LINE
  8
0
 10
378.666656
 20
36.666664
 11
430.666656
 21
36.666664
  0
LINE
  8
0
 10
389.666656
 20
108.666664
 11
389.666656
 21
99.666664
  0
LINE
  8
0
 10
419.666656
 20
108.666664
 11
419.666656
 21
99.666664
  0
LINE
  8
0
 10
369.666656
 20
88.666664
 11
378.666656
 21
88.666664
  0
LINE
  8
0
 10
369.666656
 20
58.666664
 11
378.666656
 21
58.666664
  0
LINE
  8
0
 10
389.666656
 20
47.666664
 11
389.666656
 21
38.666664
  0
LINE
  8
0
 10
419.666656
 20
47.666664
 11
419.666656
 21
38.666664
  0
LINE
  8
0
 10
430.666656
 20
88.666664
 11
439.666656
 21
88.666664
  0
LINE
  8
0
 10
430.666656
 20
58.666664
 11
439.666656
 21
58.666664
  0
LINE
  8
0
 10
372.666656
 20
51.130753
 11
378.666656
 21
54.594849
  0
LINE
  8
0
 10
378.666687
 20
40.738419
 11
384.666687
 21
44.202530
  0
LINE
  8
0
 10
372.666656
 20
51.130768
 11
372.666656
 21
44.202560
  0
LINE
  8
0
 10
384.666656
 20
51.130768
 11
384.666656
 21
44.202568
  0
LINE
  8
0
 10
372.666626
 20
44.202576
 11
378.666656
 21
40.738464
  0
LINE
  8
0
 10
378.666626
 20
54.594879
 11
384.666656
 21
51.130768
  0
LINE
  8
0
  6
CENTER
 62
     2
 10
366.166656
 20
47.666664
 11
391.166656
 21
47.666664
  0
LINE
  8
0
  6
CENTER
 62
     2
 10
378.666656
 20
60.166664
 11
378.666656
 21
35.166664
  0
LINE
  8
0
 10
372.666656
 20
103.130783
 11
378.666626
 21
106.594879
  0
LINE
  8
0
 10
372.666656
 20
103.130775
 11
372.666656
 21
96.202560
  0
LINE
  8
0
 10
372.666656
 20
96.202576
 11
378.666687
 21
92.738464
  0
LINE
  8
0
 10
378.666718
 20
92.738434
 11
384.666687
 21
96.202530
  0
LINE
  8
0
 10
384.666656
 20
103.130760
 11
384.666656
 21
96.202568
  0
LINE
  8
0
 10
378.666687
 20
106.594910
 11
384.666687
 21
103.130798
  0
LINE
  8
0
  6
CENTER
 62
     2
 10
366.166656
 20
99.666664
 11
391.166656
 21
99.666664
  0
LINE
  8
0
  6
CENTER
 62
     2
 10
378.666656
 20
112.166664
 11
378.666656
 21
87.166664
  0
LINE
  8
0
 10
424.666718
 20
103.130768
 11
430.666687
 21
106.594849
  0
LINE
  8
0
 10
424.666656
 20
103.130775
 11
424.666656
 21
96.202560
  0
LINE
  8
0
 10
424.666687
 20
96.202606
 11
430.666687
 21
92.738495
  0
LINE
  8
0
 10
430.666656
 20
92.738449
 11
436.666656
 21
96.202545
  0
LINE
  8
0
 10
436.666656
 20
103.130760
 11
436.666656
 21
96.202568
  0
LINE
  8
0
 10
430.666687
 20
106.594910
 11
436.666687
 21
103.130798
  0
LINE
  8
0
  6
CENTER
 62
     2
 10
418.166656
 20
99.666664
 11
443.166656
 21
99.666664
  0
LINE
  8
0
  6
CENTER
 62
     2
 10
430.666656
 20
112.166664
 11
430.666656
 21
87.166664
  0
LINE
  8
0
 10
424.666718
 20
51.130672
 11
430.666718
 21
54.594784
  0
LINE
  8
0
 10
424.666656
 20
51.130768
 11
424.666656
 21
44.202560
  0
LINE
  8
0
 10
424.666687
 20
44.202587
 11
430.666656
 21
40.738491
  0
LINE
  8
0
 10
430.666718
 20
40.738365
 11
436.666718
 21
44.202477
  0
LINE
  8
0
 10
436.666656
 20
51.130768
 11
436.666656
 21
44.202568
  0
LINE
  8
0
 10
430.666687
 20
54.594906
 11
436.666687
 21
51.130795
  0
LINE
  8
0
  6
CENTER
 62
     2
 10
418.166656
 20
47.666664
 11
443.166656
 21
47.666664
  0
LINE
  8
0
  6
CENTER
 62
     2
 10
430.666656
 20
60.166664
 11
430.666656
 21
35.166664
  0
LINE
  8
0
  6
DASHED
 62
     2
 10
368.366669
 20
66.191673
 11
378.066711
 21
66.494820
  0
LINE
  8
0
  6
DASHED
 62
     2
 10
368.366669
 20
65.335670
 11
378.066620
 21
65.638809
  0
LINE
  8
0
  6
DASHED
 62
     2
 10
368.366638
 20
81.997665
 11
378.066681
 21
81.694519
  0
LINE
  8
0
  6
DASHED
 62
     2
 10
368.366699
 20
81.141670
 11
378.066681
 21
80.838531
  0
LINE
  8
0
  6
DASHED
 62
     2
 10
378.066650
 20
81.694527
 11
378.066650
 21
65.638802
  0
LINE
  8
0
  6
DASHED
 62
     2
 10
378.066681
 20
81.694565
 11
379.549347
 21
80.838562
  0
LINE
  8
0
  6
DASHED
 62
     2
 10
378.066711
 20
65.638794
 11
379.549347
 21
66.494797
  0
LINE
  8
0
  6
DASHED
 62
     2
 10
378.066650
 20
80.838524
 11
383.066650
 21
80.838524
  0
LINE
  8
0
  6
DASHED
 62
     2
 10
378.066650
 20
66.494804
 11
383.066650
 21
66.494804
  0
LINE
  8
0
  6
DASHED
 62
     2
 10
440.966644
 20
66.191673
 11
431.266663
 21
66.494820
  0
LINE
  8
0
  6
DASHED
 62
     2
 10
440.966675
 20
65.335655
 11
431.266663
 21
65.638794
  0
LINE
  8
0
  6
DASHED
 62
     2
 10
431.266571
 20
65.638733
 11
429.783936
 21
66.494743
  0
LINE
  8
0
  6
DASHED
 62
     2
 10
431.266663
 20
66.494804
 11
426.266663
 21
66.494804
  0
LINE
  8
0
  6
DASHED
 62
     2
 10
431.266663
 20
81.694527
 11
431.266663
 21
65.638802
  0
LINE
  8
0
  6
DASHED
 62
     2
 10
431.266663
 20
80.838524
 11
426.266663
 21
80.838524
  0
LINE
  8
0
  6
DASHED
 62
     2
 10
431.266632
 20
81.694572
 11
429.784027
 21
80.838585
  0
LINE
  8
0
  6
DASHED
 62
     2
 10
440.966644
 20
81.997665
 11
431.266663
 21
81.694527
  0
LINE
  8
0
  6
DASHED
 62
     2
 10
440.966644
 20
81.141663
 11
431.266602
 21
80.838516
  0
LINE
  8
0
  6
CENTER
 62
     2
 10
390.666656
 20
86.166664
 11
390.666656
 21
61.166664
  0
LINE
  8
0
  6
CENTER
 62
     2
 10
418.666656
 20
86.166664
 11
418.666656
 21
61.166664
  0
LINE
  8
0
  6
CENTER
 62
     2
 10
360.984528
 20
73.666664
 11
446.666656
 21
73.666664
  0
LINE
  8
0
  6
DASHED
 62
     2
 10
377.183105
 20
81.722176
 11
378.066742
 21
80.838554
  0
LINE
  8
0
  6
DASHED
 62
     2
 10
368.366669
 20
66.191681
 11
369.196716
 21
65.361633
  0
LINE
  8
0
  6
DASHED
 62
     2
 10
368.366730
 20
81.141655
 11
369.196777
 21
81.971695
  0
LINE
  8
0
  6
DASHED
 62
     2
 10
377.183105
 20
65.611176
 11
378.066711
 21
66.494781
  0
LINE
  8
0
  6
DASHED
 62
     2
 10
369.196716
 20
81.971725
 11
369.196716
 21
65.361603
  0
LINE
  8
0
  6
DASHED
 62
     2
 10
377.183044
 20
81.722137
 11
377.183044
 21
65.611191
  0
LINE
  8
0
  6
DASHED
 62
     2
 10
432.150269
 20
81.722176
 11
431.266663
 21
80.838577
  0
LINE
  8
0
  6
DASHED
 62
     2
 10
432.150269
 20
81.722137
 11
432.150269
 21
65.611191
  0
LINE
  8
0
  6
DASHED
 62
     2
 10
440.136597
 20
81.971725
 11
440.136597
 21
65.361603
  0
LINE
  8
0
  6
DASHED
 62
     2
 10
440.966736
 20
81.141708
 11
440.136688
 21
81.971771
  0
LINE
  8
0
  6
DASHED
 62
     2
 10
440.966705
 20
66.191658
 11
440.136627
 21
65.361595
  0
LINE
  8
0
  6
DASHED
 62
     2
 10
432.150238
 20
65.611168
 11
431.266632
 21
66.494774
  0
LINE
  8
0
  6
DASHED
 62
     2
 10
368.366669
 20
85.666664
 11
368.366669
 21
61.666664
  0
LINE
  8
0
  6
DASHED
 62
     2
 10
367.666656
 20
61.666664
 11
368.366669
 21
61.666664
  0
LINE
  8
0
  6
DASHED
 62
     2
 10
367.666656
 20
85.666664
 11
368.366669
 21
85.666664
  0
LINE
  8
0
  6
DASHED
 62
     2
 10
441.666656
 20
61.666664
 11
440.966644
 21
61.666664
  0
LINE
  8
0
  6
DASHED
 62
     2
 10
440.966644
 20
85.666664
 11
440.966644
 21
61.666664
  0
LINE
  8
0
  6
DASHED
 62
     2
 10
441.666656
 20
85.666664
 11
440.966644
 21
85.666664
  0
LINE
  8
0
 10
366.666656
 20
62.466663
 11
366.166656
 21
62.966663
  0
LINE
  8
0
 10
366.666687
 20
60.466648
 11
366.166656
 21
59.966637
  0
LINE
  8
0
 10
366.166656
 20
62.966656
 11
366.166656
 21
59.966656
  0
LINE
  8
0
 10
361.531525
 20
58.966644
 11
364.166656
 21
58.966644
  0
LINE
  8
0
 10
361.666656
 20
75.166641
 11
362.033997
 21
75.166641
  0
LINE
  8
0
 10
362.666656
 20
70.166641
 11
367.666656
 21
70.166641
  0
LINE
  8
0
 10
362.666656
 20
77.466644
 11
362.666656
 21
70.166656
  0
LINE
  8
0
 10
366.666656
 20
62.466656
 11
366.666656
 21
60.466656
  0
LINE
  8
0
 10
365.166656
 20
63.262516
 11
365.166656
 21
59.966656
  0
LINE
  8
0
 10
366.966675
 20
70.166656
 11
366.966675
 21
69.562103
  0
LINE
  8
0
 10
365.166687
 20
63.262512
 11
367.066650
 21
64.359467
  0
LINE
  8
0
 10
365.166656
 20
59.966644
 11
366.166656
 21
59.966644
  0
LINE
  8
0
 10
365.166656
 20
62.966644
 11
366.166656
 21
62.966644
  0
LINE
  8
0
 10
365.166656
 20
60.237144
 11
366.437134
 21
60.237144
  0
LINE
  8
0
 10
365.166656
 20
62.696144
 11
366.437134
 21
62.696144
  0
LINE
  8
0
 10
362.666656
 20
77.466644
 11
367.666656
 21
77.466644
  0
LINE
  8
0
  6
CENTER
 62
     2
 10
-235.333344
 20
303.666656
 11
-235.333344
 21
173.666656
  0
LINE
  8
0
 10
-363.333344
 20
277.666656
 11
-363.333344
 21
199.666656
  0
LINE
  8
0
 10
192.666656
 20
199.666656
 11
-145.333344
 21
199.666656
  0
LINE
  8
0
 10
192.666656
 20
202.566650
 11
-145.333344
 21
202.566650
  0
LINE
  8
0
 10
192.666656
 20
209.766632
 11
-145.333344
 21
209.766632
  0
LINE
  8
0
 10
192.666656
 20
267.566650
 11
-145.333344
 21
267.566650
  0
LINE
  8
0
 10
192.666656
 20
274.766663
 11
-145.333344
 21
274.766663
  0
LINE
  8
0
 10
192.666656
 20
277.666656
 11
-145.333344
 21
277.666656
  0
LINE
  8
0
 10
192.666656
 20
247.166656
 11
-145.333344
 21
247.166656
  0
LINE
  8
0
 10
192.666656
 20
230.166656
 11
-145.333344
 21
230.166656
  0
LINE
  8
0
 10
192.666656
 20
277.666656
 11
192.666656
 21
199.666656
  0
LINE
  8
0
  6
CENTER
 62
     2
 10
64.666626
 20
282.666656
 11
64.666626
 21
194.666656
  0
LINE
  8
0
 10
-152.333344
 20
298.666656
 11
-152.333344
 21
178.666656
  0
LINE
  8
0
 10
-318.333313
 20
298.666656
 11
-318.333313
 21
178.666656
  0
LINE
  8
0
 10
-145.333344
 20
298.666656
 11
-325.333313
 21
298.666656
  0
LINE
  8
0
 10
-145.333344
 20
178.666656
 11
-325.333313
 21
178.666656
  0
LINE
  8
0
 10
-325.333313
 20
298.666656
 11
-325.333313
 21
178.666656
  0
LINE
  8
0
 10
-145.333344
 20
298.666656
 11
-145.333344
 21
178.666656
  0
LINE
  8
0
 10
-325.333313
 20
277.666656
 11
-363.333313
 21
277.666656
  0
LINE
  8
0
 10
-325.333313
 20
274.766663
 11
-363.333313
 21
274.766663
  0
LINE
  8
0
 10
-325.333313
 20
267.566650
 11
-363.333313
 21
267.566650
  0
LINE
  8
0
 10
-325.333313
 20
247.166656
 11
-363.333313
 21
247.166656
  0
LINE
  8
0
 10
-325.333313
 20
230.166656
 11
-363.333313
 21
230.166656
  0
LINE
  8
0
 10
-325.333313
 20
209.766632
 11
-363.333313
 21
209.766632
  0
LINE
  8
0
 10
-325.333313
 20
202.566650
 11
-363.333313
 21
202.566650
  0
LINE
  8
0
 10
-325.333313
 20
199.666656
 11
-363.333313
 21
199.666656
  0
LINE
  8
0
 10
-152.333344
 20
283.666656
 11
-318.333313
 21
283.666656
  0
LINE
  8
0
  6
CENTER
 62
     2
 10
-183.333344
 20
263.666656
 11
-167.333344
 21
263.666656
  0
LINE
  8
0
  6
CENTER
 62
     2
 10
-175.333344
 20
271.666656
 11
-175.333344
 21
255.666656
  0
LINE
  8
0
  6
CENTER
 62
     2
 10
-303.333313
 20
263.666656
 11
-287.333313
 21
263.666656
  0
LINE
  8
0
  6
CENTER
 62
     2
 10
-295.333313
 20
271.666656
 11
-295.333313
 21
255.666656
  0
LINE
  8
0
  6
CENTER
 62
     2
 10
-295.333313
 20
246.666656
 11
-295.333313
 21
230.666656
  0
LINE
  8
0
  6
CENTER
 62
     2
 10
-303.333313
 20
213.666656
 11
-287.333313
 21
213.666656
  0
LINE
  8
0
  6
CENTER
 62
     2
 10
-295.333313
 20
221.666656
 11
-295.333313
 21
205.666656
  0
LINE
  8
0
  6
CENTER
 62
     2
 10
-183.333344
 20
213.666656
 11
-167.333344
 21
213.666656
  0
LINE
  8
0
  6
CENTER
 62
     2
 10
-175.333344
 20
221.666656
 11
-175.333344
 21
205.666656
  0
LINE
  8
0
  6
CENTER
 62
     2
 10
-175.333344
 20
246.666656
 11
-175.333344
 21
230.666656
  0
LINE
  8
0
 10
-152.333344
 20
193.666656
 11
-318.333313
 21
193.666656
  0
LINE
  8
0
 10
-395.333344
 20
273.666656
 11
-395.333344
 21
270.666656
  0
LINE
  8
0
 10
-393.333344
 20
201.666656
 11
-363.333344
 21
201.666656
  0
LINE
  8
0
 10
-393.333344
 20
275.666656
 11
-363.333344
 21
275.666656
  0
LINE
  8
0
 10
-393.333344
 20
253.666656
 11
-388.533356
 21
253.666656
  0
LINE
  8
0
 10
-393.333344
 20
223.666656
 11
-388.533356
 21
223.666656
  0
LINE
  8
0
 10
-387.533356
 20
273.666656
 11
-387.533356
 21
254.666656
  0
LINE
  8
0
 10
-387.533356
 20
222.666656
 11
-387.533356
 21
203.666656
  0
LINE
  8
0
 10
-388.981537
 20
255.916656
 11
-387.533356
 21
255.916656
  0
LINE
  8
0
 10
-388.981537
 20
273.416656
 11
-387.533356
 21
273.416656
  0
LINE
  8
0
 10
-395.533356
 20
218.666656
 11
-395.533356
 21
206.666656
  0
LINE
  8
0
 10
-395.333344
 20
258.666656
 11
-395.333344
 21
218.666656
  0
LINE
  8
0
 10
-388.981537
 20
255.916656
 11
-388.981537
 21
273.416656
  0
LINE
  8
0
 10
-395.533356
 20
270.666656
 11
-395.533356
 21
258.666656
  0
LINE
  8
0
 10
-395.333344
 20
206.666656
 11
-395.333344
 21
203.666656
  0
LINE
  8
0
 10
-371.033356
 20
251.666656
 11
-371.033356
 21
225.666656
  0
LINE
  8
0
 10
-369.533356
 20
253.166656
 11
-363.333344
 21
253.166656
  0
LINE
  8
0
 10
-369.533356
 20
224.166656
 11
-363.333344
 21
224.166656
  0
LINE
  8
0
 10
-368.597626
 20
247.752548
 11
-365.769196
 21
250.580978
  0
LINE
  8
0
 10
-368.597626
 20
226.752548
 11
-365.769196
 21
229.580978
  0
LINE
  8
0
 10
-368.597565
 20
229.580826
 11
-365.769135
 21
226.752396
  0
LINE
  8
0
 10
-368.597565
 20
250.580856
 11
-365.769135
 21
247.752426
  0
LINE
  8
0
 10
-395.533356
 20
270.666656
 11
-388.981537
 21
270.666656
  0
LINE
  8
0
 10
-395.533356
 20
258.666656
 11
-388.981537
 21
258.666656
  0
LINE
  8
0
 10
-395.018646
 20
264.666656
 11
-388.981537
 21
264.666656
  0
LINE
  8
0
 10
-395.533356
 20
218.666656
 11
-388.981537
 21
218.666656
  0
LINE
  8
0
 10
-395.018646
 20
212.666656
 11
-388.981537
 21
212.666656
  0
LINE
  8
0
 10
-395.533356
 20
206.666656
 11
-388.981537
 21
206.666656
  0
LINE
  8
0
 10
-388.981537
 20
203.916656
 11
-387.533356
 21
203.916656
  0
LINE
  8
0
 10
-388.981537
 20
221.416656
 11
-387.533356
 21
221.416656
  0
LINE
  8
0
 10
-388.981537
 20
203.916656
 11
-388.981537
 21
221.416656
  0
LINE
  8
0
 10
79.666809
 20
199.666656
 11
79.666809
 21
196.666656
  0
LINE
  8
0
 10
85.666809
 20
199.666656
 11
85.666809
 21
196.666656
  0
LINE
  8
0
 10
63.666809
 20
199.666656
 11
63.666809
 21
196.666656
  0
LINE
  8
0
 10
61.666809
 20
199.666656
 11
61.666809
 21
197.816620
  0
LINE
  8
0
 10
63.666809
 20
196.666656
 11
85.666809
 21
196.666656
  0
LINE
  8
0
 10
69.666809
 20
199.666656
 11
69.666809
 21
196.666656
  0
LINE
  8
0
 10
61.666809
 20
197.816620
 11
63.666809
 21
197.816620
  0
LINE
  8
0
 10
51.666809
 20
198.616608
 11
61.666809
 21
198.616608
  0
LINE
  8
0
 10
64.666809
 20
193.666656
 11
79.666809
 21
193.666656
  0
LINE
  8
0
 10
64.666809
 20
196.666656
 11
64.666809
 21
193.666656
  0
LINE
  8
0
 10
79.666809
 20
196.666656
 11
79.666809
 21
193.666656
  0
LINE
  8
0
  6
CENTER
 62
     2
 10
239.816681
 20
238.666656
 11
-408.049835
 21
238.666656
  0
LINE
  8
0
 10
224.666779
 20
273.666656
 11
224.666779
 21
270.666656
  0
LINE
  8
0
 10
222.666779
 20
201.666656
 11
192.666779
 21
201.666656
  0
LINE
  8
0
 10
222.666779
 20
275.666656
 11
192.666779
 21
275.666656
  0
LINE
  8
0
 10
222.666779
 20
253.666656
 11
217.866730
 21
253.666656
  0
LINE
  8
0
 10
222.666779
 20
223.666656
 11
217.866730
 21
223.666656
  0
LINE
  8
0
 10
216.866730
 20
273.666656
 11
216.866730
 21
254.666656
  0
LINE
  8
0
 10
216.866730
 20
222.666656
 11
216.866730
 21
203.666656
  0
LINE
  8
0
 10
219.366730
 20
271.594879
 11
219.366730
 21
257.738464
  0
LINE
  8
0
 10
218.314972
 20
255.916656
 11
216.866730
 21
255.916656
  0
LINE
  8
0
 10
218.314972
 20
273.416656
 11
216.866730
 21
273.416656
  0
LINE
  8
0
 10
219.366638
 20
271.594788
 11
218.314819
 21
273.416595
  0
LINE
  8
0
 10
219.366837
 20
257.738373
 11
218.315079
 21
255.916595
  0
LINE
  8
0
 10
224.866730
 20
218.666656
 11
224.866730
 21
206.666656
  0
LINE
  8
0
 10
224.666779
 20
258.666656
 11
224.666779
 21
218.666656
  0
LINE
  8
0
 10
218.314972
 20
255.916656
 11
218.314972
 21
273.416656
  0
LINE
  8
0
 10
224.866730
 20
270.666656
 11
224.866730
 21
258.666656
  0
LINE
  8
0
 10
224.666779
 20
206.666656
 11
224.666779
 21
203.666656
  0
LINE
  8
0
 10
200.366730
 20
251.666656
 11
200.366730
 21
225.666656
  0
LINE
  8
0
 10
198.866730
 20
253.166656
 11
192.666779
 21
253.166656
  0
LINE
  8
0
 10
198.866730
 20
224.166656
 11
192.666779
 21
224.166656
  0
LINE
  8
0
 10
197.930878
 20
247.752472
 11
195.102448
 21
250.580902
  0
LINE
  8
0
 10
197.930847
 20
226.752472
 11
195.102493
 21
229.580887
  0
LINE
  8
0
 10
197.930847
 20
229.580872
 11
195.102432
 21
226.752457
  0
LINE
  8
0
 10
197.930862
 20
250.580856
 11
195.102509
 21
247.752441
  0
LINE
  8
0
 10
205.666885
 20
239.532608
 11
204.916885
 21
239.099594
  0
LINE
  8
0
 10
206.416840
 20
238.233536
 11
205.666840
 21
237.800522
  0
LINE
  8
0
 10
204.916779
 20
239.099670
 11
204.916779
 21
238.233643
  0
LINE
  8
0
 10
206.416779
 20
239.099670
 11
206.416779
 21
238.233643
  0
LINE
  8
0
 10
205.666962
 20
237.800842
 11
204.916901
 21
238.233887
  0
LINE
  8
0
 10
206.416992
 20
239.099930
 11
205.666931
 21
239.532974
  0
LINE
  8
0
 10
211.666840
 20
239.532593
 11
210.916840
 21
239.099579
  0
LINE
  8
0
 10
212.416885
 20
239.099945
 11
211.666870
 21
239.532959
  0
LINE
  8
0
 10
212.416779
 20
239.099670
 11
212.416779
 21
238.233643
  0
LINE
  8
0
 10
212.416901
 20
238.233582
 11
211.666840
 21
237.800537
  0
LINE
  8
0
 10
211.666870
 20
237.800919
 11
210.916931
 21
238.233902
  0
LINE
  8
0
 10
210.916779
 20
239.099670
 11
210.916779
 21
238.233643
  0
LINE
  8
0
 10
224.866730
 20
270.666656
 11
219.366730
 21
270.666656
  0
LINE
  8
0
 10
224.866730
 20
258.666656
 11
219.366730
 21
258.666656
  0
LINE
  8
0
 10
224.352081
 20
264.666656
 11
219.366730
 21
264.666656
  0
LINE
  8
0
 10
224.866730
 20
218.666656
 11
219.366730
 21
218.666656
  0
LINE
  8
0
 10
224.352081
 20
212.666656
 11
219.366730
 21
212.666656
  0
LINE
  8
0
 10
224.866730
 20
206.666656
 11
219.366730
 21
206.666656
  0
LINE
  8
0
 10
218.314972
 20
203.916656
 11
216.866730
 21
203.916656
  0
LINE
  8
0
 10
218.314972
 20
221.416656
 11
216.866730
 21
221.416656
  0
LINE
  8
0
 10
219.366943
 20
219.595001
 11
218.315186
 21
221.416779
  0
LINE
  8
0
 10
218.314972
 20
203.916656
 11
218.314972
 21
221.416656
  0
LINE
  8
0
 10
219.366730
 20
219.594879
 11
219.366730
 21
205.738464
  0
LINE
  8
0
 10
219.366562
 20
205.738495
 11
218.314728
 21
203.916702
  0
LINE
  8
0
 62
     4
 10
-441.949432
 20
-259.110352
 11
-373.049438
 21
-259.110352
  0
LINE
  8
0
 62
     4
 10
-442.949432
 20
-263.610352
 11
-441.949432
 21
-263.610352
  0
LINE
  8
0
 62
     4
 10
-461.949432
 20
-263.610352
 11
-458.949432
 21
-263.610352
  0
LINE
  8
0
 62
     4
 10
-478.949432
 20
-263.610352
 11
-477.949432
 21
-263.610352
  0
LINE
  8
0
 62
     4
 10
-441.949432
 20
-253.110352
 11
-441.949432
 21
-306.610352
  0
LINE
  8
0
 62
     4
 10
-461.949432
 20
-262.610352
 11
-461.949432
 21
-271.610352
  0
LINE
  8
0
 62
     4
 10
-461.949402
 20
-262.610352
 11
-462.949402
 21
-261.610352
  0
LINE
  8
0
 62
     4
 10
-477.949432
 20
-262.610352
 11
-461.949432
 21
-262.610352
  0
LINE
  8
0
 62
     4
 10
-476.949432
 20
-261.610352
 11
-462.949432
 21
-261.610352
  0
LINE
  8
0
 62
     4
 10
-477.949463
 20
-262.610382
 11
-476.949432
 21
-261.610382
  0
LINE
  8
0
 62
     4
 10
-477.949432
 20
-262.610352
 11
-477.949432
 21
-271.610352
  0
LINE
  8
0
 62
     4
 10
-442.949432
 20
-262.610352
 11
-442.949432
 21
-271.610352
  0
LINE
  8
0
 62
     4
 10
-458.949432
 20
-262.610352
 11
-458.949432
 21
-271.610352
  0
LINE
  8
0
 62
     4
 10
-478.949432
 20
-290.610352
 11
-441.949432
 21
-290.610352
  0
LINE
  8
0
 62
     4
 10
-478.949432
 20
-271.610352
 11
-441.949432
 21
-271.610352
  0
LINE
  8
0
 62
     4
 10
-477.949432
 20
-257.318207
 11
-442.949432
 21
-257.318207
  0
LINE
  8
0
 62
     4
 10
-442.949371
 20
-262.610321
 11
-443.949371
 21
-261.610321
  0
LINE
  8
0
 62
     4
 10
-458.949432
 20
-262.610352
 11
-457.949402
 21
-261.610352
  0
LINE
  8
0
 62
     4
 10
-458.949432
 20
-262.610352
 11
-442.949432
 21
-262.610352
  0
LINE
  8
0
 62
     4
 10
-478.949432
 20
-253.110352
 11
-441.949432
 21
-253.110352
  0
LINE
  8
0
 62
     4
 10
-478.949432
 20
-306.610352
 11
-441.949432
 21
-306.610352
  0
LINE
  8
0
 62
     4
 10
-457.949432
 20
-261.610352
 11
-443.949432
 21
-261.610352
  0
LINE
  8
0
 62
     1
 10
-441.949432
 20
-279.757355
 11
-371.949432
 21
-279.757355
  0
LINE
  8
0
 62
     1
 10
-441.949432
 20
-260.463348
 11
-371.949432
 21
-260.463348
  0
LINE
  8
0
 62
     1
 10
-479.949432
 20
-260.463348
 11
-478.949432
 21
-260.463348
  0
LINE
  8
0
 62
     4
 10
-371.949371
 20
-260.210266
 11
-373.049377
 21
-259.110260
  0
LINE
  8
0
 62
     1
 10
-479.949432
 20
-279.757355
 11
-478.949432
 21
-279.757355
  0
LINE
  8
0
 62
     4
 10
-479.949432
 20
-260.110352
 11
-479.949432
 21
-280.110352
  0
LINE
  8
0
 62
     4
 10
-371.949585
 20
-280.010284
 11
-373.049591
 21
-281.110260
  0
LINE
  8
0
 62
     4
 10
-478.949402
 20
-281.110352
 11
-479.949402
 21
-280.110413
  0
LINE
  8
0
 62
     4
 10
-478.949432
 20
-259.110352
 11
-479.949432
 21
-260.110321
  0
LINE
  8
0
 62
     4
 10
-373.049438
 20
-259.110352
 11
-373.049438
 21
-281.110352
  0
LINE
  8
0
 62
     4
 10
-478.949432
 20
-253.110352
 11
-478.949432
 21
-306.610352
  0
LINE
  8
0
 62
     4
 10
-441.949432
 20
-281.110352
 11
-373.049438
 21
-281.110352
  0
LINE
  8
0
 62
     4
 10
-368.949432
 20
-260.210358
 11
-368.949432
 21
-280.010345
  0
LINE
  8
0
 62
     4
 10
-504.949432
 20
-267.110352
 11
-504.949432
 21
-273.110352
  0
LINE
  8
0
 62
     4
 10
-503.949432
 20
-274.110352
 11
-479.949432
 21
-274.110352
  0
LINE
  8
0
 62
     4
 10
-503.949432
 20
-266.110352
 11
-479.949432
 21
-266.110352
  0
LINE
  8
0
 62
     4
 10
-504.949463
 20
-267.110321
 11
-503.949493
 21
-266.110321
  0
LINE
  8
0
 62
     4
 10
-504.949402
 20
-273.110352
 11
-503.949402
 21
-274.110321
  0
LINE
  8
0
 62
     4
 10
-503.949432
 20
-266.110352
 11
-503.949432
 21
-274.110352
  0
LINE
  8
0
 62
     4
 10
-371.949432
 20
-260.210358
 11
-371.949432
 21
-280.010345
  0
LINE
  8
0
 62
     4
 10
-371.949432
 20
-280.010345
 11
-368.949432
 21
-280.010345
  0
LINE
  8
0
 62
     4
 10
-371.949432
 20
-260.210358
 11
-368.949432
 21
-260.210358
  0
LINE
  8
0
  6
CENTER
 62
     1
 10
-450.949432
 20
-249.592850
 11
-450.949432
 21
-278.345795
  0
LINE
  8
0
  6
CENTER
 62
     1
 10
-469.949432
 20
-249.784546
 11
-469.949432
 21
-277.770752
  0
LINE
  8
0
  6
CENTER
 62
     1
 10
-509.949432
 20
-270.110352
 11
-363.949432
 21
-270.110352
  0
LINE
  8
0
  6
CENTER
 62
     1
 10
-460.449432
 20
-248.059357
 11
-460.449432
 21
-323.200409
  0
LINE
  8
0
 62
     4
 10
-441.949341
 20
-80.110138
 11
-441.949341
 21
-198.110138
  0
LINE
  8
0
 62
     4
 10
-454.949280
 20
-90.800766
 11
-450.949310
 21
-88.491371
  0
LINE
  8
0
 62
     4
 10
-450.949310
 20
-88.491287
 11
-446.949310
 21
-90.800667
  0
LINE
  8
0
 62
     4
 10
-446.949310
 20
-90.800735
 11
-446.949310
 21
-95.419525
  0
LINE
  8
0
 62
     4
 10
-446.949341
 20
-95.419548
 11
-450.949341
 21
-97.728958
  0
LINE
  8
0
 62
     4
 10
-469.949341
 20
-88.491295
 11
-465.949341
 21
-90.800705
  0
LINE
  8
0
 62
     4
 10
-465.949310
 20
-90.800735
 11
-465.949310
 21
-95.419525
  0
LINE
  8
0
 62
     4
 10
-465.949341
 20
-95.419563
 11
-469.949341
 21
-97.728958
  0
LINE
  8
0
 62
     4
 10
-469.949371
 20
-97.728882
 11
-473.949341
 21
-95.419502
  0
LINE
  8
0
 62
     4
 10
-473.949280
 20
-95.419510
 11
-473.949280
 21
-90.800720
  0
LINE
  8
0
 62
     4
 10
-473.949280
 20
-90.800766
 11
-469.949310
 21
-88.491379
  0
LINE
  8
0
 62
     4
 10
-456.449371
 20
-113.419563
 11
-460.449341
 21
-115.728943
  0
LINE
  8
0
 62
     4
 10
-478.949341
 20
-80.110138
 11
-478.949341
 21
-198.110138
  0
LINE
  8
0
 62
     4
 10
-368.949341
 20
-129.210144
 11
-368.949341
 21
-149.010132
  0
LINE
  8
0
 62
     4
 10
-504.949341
 20
-136.110138
 11
-504.949341
 21
-142.110138
  0
LINE
  8
0
 62
     4
 10
-503.949341
 20
-143.110138
 11
-479.949341
 21
-143.110138
  0
LINE
  8
0
 62
     4
 10
-503.949341
 20
-135.110138
 11
-479.949341
 21
-135.110138
  0
LINE
  8
0
 62
     4
 10
-504.949341
 20
-136.110153
 11
-503.949341
 21
-135.110153
  0
LINE
  8
0
 62
     4
 10
-504.949310
 20
-142.110092
 11
-503.949310
 21
-143.110092
  0
LINE
  8
0
 62
     4
 10
-503.949341
 20
-135.110138
 11
-503.949341
 21
-143.110138
  0
LINE
  8
0
 62
     4
 10
-371.949341
 20
-129.210144
 11
-371.949341
 21
-149.010132
  0
LINE
  8
0
 62
     4
 10
-371.949341
 20
-149.010132
 11
-368.949341
 21
-149.010132
  0
LINE
  8
0
 62
     4
 10
-371.949341
 20
-129.210144
 11
-368.949341
 21
-129.210144
  0
LINE
  8
0
 62
     4
 10
-441.949341
 20
-128.110138
 11
-373.049377
 21
-128.110138
  0
LINE
  8
0
 62
     4
 10
-441.949341
 20
-150.110138
 11
-373.049347
 21
-150.110138
  0
LINE
  8
0
 62
     4
 10
-371.949310
 20
-129.210114
 11
-373.049316
 21
-128.110107
  0
LINE
  8
0
 62
     4
 10
-371.949371
 20
-149.010101
 11
-373.049377
 21
-150.110092
  0
LINE
  8
0
 62
     4
 10
-373.049377
 20
-128.110138
 11
-373.049377
 21
-150.110138
  0
LINE
  8
0
 62
     4
 10
-478.949310
 20
-128.110123
 11
-479.949310
 21
-129.110123
  0
LINE
  8
0
 62
     4
 10
-478.949310
 20
-150.110123
 11
-479.949310
 21
-149.110153
  0
LINE
  8
0
 62
     4
 10
-479.949341
 20
-129.110138
 11
-479.949341
 21
-149.110138
  0
LINE
  8
0
 62
     1
 10
-479.949341
 20
-148.757141
 11
-478.949341
 21
-148.757141
  0
LINE
  8
0
 62
     1
 10
-479.949341
 20
-129.463135
 11
-478.949341
 21
-129.463135
  0
LINE
  8
0
 62
     1
 10
-441.949341
 20
-129.463135
 11
-371.949341
 21
-129.463135
  0
LINE
  8
0
 62
     1
 10
-441.949341
 20
-148.757141
 11
-371.949341
 21
-148.757141
  0
LINE
  8
0
 62
     4
 10
-456.449310
 20
-108.800735
 11
-456.449310
 21
-113.419525
  0
LINE
  8
0
 62
     4
 10
-478.949341
 20
-198.110138
 11
-441.949341
 21
-198.110138
  0
LINE
  8
0
 62
     4
 10
-478.949341
 20
-80.110138
 11
-441.949341
 21
-80.110138
  0
LINE
  8
0
 62
     4
 10
-478.949341
 20
-120.110138
 11
-441.949341
 21
-120.110138
  0
LINE
  8
0
 62
     4
 10
-478.949341
 20
-158.110138
 11
-441.949341
 21
-158.110138
  0
LINE
  8
0
 62
     4
 10
-478.949341
 20
-176.110138
 11
-441.949341
 21
-176.110138
  0
LINE
  8
0
 62
     4
 10
-478.949341
 20
-102.110138
 11
-441.949341
 21
-102.110138
  0
LINE
  8
0
 62
     4
 10
-460.449310
 20
-106.491302
 11
-456.449341
 21
-108.800697
  0
LINE
  8
0
 62
     4
 10
-464.449280
 20
-108.800751
 11
-460.449310
 21
-106.491364
  0
LINE
  8
0
 62
     4
 10
-464.449280
 20
-113.419510
 11
-464.449280
 21
-108.800720
  0
LINE
  8
0
 62
     4
 10
-454.949310
 20
-187.419540
 11
-450.949310
 21
-189.728943
  0
LINE
  8
0
 62
     4
 10
-450.949310
 20
-189.728958
 11
-446.949341
 21
-187.419571
  0
LINE
  8
0
 62
     4
 10
-446.949310
 20
-187.419540
 11
-446.949310
 21
-182.800751
  0
LINE
  8
0
 62
     4
 10
-446.949402
 20
-182.800735
 11
-450.949371
 21
-180.491348
  0
LINE
  8
0
 62
     4
 10
-450.949341
 20
-180.491364
 11
-454.949371
 21
-182.800766
  0
LINE
  8
0
 62
     4
 10
-454.949280
 20
-182.800766
 11
-454.949280
 21
-187.419556
  0
LINE
  8
0
 62
     4
 10
-469.949371
 20
-180.491364
 11
-473.949341
 21
-182.800751
  0
LINE
  8
0
 62
     4
 10
-473.949280
 20
-182.800766
 11
-473.949280
 21
-187.419556
  0
LINE
  8
0
 62
     4
 10
-473.949310
 20
-187.419510
 11
-469.949310
 21
-189.728912
  0
LINE
  8
0
 62
     4
 10
-469.949341
 20
-189.728958
 11
-465.949371
 21
-187.419571
  0
LINE
  8
0
 62
     4
 10
-465.949310
 20
-187.419540
 11
-465.949310
 21
-182.800751
  0
LINE
  8
0
 62
     4
 10
-465.949371
 20
-182.800720
 11
-469.949371
 21
-180.491318
  0
LINE
  8
0
 62
     4
 10
-460.449371
 20
-115.728882
 11
-464.449341
 21
-113.419502
  0
LINE
  8
0
 62
     4
 10
-454.949280
 20
-95.419510
 11
-454.949280
 21
-90.800720
  0
LINE
  8
0
 62
     4
 10
-450.949371
 20
-97.728889
 11
-454.949341
 21
-95.419495
  0
LINE
  8
0
  6
CENTER
 62
     1
 10
-469.949341
 20
-173.110138
 11
-469.949341
 21
-197.110138
  0
LINE
  8
0
  6
CENTER
 62
     1
 10
-450.949341
 20
-173.110138
 11
-450.949341
 21
-197.110138
  0
LINE
  8
0
  6
CENTER
 62
     1
 10
-481.949341
 20
-185.110138
 11
-438.949341
 21
-185.110138
  0
LINE
  8
0
  6
CENTER
 62
     1
 10
-460.449341
 20
-204.091843
 11
-460.449341
 21
-74.039444
  0
LINE
  8
0
  6
CENTER
 62
     1
 10
-448.449341
 20
-111.110123
 11
-472.449341
 21
-111.110123
  0
LINE
  8
0
  6
CENTER
 62
     1
 10
-450.949341
 20
-105.110138
 11
-450.949341
 21
-81.110138
  0
LINE
  8
0
  6
CENTER
 62
     1
 10
-481.949341
 20
-93.110138
 11
-438.949341
 21
-93.110138
  0
LINE
  8
0
  6
CENTER
 62
     1
 10
-469.949341
 20
-105.110138
 11
-469.949341
 21
-81.110138
  0
LINE
  8
0
  6
CENTER
 62
     1
 10
-514.515747
 20
-139.110138
 11
-361.475891
 21
-139.110138
  0
LINE
  8
0
 62
     4
 10
-269.949463
 20
-254.610352
 11
-269.949463
 21
-263.610352
  0
LINE
  8
0
 62
     4
 10
-251.949463
 20
-262.610352
 11
-251.949463
 21
-271.610352
  0
LINE
  8
0
 62
     4
 10
-235.949463
 20
-262.610352
 11
-251.949463
 21
-262.610352
  0
LINE
  8
0
 62
     4
 10
-251.949448
 20
-262.610352
 11
-250.949463
 21
-261.610382
  0
LINE
  8
0
 62
     4
 10
-236.949463
 20
-261.610352
 11
-250.949463
 21
-261.610352
  0
LINE
  8
0
 62
     4
 10
-328.949463
 20
-284.110352
 11
-328.949463
 21
-293.110291
  0
LINE
  8
0
 62
     4
 10
-235.949478
 20
-262.610321
 11
-236.949478
 21
-261.610321
  0
LINE
  8
0
 62
     4
 10
-235.949463
 20
-262.610352
 11
-235.949463
 21
-271.610352
  0
LINE
  8
0
 62
     4
 10
-250.949463
 20
-284.110352
 11
-250.949463
 21
-293.110474
  0
LINE
  8
0
 62
     4
 10
-343.949463
 20
-262.610352
 11
-343.949463
 21
-271.610352
  0
LINE
  8
0
 62
     4
 10
-343.949463
 20
-262.610352
 11
-342.949463
 21
-261.610352
  0
LINE
  8
0
 62
     4
 10
-342.949463
 20
-261.610352
 11
-328.949463
 21
-261.610352
  0
LINE
  8
0
 62
     4
 10
-328.949493
 20
-293.110352
 11
-326.949493
 21
-294.253235
  0
LINE
  8
0
 62
     4
 10
-250.949432
 20
-293.110382
 11
-252.949432
 21
-294.253235
  0
LINE
  8
0
 62
     4
 10
-343.949463
 20
-262.610352
 11
-327.949463
 21
-262.610352
  0
LINE
  8
0
 62
     4
 10
-327.949432
 20
-262.610352
 11
-328.949432
 21
-261.610352
  0
LINE
  8
0
 62
     4
 10
-342.449463
 20
-284.110352
 11
-322.274048
 21
-284.110352
  0
LINE
  8
0
 62
     4
 10
-270.949463
 20
-258.613525
 11
-270.949463
 21
-263.610352
  0
LINE
  8
0
 62
     4
 10
-308.949463
 20
-258.613525
 11
-308.949463
 21
-263.610352
  0
LINE
  8
0
 62
     4
 10
-325.949463
 20
-263.610352
 11
-308.949463
 21
-263.610352
  0
LINE
  8
0
 62
     4
 10
-270.949463
 20
-263.610352
 11
-253.949463
 21
-263.610352
  0
LINE
  8
0
 62
     4
 10
-326.949463
 20
-264.610352
 11
-326.949463
 21
-271.610352
  0
LINE
  8
0
 62
     4
 10
-346.949463
 20
-271.610352
 11
-326.949463
 21
-271.610352
  0
LINE
  8
0
 62
     4
 10
-348.949463
 20
-273.610352
 11
-348.949463
 21
-301.610352
  0
LINE
  8
0
 62
     4
 10
-348.949463
 20
-290.610352
 11
-342.449463
 21
-290.610352
  0
LINE
  8
0
 62
     4
 10
-342.449463
 20
-284.110352
 11
-342.449463
 21
-290.610352
  0
LINE
  8
0
 62
     4
 10
-253.949478
 20
-254.610306
 11
-254.949478
 21
-253.610306
  0
LINE
  8
0
 62
     4
 10
-252.949463
 20
-264.610352
 11
-252.949463
 21
-269.110352
  0
LINE
  8
0
 62
     4
 10
-232.949463
 20
-271.610352
 11
-252.949463
 21
-271.610352
  0
LINE
  8
0
 62
     4
 10
-230.949463
 20
-273.610352
 11
-230.949463
 21
-301.610352
  0
LINE
  8
0
 62
     4
 10
-230.949463
 20
-290.610352
 11
-237.449463
 21
-290.610352
  0
LINE
  8
0
 62
     4
 10
-237.449463
 20
-284.110352
 11
-237.449463
 21
-290.610352
  0
LINE
  8
0
 62
     4
 10
-278.994904
 20
-271.110352
 11
-252.949463
 21
-271.110352
  0
LINE
  8
0
 62
     4
 10
-278.994904
 20
-269.110352
 11
-252.949463
 21
-269.110352
  0
LINE
  8
0
 62
     4
 10
-252.949463
 20
-271.110352
 11
-252.949463
 21
-271.610352
  0
LINE
  8
0
 62
     4
 10
-269.949463
 20
-254.610352
 11
-268.949432
 21
-253.610352
  0
LINE
  8
0
 62
     4
 10
-327.949463
 20
-262.610352
 11
-327.949463
 21
-271.610352
  0
LINE
  8
0
 62
     4
 10
-343.949463
 20
-306.610352
 11
-329.325623
 21
-306.610352
  0
LINE
  8
0
 62
     4
 10
-250.573471
 20
-306.610352
 11
-235.949463
 21
-306.610352
  0
LINE
  8
0
 62
     4
 10
-257.624969
 20
-284.110352
 11
-237.449463
 21
-284.110352
  0
LINE
  8
0
 62
     4
 10
-256.949463
 20
-269.110352
 11
-256.949463
 21
-271.110352
  0
LINE
  8
0
 62
     4
 10
-266.949463
 20
-269.110352
 11
-266.949463
 21
-271.110352
  0
LINE
  8
0
 62
     1
 10
-257.761475
 20
-269.110352
 11
-257.761475
 21
-271.110352
  0
LINE
  8
0
 62
     1
 10
-266.137451
 20
-269.110352
 11
-266.137451
 21
-271.110352
  0
LINE
  8
0
 62
     4
 10
-253.949463
 20
-254.610352
 11
-253.949463
 21
-263.610352
  0
LINE
  8
0
 62
     4
 10
-253.949463
 20
-254.610352
 11
-269.949463
 21
-254.610352
  0
LINE
  8
0
 62
     4
 10
-254.949463
 20
-253.610352
 11
-268.949463
 21
-253.610352
  0
LINE
  8
0
  6
CENTER
 62
     1
 10
-335.949463
 20
-256.610352
 11
-335.949463
 21
-311.610352
  0
LINE
  8
0
  6
CENTER
 62
     1
 10
-305.949341
 20
-270.110352
 11
-273.949341
 21
-270.110352
  0
LINE
  8
0
  6
CENTER
 62
     1
 10
-261.949463
 20
-248.610352
 11
-261.949463
 21
-289.110352
  0
LINE
  8
0
  6
CENTER
 62
     1
 10
-243.949463
 20
-256.610352
 11
-243.949463
 21
-311.610352
  0
LINE
  8
0
 62
     4
 10
-326.949493
 20
-294.253204
 11
-326.949493
 21
-305.891235
  0
LINE
  8
0
  6
CENTER
 62
     1
 10
-289.949341
 20
-240.434052
 11
-289.949341
 21
-301.443604
  0
LINE
  8
0
 62
     4
 10
-252.949432
 20
-294.253235
 11
-252.949432
 21
-305.891388
  0
LINE
  8
0
 62
     1
 10
-61.949387
 20
-280.298370
 11
-54.680573
 21
-280.298370
  0
LINE
  8
0
 62
     1
 10
-61.949375
 20
-259.922394
 11
-54.680546
 21
-259.922394
  0
LINE
  8
0
 62
     4
 10
-99.949409
 20
-261.110382
 11
-99.949409
 21
-279.110382
  0
LINE
  8
0
 62
     4
 10
-99.949387
 20
-279.110382
 11
-98.949387
 21
-279.110382
  0
LINE
  8
0
 62
     4
 10
-99.949371
 20
-261.110382
 11
-98.949371
 21
-261.110382
  0
LINE
  8
0
 62
     4
 10
-55.149414
 20
-281.110382
 11
-53.949417
 21
-279.031952
  0
LINE
  8
0
 62
     4
 10
-55.149406
 20
-259.110352
 11
-53.949402
 21
-261.188812
  0
LINE
  8
0
 62
     4
 10
-55.149406
 20
-259.110413
 11
-55.149406
 21
-281.110413
  0
LINE
  8
0
 62
     4
 10
-61.949371
 20
-259.110382
 11
-55.149368
 21
-259.110382
  0
LINE
  8
0
 62
     4
 10
-61.949387
 20
-281.110382
 11
-55.149384
 21
-281.110382
  0
LINE
  8
0
 62
     4
 10
-53.949409
 20
-261.188873
 11
-53.949409
 21
-279.031952
  0
LINE
  8
0
 62
     4
 10
-98.949379
 20
-271.610413
 11
-61.949379
 21
-271.610413
  0
LINE
  8
0
 62
     4
 10
-97.949371
 20
-257.318268
 11
-62.949371
 21
-257.318268
  0
LINE
  8
0
 62
     4
 10
-62.949326
 20
-262.610382
 11
-63.949326
 21
-261.610382
  0
LINE
  8
0
 62
     4
 10
-98.949409
 20
-253.110397
 11
-98.949409
 21
-306.610413
  0
LINE
  8
0
 62
     4
 10
-77.949371
 20
-261.610413
 11
-63.949375
 21
-261.610413
  0
LINE
  8
0
 62
     4
 10
-98.949402
 20
-306.610413
 11
-61.949402
 21
-306.610413
  0
LINE
  8
0
 62
     4
 10
-98.949371
 20
-253.110413
 11
-61.949371
 21
-253.110413
  0
LINE
  8
0
 62
     4
 10
-78.949379
 20
-262.610413
 11
-62.949375
 21
-262.610413
  0
LINE
  8
0
 62
     4
 10
-78.949402
 20
-262.610443
 11
-77.949371
 21
-261.610413
  0
LINE
  8
0
 62
     4
 10
-98.949394
 20
-290.610413
 11
-61.949390
 21
-290.610413
  0
LINE
  8
0
 62
     4
 10
-78.949409
 20
-262.610413
 11
-78.949409
 21
-271.610413
  0
LINE
  8
0
 62
     4
 10
-62.949375
 20
-263.610413
 11
-61.949375
 21
-263.610413
  0
LINE
  8
0
 62
     4
 10
-81.949379
 20
-263.610413
 11
-78.949379
 21
-263.610413
  0
LINE
  8
0
 62
     4
 10
-98.949379
 20
-263.610413
 11
-97.949379
 21
-263.610413
  0
LINE
  8
0
 62
     4
 10
-61.949409
 20
-253.110428
 11
-61.949409
 21
-306.610413
  0
LINE
  8
0
 62
     4
 10
-81.949409
 20
-262.610413
 11
-81.949409
 21
-271.610413
  0
LINE
  8
0
 62
     4
 10
-81.949387
 20
-262.610413
 11
-82.949379
 21
-261.610413
  0
LINE
  8
0
 62
     4
 10
-97.949379
 20
-262.610413
 11
-81.949379
 21
-262.610413
  0
LINE
  8
0
 62
     4
 10
-96.949371
 20
-261.610413
 11
-82.949371
 21
-261.610413
  0
LINE
  8
0
 62
     4
 10
-97.949356
 20
-262.610382
 11
-96.949326
 21
-261.610352
  0
LINE
  8
0
 62
     4
 10
-97.949409
 20
-262.610413
 11
-97.949409
 21
-271.610413
  0
LINE
  8
0
 62
     4
 10
-62.949409
 20
-262.610413
 11
-62.949409
 21
-271.610413
  0
LINE
  8
0
  6
CENTER
 62
     1
 10
-89.949409
 20
-253.110413
 11
-89.949409
 21
-281.197845
  0
LINE
  8
0
  6
CENTER
 62
     1
 10
-70.949409
 20
-253.110413
 11
-70.949409
 21
-280.419189
  0
LINE
  8
0
  6
CENTER
 62
     1
 10
-104.949379
 20
-270.110413
 11
-48.949379
 21
-270.110413
  0
LINE
  8
0
  6
CENTER
 62
     1
 10
-80.449409
 20
-246.157028
 11
-80.449409
 21
-318.730469
  0
LINE
  8
0
 62
     1
 10
-61.949432
 20
-149.298233
 11
-54.680634
 21
-149.298233
  0
LINE
  8
0
 62
     1
 10
-61.949432
 20
-128.922226
 11
-54.680595
 21
-128.922226
  0
LINE
  8
0
 62
     4
 10
-99.949432
 20
-148.110199
 11
-98.949432
 21
-148.110199
  0
LINE
  8
0
 62
     4
 10
-99.949432
 20
-130.110199
 11
-99.949432
 21
-148.110199
  0
LINE
  8
0
 62
     4
 10
-99.949432
 20
-130.110199
 11
-98.949432
 21
-130.110199
  0
LINE
  8
0
 62
     4
 10
-55.149422
 20
-128.110199
 11
-53.949421
 21
-130.188660
  0
LINE
  8
0
 62
     4
 10
-55.149429
 20
-128.110199
 11
-55.149429
 21
-150.110199
  0
LINE
  8
0
 62
     4
 10
-61.949432
 20
-128.110199
 11
-55.149429
 21
-128.110199
  0
LINE
  8
0
 62
     4
 10
-61.949432
 20
-150.110199
 11
-55.149429
 21
-150.110199
  0
LINE
  8
0
 62
     4
 10
-53.949432
 20
-130.188660
 11
-53.949432
 21
-148.031738
  0
LINE
  8
0
 62
     4
 10
-55.149429
 20
-150.110199
 11
-53.949425
 21
-148.031738
  0
LINE
  8
0
 62
     4
 10
-70.949478
 20
-97.728989
 11
-74.949463
 21
-95.419586
  0
LINE
  8
0
 62
     4
 10
-74.949387
 20
-95.419571
 11
-74.949387
 21
-90.800781
  0
LINE
  8
0
 62
     4
 10
-80.449471
 20
-115.728943
 11
-84.449455
 21
-113.419556
  0
LINE
  8
0
 62
     4
 10
-61.949432
 20
-80.110199
 11
-61.949432
 21
-198.110199
  0
LINE
  8
0
 62
     4
 10
-74.949387
 20
-90.800835
 11
-70.949402
 21
-88.491432
  0
LINE
  8
0
 62
     4
 10
-70.949402
 20
-88.491333
 11
-66.949417
 21
-90.800713
  0
LINE
  8
0
 62
     4
 10
-66.949402
 20
-90.800797
 11
-66.949402
 21
-95.419586
  0
LINE
  8
0
 62
     4
 10
-66.949448
 20
-95.419624
 11
-70.949432
 21
-97.729019
  0
LINE
  8
0
 62
     4
 10
-89.949425
 20
-88.491379
 11
-85.949440
 21
-90.800774
  0
LINE
  8
0
 62
     4
 10
-85.949402
 20
-90.800797
 11
-85.949402
 21
-95.419586
  0
LINE
  8
0
 62
     4
 10
-85.949432
 20
-95.419617
 11
-89.949425
 21
-97.729012
  0
LINE
  8
0
 62
     4
 10
-89.949455
 20
-97.728935
 11
-93.949440
 21
-95.419548
  0
LINE
  8
0
 62
     4
 10
-93.949387
 20
-95.419571
 11
-93.949387
 21
-90.800781
  0
LINE
  8
0
 62
     4
 10
-93.949402
 20
-90.800827
 11
-89.949425
 21
-88.491447
  0
LINE
  8
0
 62
     4
 10
-76.449440
 20
-113.419624
 11
-80.449432
 21
-115.729012
  0
LINE
  8
0
 62
     4
 10
-98.949432
 20
-80.110199
 11
-98.949432
 21
-198.110199
  0
LINE
  8
0
 62
     4
 10
-76.449402
 20
-108.800797
 11
-76.449402
 21
-113.419586
  0
LINE
  8
0
 62
     4
 10
-98.949432
 20
-198.110199
 11
-61.949432
 21
-198.110199
  0
LINE
  8
0
 62
     4
 10
-98.949432
 20
-80.110199
 11
-61.949432
 21
-80.110199
  0
LINE
  8
0
 62
     4
 10
-98.949432
 20
-120.110199
 11
-61.949432
 21
-120.110199
  0
LINE
  8
0
 62
     4
 10
-98.949432
 20
-158.110199
 11
-61.949432
 21
-158.110199
  0
LINE
  8
0
 62
     4
 10
-98.949432
 20
-176.110199
 11
-61.949432
 21
-176.110199
  0
LINE
  8
0
 62
     4
 10
-98.949432
 20
-102.110199
 11
-61.949432
 21
-102.110199
  0
LINE
  8
0
 62
     4
 10
-80.449425
 20
-106.491371
 11
-76.449440
 21
-108.800774
  0
LINE
  8
0
 62
     4
 10
-84.449394
 20
-108.800804
 11
-80.449417
 21
-106.491425
  0
LINE
  8
0
 62
     4
 10
-84.449387
 20
-113.419571
 11
-84.449387
 21
-108.800781
  0
LINE
  8
0
 62
     4
 10
-74.949409
 20
-187.419601
 11
-70.949417
 21
-189.729004
  0
LINE
  8
0
 62
     4
 10
-70.949409
 20
-189.729034
 11
-66.949425
 21
-187.419647
  0
LINE
  8
0
 62
     4
 10
-66.949402
 20
-187.419601
 11
-66.949402
 21
-182.800812
  0
LINE
  8
0
 62
     4
 10
-66.949471
 20
-182.800797
 11
-70.949455
 21
-180.491409
  0
LINE
  8
0
 62
     4
 10
-70.949455
 20
-180.491440
 11
-74.949448
 21
-182.800842
  0
LINE
  8
0
 62
     4
 10
-74.949387
 20
-182.800827
 11
-74.949387
 21
-187.419617
  0
LINE
  8
0
 62
     4
 10
-89.949463
 20
-180.491440
 11
-93.949448
 21
-182.800827
  0
LINE
  8
0
 62
     4
 10
-93.949387
 20
-182.800827
 11
-93.949387
 21
-187.419617
  0
LINE
  8
0
 62
     4
 10
-93.949394
 20
-187.419571
 11
-89.949402
 21
-189.728973
  0
LINE
  8
0
 62
     4
 10
-89.949417
 20
-189.729019
 11
-85.949432
 21
-187.419632
  0
LINE
  8
0
 62
     4
 10
-85.949402
 20
-187.419601
 11
-85.949402
 21
-182.800812
  0
LINE
  8
0
 62
     4
 10
-85.949455
 20
-182.800797
 11
-89.949448
 21
-180.491394
  0
LINE
  8
0
  6
CENTER
 62
     1
 10
-70.949432
 20
-173.110199
 11
-70.949432
 21
-197.110199
  0
LINE
  8
0
  6
CENTER
 62
     1
 10
-89.949432
 20
-173.110199
 11
-89.949432
 21
-197.110199
  0
LINE
  8
0
  6
CENTER
 62
     1
 10
-101.949432
 20
-185.110199
 11
-58.949432
 21
-185.110199
  0
LINE
  8
0
  6
CENTER
 62
     1
 10
-80.449432
 20
-204.502640
 11
-80.449432
 21
-73.995010
  0
LINE
  8
0
  6
CENTER
 62
     1
 10
-68.449432
 20
-111.110184
 11
-92.449432
 21
-111.110184
  0
LINE
  8
0
  6
CENTER
 62
     1
 10
-70.949432
 20
-105.110199
 11
-70.949432
 21
-81.110199
  0
LINE
  8
0
  6
CENTER
 62
     1
 10
-89.949432
 20
-105.110199
 11
-89.949432
 21
-81.110199
  0
LINE
  8
0
  6
CENTER
 62
     1
 10
-101.949432
 20
-93.110199
 11
-58.949432
 21
-93.110199
  0
LINE
  8
0
  6
CENTER
 62
     1
 10
-112.389221
 20
-139.110199
 11
-35.455128
 21
-139.110199
  0
LINE
  8
0
 62
     4
 10
93.050385
 20
-269.110382
 11
93.050385
 21
-271.110382
  0
LINE
  8
0
 62
     4
 10
83.050385
 20
-269.110321
 11
83.050385
 21
-271.110321
  0
LINE
  8
0
 62
     1
 10
92.238388
 20
-269.110352
 11
92.238388
 21
-271.110352
  0
LINE
  8
0
 62
     1
 10
83.862381
 20
-269.110352
 11
83.862381
 21
-271.110352
  0
LINE
  8
0
 62
     4
 10
96.050385
 20
-254.610382
 11
96.050385
 21
-263.610382
  0
LINE
  8
0
 62
     4
 10
96.050598
 20
-254.610260
 11
80.050598
 21
-254.610260
  0
LINE
  8
0
 62
     4
 10
95.050598
 20
-253.610260
 11
81.050598
 21
-253.610260
  0
LINE
  8
0
 62
     4
 10
66.050491
 20
-273.574402
 11
66.050491
 21
-266.646179
  0
LINE
  8
0
 62
     4
 10
54.050491
 20
-266.646118
 11
54.050491
 21
-273.574341
  0
LINE
  8
0
 62
     4
 10
60.050671
 20
-263.182007
 11
54.050667
 21
-266.646118
  0
LINE
  8
0
 62
     4
 10
66.050613
 20
-266.646271
 11
60.050598
 21
-263.182159
  0
LINE
  8
0
 62
     4
 10
54.050571
 20
-273.574463
 11
60.050591
 21
-277.038574
  0
LINE
  8
0
 62
     4
 10
60.050613
 20
-277.038391
 11
66.050613
 21
-273.574310
  0
LINE
  8
0
 62
     4
 10
92.374992
 20
-284.110260
 11
112.550499
 21
-284.110260
  0
LINE
  8
0
 62
     4
 10
99.426414
 20
-306.610260
 11
114.050423
 21
-306.610260
  0
LINE
  8
0
 62
     4
 10
80.050385
 20
-254.610321
 11
80.050385
 21
-263.610321
  0
LINE
  8
0
 62
     4
 10
98.050385
 20
-262.610382
 11
98.050385
 21
-271.610382
  0
LINE
  8
0
 62
     4
 10
114.050568
 20
-262.610260
 11
98.050568
 21
-262.610260
  0
LINE
  8
0
 62
     4
 10
98.050392
 20
-262.610199
 11
99.050385
 21
-261.610199
  0
LINE
  8
0
 62
     4
 10
113.050575
 20
-261.610260
 11
99.050575
 21
-261.610260
  0
LINE
  8
0
 62
     4
 10
21.050385
 20
-284.110138
 11
21.050385
 21
-293.110077
  0
LINE
  8
0
 62
     4
 10
114.050575
 20
-262.610413
 11
113.050575
 21
-261.610413
  0
LINE
  8
0
 62
     4
 10
114.050385
 20
-262.610443
 11
114.050385
 21
-271.610443
  0
LINE
  8
0
 62
     4
 10
99.050385
 20
-284.110382
 11
99.050385
 21
-293.110504
  0
LINE
  8
0
 62
     4
 10
6.050385
 20
-262.610077
 11
6.050385
 21
-271.610077
  0
LINE
  8
0
 62
     4
 10
6.050628
 20
-262.610107
 11
7.050632
 21
-261.610107
  0
LINE
  8
0
 62
     4
 10
7.050574
 20
-261.610260
 11
21.050573
 21
-261.610260
  0
LINE
  8
0
 62
     4
 10
21.050365
 20
-293.110291
 11
23.050362
 21
-294.253143
  0
LINE
  8
0
 62
     4
 10
99.050438
 20
-293.110260
 11
97.050438
 21
-294.253113
  0
LINE
  8
0
 62
     4
 10
6.050571
 20
-262.610260
 11
22.050571
 21
-262.610260
  0
LINE
  8
0
 62
     4
 10
22.050428
 20
-262.610291
 11
21.050432
 21
-261.610291
  0
LINE
  8
0
 62
     4
 10
7.550500
 20
-284.110260
 11
27.725916
 21
-284.110260
  0
LINE
  8
0
 62
     4
 10
79.050385
 20
-258.613495
 11
79.050385
 21
-263.610321
  0
LINE
  8
0
 62
     4
 10
41.050385
 20
-258.613373
 11
41.050385
 21
-263.610199
  0
LINE
  8
0
 62
     4
 10
24.050568
 20
-263.610260
 11
41.050568
 21
-263.610260
  0
LINE
  8
0
 62
     4
 10
79.050568
 20
-263.610260
 11
96.050568
 21
-263.610260
  0
LINE
  8
0
 62
     4
 10
23.050385
 20
-264.610138
 11
23.050385
 21
-271.610138
  0
LINE
  8
0
 62
     4
 10
3.050541
 20
-271.610260
 11
23.050541
 21
-271.610260
  0
LINE
  8
0
 62
     4
 10
1.050385
 20
-273.610077
 11
1.050385
 21
-301.610077
  0
LINE
  8
0
 62
     4
 10
1.050479
 20
-290.610260
 11
7.550478
 21
-290.610260
  0
LINE
  8
0
 62
     4
 10
7.550385
 20
-284.110077
 11
7.550385
 21
-290.610077
  0
LINE
  8
0
 62
     4
 10
96.050537
 20
-254.610367
 11
95.050537
 21
-253.610367
  0
LINE
  8
0
 62
     4
 10
97.050385
 20
-264.610382
 11
97.050385
 21
-269.110382
  0
LINE
  8
0
 62
     4
 10
117.050545
 20
-271.610260
 11
97.050545
 21
-271.610260
  0
LINE
  8
0
 62
     4
 10
119.050385
 20
-273.610443
 11
119.050385
 21
-301.610443
  0
LINE
  8
0
 62
     4
 10
119.050476
 20
-290.610260
 11
112.550476
 21
-290.610260
  0
LINE
  8
0
 62
     4
 10
112.550385
 20
-284.110443
 11
112.550385
 21
-290.610443
  0
LINE
  8
0
 62
     4
 10
71.005104
 20
-271.110260
 11
97.050545
 21
-271.110260
  0
LINE
  8
0
 62
     4
 10
71.005112
 20
-269.110260
 11
97.050552
 21
-269.110260
  0
LINE
  8
0
 62
     4
 10
97.050385
 20
-271.110382
 11
97.050385
 21
-271.610382
  0
LINE
  8
0
 62
     4
 10
80.050476
 20
-254.610199
 11
81.050468
 21
-253.610214
  0
LINE
  8
0
 62
     4
 10
22.050385
 20
-262.610138
 11
22.050385
 21
-271.610138
  0
LINE
  8
0
 62
     4
 10
6.050426
 20
-306.610260
 11
20.674282
 21
-306.610260
  0
LINE
  8
0
  6
CENTER
 62
     1
 10
14.050385
 20
-256.610107
 11
14.050385
 21
-311.610107
  0
LINE
  8
0
  6
CENTER
 62
     1
 10
44.050652
 20
-270.110260
 11
76.050652
 21
-270.110260
  0
LINE
  8
0
  6
CENTER
 62
     1
 10
88.050385
 20
-248.610352
 11
88.050385
 21
-289.110352
  0
LINE
  8
0
  6
CENTER
 62
     1
 10
106.050385
 20
-256.610413
 11
106.050385
 21
-311.610413
  0
LINE
  8
0
 62
     4
 10
23.050354
 20
-294.253021
 11
23.050354
 21
-305.891022
  0
LINE
  8
0
  6
CENTER
 62
     1
 10
60.050491
 20
-248.731308
 11
60.050491
 21
-300.195129
  0
LINE
  8
0
 62
     4
 10
97.050430
 20
-294.253265
 11
97.050430
 21
-305.891418
  0
LINE
  8
0
 62
     4
 10
307.774811
 20
-150.131897
 11
307.774811
 21
-161.531891
  0
LINE
  8
0
 62
     4
 10
306.974762
 20
-162.331924
 11
307.774780
 21
-161.531906
  0
LINE
  8
0
 62
     4
 10
306.974854
 20
-149.331879
 11
307.774841
 21
-150.131866
  0
LINE
  8
0
 62
     4
 10
306.974792
 20
-149.331909
 11
306.974792
 21
-162.331909
  0
LINE
  8
0
 62
     4
 10
299.774811
 20
-149.331909
 11
306.974792
 21
-149.331909
  0
LINE
  8
0
 62
     4
 10
299.774811
 20
-162.331909
 11
306.974792
 21
-162.331909
  0
LINE
  8
0
 62
     4
 10
327.774811
 20
-165.831909
 11
327.774811
 21
-169.831909
  0
LINE
  8
0
 62
     4
 10
302.774811
 20
-165.831909
 11
327.774811
 21
-165.831909
  0
LINE
  8
0
 62
     4
 10
295.774811
 20
-145.831909
 11
299.774811
 21
-145.831909
  0
LINE
  8
0
 62
     4
 10
299.774811
 20
-145.831909
 11
299.774811
 21
-162.831909
  0
LINE
  8
0
 62
     4
 10
302.774811
 20
-169.831909
 11
327.774811
 21
-169.831909
  0
LINE
  8
0
 62
     4
 10
295.774811
 20
-145.831909
 11
295.774811
 21
-162.831909
  0
LINE
  8
0
  6
CENTER
 62
     1
 10
282.774811
 20
-155.831909
 11
312.774811
 21
-155.831909
  0
LINE
  8
0
  6
CENTER
 62
     1
 10
317.774811
 20
-160.831909
 11
317.774811
 21
-174.831909
  0
LINE
  8
0
  6
DASHED
 62
     1
 10
313.274811
 20
-165.831909
 11
313.274811
 21
-169.831909
  0
LINE
  8
0
  6
DASHED
 62
     1
 10
322.274811
 20
-165.831909
 11
322.274811
 21
-169.831909
  0
LINE
  8
0
 62
     4
 10
464.774872
 20
-152.368057
 11
461.774872
 21
-154.100113
  0
LINE
  8
0
 62
     4
 10
461.774811
 20
-157.563950
 11
464.774811
 21
-159.296005
  0
LINE
  8
0
 62
     4
 10
412.774597
 20
-159.296097
 11
409.774567
 21
-157.564041
  0
LINE
  8
0
 62
     4
 10
412.774658
 20
-152.367889
 11
415.774658
 21
-154.099945
  0
LINE
  8
0
 62
     4
 10
456.774811
 20
-165.831848
 11
456.774811
 21
-169.831848
  0
LINE
  8
0
 62
     4
 10
420.774811
 20
-165.831787
 11
420.774811
 21
-169.831787
  0
LINE
  8
0
 62
     4
 10
415.774811
 20
-154.099701
 11
415.774811
 21
-157.563812
  0
LINE
  8
0
 62
     4
 10
461.774811
 20
-154.099823
 11
461.774811
 21
-157.563934
  0
LINE
  8
0
 62
     4
 10
415.774933
 20
-157.564133
 11
412.774933
 21
-159.296188
  0
LINE
  8
0
 62
     4
 10
474.774719
 20
-169.831818
 11
402.774719
 21
-169.831818
  0
LINE
  8
0
 62
     4
 10
474.774780
 20
-145.831818
 11
456.774780
 21
-145.831818
  0
LINE
  8
0
 62
     4
 10
474.774719
 20
-165.831818
 11
402.774719
 21
-165.831818
  0
LINE
  8
0
 62
     4
 10
474.774811
 20
-145.831879
 11
474.774811
 21
-169.831879
  0
LINE
  8
0
 62
     4
 10
402.774811
 20
-145.831757
 11
402.774811
 21
-169.831757
  0
LINE
  8
0
 62
     4
 10
420.774780
 20
-145.831818
 11
402.774780
 21
-145.831818
  0
LINE
  8
0
 62
     4
 10
409.774811
 20
-157.563812
 11
409.774811
 21
-154.099701
  0
LINE
  8
0
 62
     4
 10
409.774933
 20
-154.099960
 11
412.774933
 21
-152.367905
  0
LINE
  8
0
 62
     4
 10
464.774933
 20
-159.296234
 11
467.774933
 21
-157.564178
  0
LINE
  8
0
 62
     4
 10
467.774811
 20
-157.563934
 11
467.774811
 21
-154.099823
  0
LINE
  8
0
 62
     4
 10
467.774780
 20
-154.099838
 11
464.774811
 21
-152.367798
  0
LINE
  8
0
  6
CENTER
 62
     1
 10
412.774811
 20
-145.831757
 11
412.774811
 21
-174.831757
  0
LINE
  8
0
  6
CENTER
 62
     1
 10
422.774750
 20
-155.831818
 11
402.774750
 21
-155.831818
  0
LINE
  8
0
  6
DASHED
 62
     1
 10
408.274811
 20
-165.831757
 11
408.274811
 21
-169.831757
  0
LINE
  8
0
  6
DASHED
 62
     1
 10
417.274811
 20
-165.831787
 11
417.274811
 21
-169.831787
  0
LINE
  8
0
  6
CENTER
 62
     1
 10
454.774750
 20
-155.831818
 11
474.774750
 21
-155.831818
  0
LINE
  8
0
  6
CENTER
 62
     1
 10
464.774811
 20
-145.831879
 11
464.774811
 21
-174.831879
  0
LINE
  8
0
  6
DASHED
 62
     1
 10
460.274811
 20
-165.831848
 11
460.274811
 21
-169.831848
  0
LINE
  8
0
  6
DASHED
 62
     1
 10
469.274811
 20
-165.831879
 11
469.274811
 21
-169.831879
  0
LINE
  8
0
 62
     4
 10
221.823792
 20
-314.038483
 11
296.823792
 21
-314.038483
  0
LINE
  8
0
 62
     4
 10
221.823792
 20
-324.038483
 11
296.823792
 21
-324.038483
  0
LINE
  8
0
 62
     4
 10
296.823792
 20
-314.038483
 11
296.823792
 21
-324.038483
  0
LINE
  8
0
 62
     4
 10
221.823792
 20
-314.038483
 11
221.823792
 21
-324.038483
  0
LINE
  8
0
  6
DASHED
 62
     1
 10
227.323792
 20
-314.038483
 11
227.323792
 21
-324.038483
  0
LINE
  8
0
  6
CENTER
 62
     1
 10
231.823792
 20
-309.038483
 11
231.823792
 21
-329.038483
  0
LINE
  8
0
  6
DASHED
 62
     1
 10
236.323792
 20
-314.038483
 11
236.323792
 21
-324.038483
  0
LINE
  8
0
  6
DASHED
 62
     1
 10
282.323792
 20
-314.038483
 11
282.323792
 21
-324.038483
  0
LINE
  8
0
  6
CENTER
 62
     1
 10
286.823792
 20
-309.038483
 11
286.823792
 21
-329.038483
  0
LINE
  8
0
  6
DASHED
 62
     1
 10
291.323792
 20
-314.038483
 11
291.323792
 21
-324.038483
  0
LINE
  8
0
 62
     4
 10
394.323792
 20
-315.538513
 11
394.323792
 21
-324.038513
  0
LINE
  8
0
 62
     4
 10
414.323792
 20
-315.538513
 11
414.323792
 21
-318.838501
  0
LINE
  8
0
 62
     4
 10
410.323792
 20
-318.133209
 11
410.323792
 21
-324.038513
  0
LINE
  8
0
 62
     4
 10
414.323761
 20
-318.838562
 11
410.323761
 21
-318.133240
  0
LINE
  8
0
 62
     4
 10
412.823792
 20
-314.038513
 11
395.823792
 21
-314.038513
  0
LINE
  8
0
 62
     4
 10
410.323792
 20
-324.038513
 11
394.323792
 21
-324.038513
  0
LINE
  8
0
 62
     4
 10
504.323792
 20
-315.538513
 11
504.323792
 21
-324.038513
  0
LINE
  8
0
 62
     4
 10
484.323792
 20
-315.538513
 11
484.323792
 21
-318.838501
  0
LINE
  8
0
 62
     4
 10
488.323792
 20
-318.133209
 11
488.323792
 21
-324.038513
  0
LINE
  8
0
  6
DASHED
 62
     1
 10
406.823792
 20
-314.038513
 11
406.823792
 21
-324.038513
  0
LINE
  8
0
 62
     4
 10
485.823792
 20
-314.038513
 11
502.823792
 21
-314.038513
  0
LINE
  8
0
 62
     4
 10
488.323792
 20
-324.038513
 11
504.323792
 21
-324.038513
  0
LINE
  8
0
  6
DASHED
 62
     1
 10
397.823792
 20
-314.038513
 11
397.823792
 21
-324.038513
  0
LINE
  8
0
  6
CENTER
 62
     1
 10
402.323792
 20
-309.038513
 11
402.323792
 21
-329.038513
  0
LINE
  8
0
 62
     4
 10
484.323822
 20
-318.838593
 11
488.323822
 21
-318.133301
  0
LINE
  8
0
  6
DASHED
 62
     1
 10
491.823792
 20
-314.038513
 11
491.823792
 21
-324.038513
  0
LINE
  8
0
  6
CENTER
 62
     1
 10
496.323792
 20
-309.038513
 11
496.323792
 21
-329.038513
  0
LINE
  8
0
  6
DASHED
 62
     1
 10
500.823792
 20
-314.038513
 11
500.823792
 21
-324.038513
  0
LINE
  8
0
 10
-363.333313
 20
110.666687
 11
-363.333313
 21
33.666687
  0
LINE
  8
0
 10
-363.333313
 20
33.666687
 11
192.666687
 21
33.666687
  0
LINE
  8
0
 10
-363.333313
 20
39.866684
 11
192.666687
 21
39.866684
  0
LINE
  8
0
 10
-363.333313
 20
41.417198
 11
192.666687
 21
41.417198
  0
LINE
  8
0
 10
-363.333313
 20
44.666687
 11
192.666687
 21
44.666687
  0
LINE
  8
0
 10
-363.333313
 20
62.966686
 11
-258.333313
 21
62.966686
  0
LINE
  8
0
 10
-363.333313
 20
66.966690
 11
-258.333313
 21
66.966690
  0
LINE
  8
0
 10
-363.333313
 20
79.266693
 11
-325.333313
 21
79.266693
  0
LINE
  8
0
 10
-363.333313
 20
94.235413
 11
-325.333313
 21
94.235413
  0
LINE
  8
0
 10
-363.333313
 20
99.053528
 11
-325.333313
 21
99.053528
  0
LINE
  8
0
 10
-363.333313
 20
108.666687
 11
-325.333313
 21
108.666687
  0
LINE
  8
0
  6
CENTER
 62
     2
 10
-235.333344
 20
145.666687
 11
-235.333344
 21
28.666687
  0
LINE
  8
0
 10
-152.333344
 20
140.666687
 11
-152.333344
 21
76.666687
  0
LINE
  8
0
 10
-318.333313
 20
140.666687
 11
-318.333313
 21
76.666687
  0
LINE
  8
0
 10
-325.333313
 20
140.166687
 11
-325.333313
 21
76.666687
  0
LINE
  8
0
 10
-145.333344
 20
140.166687
 11
-145.333344
 21
76.666687
  0
LINE
  8
0
 10
-325.333313
 20
86.735886
 11
-145.333344
 21
86.735886
  0
LINE
  8
0
 10
-325.333313
 20
76.666687
 11
-145.333344
 21
76.666687
  0
LINE
  8
0
 10
-325.333313
 20
140.166687
 11
-145.333344
 21
140.166687
  0
LINE
  8
0
 10
-318.333313
 20
140.666687
 11
-152.333344
 21
140.666687
  0
LINE
  8
0
 10
-145.333344
 20
79.266693
 11
192.666687
 21
79.266693
  0
LINE
  8
0
 10
-145.333344
 20
94.235413
 11
192.666687
 21
94.235413
  0
LINE
  8
0
 10
-145.333344
 20
99.053528
 11
192.666687
 21
99.053528
  0
LINE
  8
0
 10
-145.333344
 20
108.666687
 11
192.666687
 21
108.666687
  0
LINE
  8
0
 10
-318.333313
 20
126.666687
 11
-152.333344
 21
126.666687
  0
LINE
  8
0
 10
192.666687
 20
110.666687
 11
192.666687
 21
33.666687
  0
LINE
  8
0
  6
CENTER
 62
     2
 10
64.666687
 20
113.366684
 11
64.666687
 21
28.666687
  0
LINE
  8
0
  6
CENTER
 62
     2
 10
-400.333313
 20
73.666687
 11
241.013733
 21
73.666687
  0
LINE
  8
0
 10
-395.333313
 20
108.666687
 11
-395.333313
 21
105.971710
  0
LINE
  8
0
 10
-393.333313
 20
36.666687
 11
-363.333313
 21
36.666687
  0
LINE
  8
0
 10
-393.333313
 20
110.666687
 11
-363.333313
 21
110.666687
  0
LINE
  8
0
 10
-387.533325
 20
108.666687
 11
-387.533325
 21
89.666687
  0
LINE
  8
0
 10
-393.333313
 20
58.666687
 11
-388.533325
 21
58.666687
  0
LINE
  8
0
 10
-393.333313
 20
88.666687
 11
-388.533325
 21
88.666687
  0
LINE
  8
0
 10
-387.533325
 20
57.666687
 11
-387.533325
 21
38.666687
  0
LINE
  8
0
 10
-395.533325
 20
105.625275
 11
-395.533325
 21
93.708084
  0
LINE
  8
0
 10
-388.981506
 20
90.916687
 11
-388.981506
 21
108.416687
  0
LINE
  8
0
 10
-394.973541
 20
106.594894
 11
-388.981506
 21
106.594894
  0
LINE
  8
0
 10
-394.945435
 20
103.130791
 11
-388.981506
 21
103.130791
  0
LINE
  8
0
 10
-394.945465
 20
96.202591
 11
-388.981506
 21
96.202591
  0
LINE
  8
0
 10
-394.973541
 20
92.738487
 11
-388.981506
 21
92.738487
  0
LINE
  8
0
 10
-388.981506
 20
90.916687
 11
-387.533325
 21
90.916687
  0
LINE
  8
0
 10
-388.981506
 20
108.416687
 11
-387.533325
 21
108.416687
  0
LINE
  8
0
 10
-395.533325
 20
53.625282
 11
-395.533325
 21
41.708092
  0
LINE
  8
0
 10
-388.981506
 20
38.916687
 11
-388.981506
 21
56.416687
  0
LINE
  8
0
 10
-394.973541
 20
54.594894
 11
-388.981506
 21
54.594894
  0
LINE
  8
0
 10
-394.945435
 20
51.130783
 11
-388.981506
 21
51.130783
  0
LINE
  8
0
 10
-394.945465
 20
44.202591
 11
-388.981506
 21
44.202591
  0
LINE
  8
0
 10
-394.973541
 20
40.738487
 11
-388.981506
 21
40.738487
  0
LINE
  8
0
 10
-388.981506
 20
38.916687
 11
-387.533325
 21
38.916687
  0
LINE
  8
0
 10
-388.981506
 20
56.416687
 11
-387.533325
 21
56.416687
  0
LINE
  8
0
 10
-395.333313
 20
93.361656
 11
-395.333313
 21
53.971718
  0
LINE
  8
0
 10
-395.333313
 20
41.361664
 11
-395.333313
 21
38.666687
  0
LINE
  8
0
 10
-382.333374
 20
78.285484
 11
-378.333344
 21
75.976082
  0
LINE
  8
0
 10
-386.333344
 20
71.357239
 11
-382.333344
 21
69.047836
  0
LINE
  8
0
 10
-386.333374
 20
75.976105
 11
-382.333344
 21
78.285507
  0
LINE
  8
0
 10
-382.333344
 20
69.047920
 11
-378.333344
 21
71.357307
  0
LINE
  8
0
 10
-378.333313
 20
75.976089
 11
-378.333313
 21
71.357285
  0
LINE
  8
0
 10
-386.333313
 20
75.976089
 11
-386.333313
 21
71.357285
  0
LINE
  8
0
 10
-373.194977
 20
83.242401
 11
-368.432617
 21
91.491035
  0
LINE
  8
0
 10
-374.234131
 20
83.842400
 11
-369.471802
 21
92.091026
  0
LINE
  8
0
  6
CENTER
 62
     2
 10
-382.333313
 20
89.666687
 11
-382.333313
 21
57.666687
  0
LINE
  8
0
 10
-395.533356
 20
105.625282
 11
-394.973541
 21
106.594894
  0
LINE
  8
0
 10
-395.533325
 20
93.708092
 11
-394.973541
 21
92.738495
  0
LINE
  8
0
 10
-395.533325
 20
41.708073
 11
-394.973511
 21
40.738461
  0
LINE
  8
0
 10
-395.533325
 20
41.708099
 11
-395.533325
 21
53.625290
  0
LINE
  8
0
 10
-395.533295
 20
53.625256
 11
-394.973511
 21
54.594883
  0
LINE
  8
0
 10
-237.333313
 20
76.666687
 11
-237.333313
 21
70.666687
  0
LINE
  8
0
 10
-243.333313
 20
70.666687
 11
-237.333313
 21
70.666687
  0
LINE
  8
0
 10
-271.333313
 20
72.466644
 11
-261.333313
 21
72.466644
  0
LINE
  8
0
 10
-261.333313
 20
76.666687
 11
-261.333313
 21
71.666641
  0
LINE
  8
0
 10
-258.333313
 20
75.666687
 11
-243.333313
 21
75.666687
  0
LINE
  8
0
 10
-258.333313
 20
59.466690
 11
-243.333313
 21
59.466690
  0
LINE
  8
0
 10
-258.333313
 20
75.666687
 11
-258.333313
 21
59.466690
  0
LINE
  8
0
 10
-261.333313
 20
71.666641
 11
-259.333313
 21
71.666641
  0
LINE
  8
0
 10
-251.583313
 20
61.533691
 11
-250.833313
 21
61.100677
  0
LINE
  8
0
 10
-250.833298
 20
61.100643
 11
-250.083298
 21
61.533657
  0
LINE
  8
0
 10
-250.083313
 20
61.533676
 11
-250.083313
 21
62.399696
  0
LINE
  8
0
 10
-250.083298
 20
62.399734
 11
-250.833298
 21
62.832748
  0
LINE
  8
0
 10
-250.833237
 20
62.832645
 11
-251.583237
 21
62.399632
  0
LINE
  8
0
 10
-251.583313
 20
62.399704
 11
-251.583313
 21
61.533684
  0
LINE
  8
0
 10
-259.333313
 20
70.666687
 11
-258.333313
 21
70.666687
  0
LINE
  8
0
 10
-271.333313
 20
75.866638
 11
-261.333313
 21
75.866638
  0
LINE
  8
0
 10
-243.333313
 20
76.666687
 11
-243.333313
 21
59.466690
  0
LINE
  8
0
 10
-253.333313
 20
76.666687
 11
-253.333313
 21
75.666687
  0
LINE
  8
0
 10
-259.333313
 20
76.666687
 11
-259.333313
 21
70.666687
  0
LINE
  8
0
 10
-363.333313
 20
75.666687
 11
-271.414337
 21
75.666687
  0
LINE
  8
0
 10
79.666687
 20
66.966690
 11
192.666687
 21
66.966690
  0
LINE
  8
0
 10
79.666687
 20
62.966686
 11
192.666687
 21
62.966686
  0
LINE
  8
0
 10
85.666687
 20
77.666687
 11
85.666687
 21
70.666687
  0
LINE
  8
0
 10
79.666687
 20
70.666687
 11
85.666687
 21
70.666687
  0
LINE
  8
0
 10
51.666687
 20
72.466644
 11
61.666687
 21
72.466644
  0
LINE
  8
0
 10
61.666687
 20
76.666641
 11
61.666687
 21
71.666641
  0
LINE
  8
0
 10
64.666687
 20
75.666687
 11
79.666687
 21
75.666687
  0
LINE
  8
0
 10
64.666687
 20
59.466690
 11
79.666687
 21
59.466690
  0
LINE
  8
0
 10
64.666687
 20
75.666687
 11
64.666687
 21
59.466690
  0
LINE
  8
0
 10
61.666687
 20
71.666641
 11
63.666687
 21
71.666641
  0
LINE
  8
0
 10
71.416687
 20
61.533691
 11
72.166695
 21
61.100677
  0
LINE
  8
0
 10
72.166718
 20
61.100647
 11
72.916718
 21
61.533661
  0
LINE
  8
0
 10
72.916687
 20
61.533676
 11
72.916687
 21
62.399696
  0
LINE
  8
0
 10
72.916710
 20
62.399742
 11
72.166702
 21
62.832756
  0
LINE
  8
0
 10
72.166763
 20
62.832649
 11
71.416756
 21
62.399635
  0
LINE
  8
0
 10
71.416687
 20
62.399704
 11
71.416687
 21
61.533684
  0
LINE
  8
0
 10
63.666687
 20
70.666687
 11
64.666687
 21
70.666687
  0
LINE
  8
0
 10
51.666687
 20
75.866638
 11
61.666687
 21
75.866638
  0
LINE
  8
0
 10
79.666687
 20
77.666687
 11
79.666687
 21
59.466690
  0
LINE
  8
0
 10
69.666687
 20
77.666687
 11
69.666687
 21
75.666687
  0
LINE
  8
0
 10
63.666687
 20
77.666687
 11
63.666687
 21
70.666687
  0
LINE
  8
0
 10
-243.333313
 20
66.966690
 11
64.666687
 21
66.966690
  0
LINE
  8
0
 10
-243.333313
 20
62.966686
 11
64.666687
 21
62.966686
  0
LINE
  8
0
 10
-237.333313
 20
75.666687
 11
51.585663
 21
75.666687
  0
LINE
  8
0
 10
63.666687
 20
77.666687
 11
85.666687
 21
77.666687
  0
LINE
  8
0
 10
61.666687
 20
76.666641
 11
63.666687
 21
76.666641
  0
LINE
  8
0
 10
85.666687
 20
75.666687
 11
192.666687
 21
75.666687
  0
LINE
  8
0
 10
224.666687
 20
108.666687
 11
224.666687
 21
105.971710
  0
LINE
  8
0
 10
222.666687
 20
36.666687
 11
192.666687
 21
36.666687
  0
LINE
  8
0
 10
222.666687
 20
110.666687
 11
192.666687
 21
110.666687
  0
LINE
  8
0
 10
216.866699
 20
108.666687
 11
216.866699
 21
89.666687
  0
LINE
  8
0
 10
222.666687
 20
58.666687
 11
217.866699
 21
58.666687
  0
LINE
  8
0
 10
222.666687
 20
88.666687
 11
217.866699
 21
88.666687
  0
LINE
  8
0
 10
216.866699
 20
57.666687
 11
216.866699
 21
38.666687
  0
LINE
  8
0
 10
219.366287
 20
92.738670
 11
218.314545
 21
90.916893
  0
LINE
  8
0
 10
219.366501
 20
106.594749
 11
218.314667
 21
108.416550
  0
LINE
  8
0
 10
224.866699
 20
105.625275
 11
224.866699
 21
93.708084
  0
LINE
  8
0
 10
218.314880
 20
90.916687
 11
218.314880
 21
108.416687
  0
LINE
  8
0
 10
224.306885
 20
106.594894
 11
219.366699
 21
106.594894
  0
LINE
  8
0
 10
224.278809
 20
103.130783
 11
219.366699
 21
103.130783
  0
LINE
  8
0
 10
224.278809
 20
96.202591
 11
219.366699
 21
96.202591
  0
LINE
  8
0
 10
224.306885
 20
92.738480
 11
219.366699
 21
92.738480
  0
LINE
  8
0
 10
219.366699
 20
106.594910
 11
219.366699
 21
92.738480
  0
LINE
  8
0
 10
218.314880
 20
90.916687
 11
216.866699
 21
90.916687
  0
LINE
  8
0
 10
218.314880
 20
108.416687
 11
216.866699
 21
108.416687
  0
LINE
  8
0
 10
219.367050
 20
40.738293
 11
218.315155
 21
38.916462
  0
LINE
  8
0
 10
219.366806
 20
54.594894
 11
218.315018
 21
56.416718
  0
LINE
  8
0
 10
224.866699
 20
53.625275
 11
224.866699
 21
41.708099
  0
LINE
  8
0
 10
218.314880
 20
38.916687
 11
218.314880
 21
56.416687
  0
LINE
  8
0
 10
224.306885
 20
54.594894
 11
219.366699
 21
54.594894
  0
LINE
  8
0
 10
224.278809
 20
51.130783
 11
219.366699
 21
51.130783
  0
LINE
  8
0
 10
224.278809
 20
44.202591
 11
219.366699
 21
44.202591
  0
LINE
  8
0
 10
224.306885
 20
40.738495
 11
219.366699
 21
40.738495
  0
LINE
  8
0
 10
219.366699
 20
54.594910
 11
219.366699
 21
40.738495
  0
LINE
  8
0
 10
218.314880
 20
38.916687
 11
216.866699
 21
38.916687
  0
LINE
  8
0
 10
218.314880
 20
56.416687
 11
216.866699
 21
56.416687
  0
LINE
  8
0
 10
224.666687
 20
93.361664
 11
224.666687
 21
53.971710
  0
LINE
  8
0
 10
224.666687
 20
41.361664
 11
224.666687
 21
38.666687
  0
LINE
  8
0
 10
211.666733
 20
78.285416
 11
207.666702
 21
75.975998
  0
LINE
  8
0
 10
215.666733
 20
71.357269
 11
211.666687
 21
69.047874
  0
LINE
  8
0
 10
215.666809
 20
75.976189
 11
211.666840
 21
78.285576
  0
LINE
  8
0
 10
211.666779
 20
69.047928
 11
207.666809
 21
71.357323
  0
LINE
  8
0
 10
207.666687
 20
75.976089
 11
207.666687
 21
71.357285
  0
LINE
  8
0
 10
215.666687
 20
75.976089
 11
215.666687
 21
71.357285
  0
LINE
  8
0
 10
197.765991
 20
83.842262
 11
202.528320
 21
92.090927
  0
LINE
  8
0
 10
198.805054
 20
83.242363
 11
203.567413
 21
91.490974
  0
LINE
  8
0
  6
CENTER
 62
     2
 10
211.666687
 20
89.666687
 11
211.666687
 21
57.666687
  0
LINE
  8
0
 10
224.866959
 20
105.625450
 11
224.307159
 21
106.595024
  0
LINE
  8
0
 10
224.866669
 20
93.708145
 11
224.306854
 21
92.738525
  0
LINE
  8
0
 10
224.866745
 20
41.708065
 11
224.306946
 21
40.738468
  0
LINE
  8
0
 10
224.866699
 20
41.708099
 11
224.866699
 21
53.625290
  0
LINE
  8
0
 10
224.866394
 20
53.625114
 11
224.306580
 21
54.594742
  0
ARC
  8
0
 10
421.666656
 20
33.666664
 40
3.000000
 50
0.000000
 51
90.000000
  0
ARC
  8
0
 10
439.966644
 20
39.518883
 40
0.299988
 50
180.000000
 51
279.999878
  0
ARC
  8
0
 10
443.366669
 20
39.509140
 40
0.299988
 50
0.000000
 51
99.999878
  0
ARC
  8
0
 10
443.366669
 20
33.966667
 40
0.299999
 50
270.000000
 51
0.000000
  0
ARC
  8
0
 10
441.866669
 20
45.466667
 40
0.800005
 50
225.985291
 51
0.000000
  0
ARC
  8
0
 10
439.366669
 20
41.183388
 40
0.299988
 50
0.000000
 51
23.994150
  0
ARC
  8
0
 10
443.166656
 20
79.084686
 40
0.500000
 50
0.000000
 51
39.999893
  0
ARC
  8
0
 10
443.366669
 20
75.966660
 40
0.300003
 50
270.000000
 51
0.000000
  0
ARC
  8
0
 10
441.866669
 20
62.166664
 40
0.799988
 50
0.000000
 51
104.478348
  0
ARC
  8
0
 10
387.666656
 20
33.666664
 40
3.000000
 50
90.000000
 51
180.000000
  0
ARC
  8
0
 10
365.966644
 20
33.966667
 40
0.299988
 50
180.000000
 51
270.000000
  0
ARC
  8
0
 10
365.966644
 20
39.509140
 40
0.299998
 50
80.000122
 51
180.000000
  0
ARC
  8
0
 10
369.366669
 20
39.518883
 40
0.299998
 50
260.000122
 51
0.000000
  0
ARC
  8
0
 10
369.966644
 20
41.183388
 40
0.300002
 50
156.005844
 51
180.000000
  0
ARC
  8
0
 10
367.466644
 20
45.466667
 40
0.799988
 50
180.000000
 51
314.014709
  0
ARC
  8
0
 10
367.466644
 20
62.166664
 40
0.800004
 50
75.521652
 51
180.000000
  0
ARC
  8
0
 10
366.166656
 20
79.084686
 40
0.500004
 50
140.000107
 51
180.000000
  0
ARC
  8
0
 10
367.644714
 20
100.345795
 40
0.199999
 50
73.594055
 51
139.998535
  0
ARC
  8
0
 10
367.387604
 20
100.039375
 40
0.199990
 50
139.998535
 51
229.996582
  0
ARC
  8
0
 10
367.245392
 20
99.636536
 40
0.199990
 50
319.998535
 51
49.996586
  0
CIRCLE
  8
0
 10
378.666656
 20
99.666664
 40
3.400000
  0
CIRCLE
  8
0
 10
378.666656
 20
47.666664
 40
3.400000
  0
CIRCLE
  8
0
 10
430.666656
 20
47.666664
 40
3.400000
  0
CIRCLE
  8
0
 10
430.666656
 20
47.666664
 40
8.750000
  0
CIRCLE
  8
0
 10
430.666656
 20
99.666664
 40
8.750000
  0
CIRCLE
  8
0
 10
418.666656
 20
73.666664
 40
7.475000
  0
CIRCLE
  8
0
 62
     2
 10
430.666656
 20
47.666664
 40
4.000000
  0
CIRCLE
  8
0
 62
     2
 10
390.666656
 20
73.666664
 40
8.331000
  0
CIRCLE
  8
0
 62
     2
 10
430.666656
 20
99.666664
 40
4.000000
  0
CIRCLE
  8
0
 62
     2
 10
418.666656
 20
73.666664
 40
8.331000
  0
CIRCLE
  8
0
 62
     2
 10
378.666656
 20
47.666664
 40
4.000000
  0
CIRCLE
  8
0
 10
430.666656
 20
99.666664
 40
3.400000
  0
CIRCLE
  8
0
 10
378.666656
 20
99.666664
 40
8.750000
  0
CIRCLE
  8
0
 62
     2
 10
378.666656
 20
99.666664
 40
4.000000
  0
CIRCLE
  8
0
 10
390.666656
 20
73.666664
 40
7.475000
  0
CIRCLE
  8
0
 10
378.666656
 20
47.666664
 40
8.750000
  0
ARC
  8
0
 10
378.666656
 20
99.666664
 40
11.000000
 50
90.000000
 51
179.999954
  0
ARC
  8
0
 10
430.666656
 20
99.666664
 40
11.000000
 50
0.000000
 51
90.000000
  0
ARC
  8
0
 10
378.666656
 20
47.666664
 40
11.000000
 50
179.999985
 51
270.000000
  0
ARC
  8
0
 10
430.666656
 20
47.666664
 40
11.000000
 50
270.000000
 51
0.000000
  0
ARC
  8
0
 10
378.666656
 20
99.666664
 40
11.000000
 50
270.000000
 51
0.000000
  0
ARC
  8
0
 10
430.666656
 20
99.666664
 40
11.000000
 50
180.000000
 51
270.000000
  0
ARC
  8
0
 10
430.666656
 20
47.666664
 40
11.000000
 50
90.000000
 51
179.999954
  0
ARC
  8
0
 10
378.666656
 20
47.666664
 40
11.000000
 50
0.000000
 51
90.000000
  0
ARC
  8
0
 10
391.666656
 20
108.666664
 40
2.000000
 50
90.000000
 51
180.000000
  0
ARC
  8
0
 10
369.666656
 20
86.666664
 40
2.000000
 50
90.000000
 51
180.000000
  0
ARC
  8
0
 10
369.666656
 20
60.666664
 40
2.000000
 50
180.000000
 51
270.000000
  0
ARC
  8
0
 10
439.666656
 20
60.666664
 40
2.000000
 50
270.000000
 51
0.000000
  0
ARC
  8
0
 10
439.666656
 20
86.666664
 40
2.000000
 50
0.000000
 51
90.000000
  0
ARC
  8
0
 10
417.666656
 20
108.666664
 40
2.000000
 50
0.000000
 51
90.000000
  0
ARC
  8
0
 10
391.666656
 20
38.666664
 40
2.000000
 50
180.000000
 51
270.000000
  0
ARC
  8
0
 10
417.666656
 20
38.666664
 40
2.000000
 50
270.000000
 51
0.000000
  0
CIRCLE
  8
0
 10
378.666656
 20
99.666664
 40
6.000000
  0
CIRCLE
  8
0
 10
430.666656
 20
99.666664
 40
6.000000
  0
CIRCLE
  8
0
 10
430.666656
 20
47.666664
 40
6.000000
  0
CIRCLE
  8
0
 10
378.666656
 20
47.666664
 40
6.000000
  0
ARC
  8
0
 10
347.666656
 20
137.166656
 40
3.000000
 50
90.000000
 51
180.000000
  0
ARC
  8
0
 10
461.666656
 20
137.166656
 40
3.000000
 50
0.000000
 51
90.000000
  0
ARC
  8
0
 10
367.466644
 20
63.666660
 40
0.800000
 50
75.521584
 51
119.999580
  0
ARC
  8
0
 10
363.733337
 20
73.666656
 40
2.266673
 50
118.072807
 51
241.927200
  0
ARC
  8
0
 10
361.666656
 20
73.166664
 40
2.000000
 50
90.000000
 51
180.000000
  0
ARC
  8
0
 10
364.166656
 20
59.966656
 40
1.000000
 50
270.000000
 51
0.000000
  0
ARC
  8
0
 10
368.266663
 20
68.466660
 40
1.699990
 50
139.880600
 51
249.332504
  0
ARC
  8
0
 10
366.568542
 20
63.763844
 40
3.300002
 50
70.146065
 51
70.563499
  0
ARC
  8
0
 10
449.663025
 20
72.369690
 40
90.000000
 50
179.481125
 51
188.010788
  0
ARC
  8
0
 10
361.531525
 20
59.966660
 40
0.999992
 50
188.010788
 51
270.000000
  0
ARC
  8
0
 10
442.764771
 20
63.763844
 40
3.299999
 50
109.436501
 51
109.853935
  0
CIRCLE
  8
0
 62
     2
 10
-175.333344
 20
263.666656
 40
4.000000
  0
CIRCLE
  8
0
 10
-175.333344
 20
263.666656
 40
3.400000
  0
CIRCLE
  8
0
 62
     2
 10
-295.333313
 20
263.666656
 40
4.000000
  0
CIRCLE
  8
0
 10
-295.333313
 20
263.666656
 40
3.400000
  0
CIRCLE
  8
0
 62
     2
 10
-295.333313
 20
238.666656
 40
4.000000
  0
CIRCLE
  8
0
 10
-295.333313
 20
238.666656
 40
3.400000
  0
CIRCLE
  8
0
 62
     2
 10
-295.333313
 20
213.666656
 40
4.000000
  0
CIRCLE
  8
0
 10
-295.333313
 20
213.666656
 40
3.400000
  0
CIRCLE
  8
0
 62
     2
 10
-175.333344
 20
213.666656
 40
4.000000
  0
CIRCLE
  8
0
 10
-175.333344
 20
213.666656
 40
3.400000
  0
CIRCLE
  8
0
 62
     2
 10
-175.333344
 20
238.666656
 40
4.000000
  0
CIRCLE
  8
0
 10
-175.333344
 20
238.666656
 40
3.400000
  0
ARC
  8
0
 10
-393.333344
 20
273.666656
 40
2.000000
 50
90.000000
 51
180.000000
  0
ARC
  8
0
 10
-393.333344
 20
203.666656
 40
2.000000
 50
180.000000
 51
270.000000
  0
ARC
  8
0
 10
-385.533356
 20
273.666656
 40
2.000000
 50
90.000000
 51
180.000000
  0
ARC
  8
0
 10
-393.333344
 20
251.666656
 40
2.000000
 50
90.000000
 51
180.000000
  0
ARC
  8
0
 10
-393.333344
 20
225.666656
 40
2.000000
 50
180.000000
 51
270.000000
  0
ARC
  8
0
 10
-385.533356
 20
203.666656
 40
2.000000
 50
180.000000
 51
270.000000
  0
ARC
  8
0
 10
-388.533356
 20
254.666656
 40
1.000000
 50
270.000000
 51
0.000000
  0
ARC
  8
0
 10
-388.533356
 20
222.666656
 40
1.000000
 50
0.000000
 51
90.000000
  0
CIRCLE
  8
0
 10
-367.183350
 20
249.166656
 40
3.000000
  0
CIRCLE
  8
0
 10
-367.183350
 20
228.166656
 40
3.000000
  0
ARC
  8
0
 10
-369.533356
 20
251.666656
 40
1.500000
 50
90.000000
 51
180.000000
  0
ARC
  8
0
 10
-369.533356
 20
225.666656
 40
1.500000
 50
180.000000
 51
270.000000
  0
CIRCLE
  8
0
 10
-382.333344
 20
238.666656
 40
1.500000
  0
CIRCLE
  8
0
 10
-376.333344
 20
238.666656
 40
1.500000
  0
CIRCLE
  8
0
 62
     2
 10
-382.333344
 20
238.666656
 40
1.250000
  0
CIRCLE
  8
0
 62
     2
 10
-376.333344
 20
238.666656
 40
1.250000
  0
ARC
  8
0
 10
-386.533356
 20
267.666656
 40
9.000009
 50
160.528793
 51
199.471207
  0
ARC
  8
0
 10
-386.533356
 20
261.666656
 40
9.000009
 50
160.528793
 51
199.471207
  0
ARC
  8
0
 10
-386.533356
 20
215.666656
 40
9.000009
 50
160.528793
 51
199.471207
  0
ARC
  8
0
 10
-386.533356
 20
209.666656
 40
9.000009
 50
160.528793
 51
199.471115
  0
ARC
  8
0
 10
49.856415
 20
199.466614
 40
2.000003
 50
334.849182
 51
5.740399
  0
ARC
  8
0
 10
82.666809
 20
197.733322
 40
2.266666
 50
208.072464
 51
331.927521
  0
ARC
  8
0
 10
215.866730
 20
209.666656
 40
9.000004
 50
340.528900
 51
19.471233
  0
ARC
  8
0
 10
222.666779
 20
273.666656
 40
2.000000
 50
0.000000
 51
90.000000
  0
ARC
  8
0
 10
222.666779
 20
203.666656
 40
2.000000
 50
270.000000
 51
0.000000
  0
ARC
  8
0
 10
214.866730
 20
273.666656
 40
2.000000
 50
0.000000
 51
90.000000
  0
ARC
  8
0
 10
222.666779
 20
251.666656
 40
2.000000
 50
0.000000
 51
90.000000
  0
ARC
  8
0
 10
222.666779
 20
225.666656
 40
2.000000
 50
270.000000
 51
0.000000
  0
ARC
  8
0
 10
214.866730
 20
203.666656
 40
2.000000
 50
270.000000
 51
0.000000
  0
ARC
  8
0
 10
217.866730
 20
254.666656
 40
1.000000
 50
180.000000
 51
270.000000
  0
ARC
  8
0
 10
217.866730
 20
222.666656
 40
1.000000
 50
90.000000
 51
180.000000
  0
CIRCLE
  8
0
 10
196.516754
 20
249.166656
 40
3.000000
  0
CIRCLE
  8
0
 10
196.516754
 20
228.166656
 40
3.000000
  0
ARC
  8
0
 10
198.866730
 20
251.666656
 40
1.500000
 50
0.000000
 51
90.000000
  0
ARC
  8
0
 10
198.866730
 20
225.666656
 40
1.500000
 50
270.000000
 51
0.000000
  0
CIRCLE
  8
0
 10
211.666779
 20
238.666656
 40
1.500000
  0
CIRCLE
  8
0
 10
205.666779
 20
238.666656
 40
1.500000
  0
CIRCLE
  8
0
 62
     2
 10
211.666779
 20
238.666656
 40
1.250000
  0
CIRCLE
  8
0
 62
     2
 10
205.666779
 20
238.666656
 40
1.250000
  0
ARC
  8
0
 10
215.866730
 20
267.666656
 40
8.999994
 50
340.528778
 51
19.471201
  0
ARC
  8
0
 10
215.866730
 20
261.666656
 40
9.000009
 50
340.528809
 51
19.471233
  0
ARC
  8
0
 10
215.866730
 20
215.666656
 40
8.999994
 50
340.528778
 51
19.471109
  0
CIRCLE
  8
0
 62
     4
 10
-469.949341
 20
-93.110138
 40
8.000000
  0
CIRCLE
  8
0
 62
     4
 10
-450.949341
 20
-93.110138
 40
8.000000
  0
CIRCLE
  8
0
 62
     4
 10
-460.449341
 20
-111.110138
 40
8.000000
  0
CIRCLE
  8
0
 62
     4
 10
-450.949341
 20
-185.110138
 40
8.000000
  0
CIRCLE
  8
0
 62
     4
 10
-469.949341
 20
-185.110138
 40
8.000000
  0
ARC
  8
0
 62
     4
 10
-235.949463
 20
-301.610352
 40
5.000000
 50
270.000000
 51
0.000000
  0
ARC
  8
0
 62
     4
 10
-343.949463
 20
-301.610352
 40
5.000000
 50
180.000000
 51
270.000000
  0
ARC
  8
0
 62
     4
 10
-232.949463
 20
-273.610352
 40
2.000000
 50
0.000000
 51
90.000000
  0
ARC
  8
0
 62
     4
 10
-253.949463
 20
-264.610352
 40
1.000000
 50
0.000000
 51
90.000000
  0
ARC
  8
0
 62
     4
 10
-346.949463
 20
-273.610352
 40
2.000000
 50
90.000000
 51
180.000000
  0
ARC
  8
0
 62
     4
 10
-325.949463
 20
-264.610352
 40
1.000000
 50
90.000000
 51
180.000000
  0
ARC
  8
0
 62
     4
 10
-306.949463
 20
-258.613525
 40
1.999997
 50
113.287216
 51
180.000000
  0
ARC
  8
0
 62
     4
 10
-272.949463
 20
-258.613525
 40
2.000000
 50
0.000000
 51
66.712784
  0
ARC
  8
0
 62
     4
 10
-289.949463
 20
-298.110352
 40
45.000000
 50
66.712250
 51
113.287750
  0
CIRCLE
  8
0
 62
     4
 10
-289.949341
 20
-270.110352
 40
9.900000
  0
CIRCLE
  8
0
 62
     1
 10
-289.949341
 20
-270.110352
 40
11.000000
  0
ARC
  8
0
 62
     4
 10
-251.949448
 20
-308.061798
 40
2.000002
 50
46.528984
 51
84.821205
  0
ARC
  8
0
 62
     4
 10
-250.866318
 20
-296.110748
 40
10.000010
 50
257.976685
 51
264.821503
  0
ARC
  8
0
 62
     4
 10
-329.032532
 20
-296.110596
 40
10.000014
 50
275.178497
 51
282.023315
  0
ARC
  8
0
 62
     4
 10
-327.949432
 20
-308.061615
 40
2.000015
 50
95.178284
 51
133.478439
  0
CIRCLE
  8
0
 62
     4
 10
-89.949432
 20
-185.110199
 40
8.000000
  0
CIRCLE
  8
0
 62
     4
 10
-70.949432
 20
-185.110199
 40
8.000000
  0
CIRCLE
  8
0
 62
     4
 10
-80.449432
 20
-111.110199
 40
8.000000
  0
CIRCLE
  8
0
 62
     4
 10
-70.949432
 20
-93.110199
 40
8.000000
  0
CIRCLE
  8
0
 62
     4
 10
-89.949432
 20
-93.110199
 40
8.000000
  0
CIRCLE
  8
0
 62
     1
 10
60.050652
 20
-270.110260
 40
10.188000
  0
ARC
  8
0
 62
     4
 10
22.050451
 20
-308.061401
 40
2.000015
 50
95.178337
 51
133.478592
  0
ARC
  8
0
 62
     4
 10
20.967407
 20
-296.110382
 40
10.000013
 50
275.178436
 51
282.023315
  0
ARC
  8
0
 62
     4
 10
99.133606
 20
-296.110779
 40
10.000012
 50
257.976654
 51
264.821564
  0
ARC
  8
0
 62
     4
 10
98.050438
 20
-308.061829
 40
2.000002
 50
46.528984
 51
84.821419
  0
CIRCLE
  8
0
 62
     4
 10
60.050652
 20
-270.110260
 40
11.000000
  0
ARC
  8
0
 62
     4
 10
60.050453
 20
-298.110260
 40
44.999996
 50
66.712265
 51
113.287750
  0
ARC
  8
0
 62
     4
 10
77.050583
 20
-258.613495
 40
2.000000
 50
0.000000
 51
66.712387
  0
ARC
  8
0
 62
     4
 10
43.050583
 20
-258.613373
 40
2.000003
 50
113.287613
 51
180.000000
  0
ARC
  8
0
 62
     4
 10
24.050564
 20
-264.610138
 40
1.000000
 50
90.000000
 51
180.000000
  0
ARC
  8
0
 62
     4
 10
3.050535
 20
-273.610077
 40
2.000000
 50
89.999977
 51
180.000000
  0
ARC
  8
0
 62
     4
 10
96.050568
 20
-264.610382
 40
1.000000
 50
0.000000
 51
90.000000
  0
ARC
  8
0
 62
     4
 10
117.050537
 20
-273.610443
 40
2.000000
 50
0.000000
 51
90.000000
  0
ARC
  8
0
 62
     4
 10
6.050442
 20
-301.610077
 40
5.000000
 50
180.000000
 51
270.000031
  0
ARC
  8
0
 62
     4
 10
114.050446
 20
-301.610443
 40
5.000000
 50
270.000000
 51
0.000000
  0
ARC
  8
0
 62
     4
 10
302.774811
 20
-162.831909
 40
3.000000
 50
180.000000
 51
270.000000
  0
ARC
  8
0
 62
     4
 10
302.774811
 20
-162.831909
 40
7.000000
 50
180.000000
 51
270.000000
  0
ARC
  8
0
 62
     4
 10
438.774811
 20
-132.331818
 40
22.500000
 50
216.869904
 51
323.130096
  0
CIRCLE
  8
0
 62
     4
 10
464.774750
 20
-155.831879
 40
6.500000
  0
CIRCLE
  8
0
 62
     4
 10
412.774750
 20
-155.831757
 40
6.500000
  0
ARC
  8
0
 62
     4
 10
412.823792
 20
-315.538513
 40
1.500000
 50
0.000000
 51
90.000000
  0
ARC
  8
0
 62
     4
 10
395.823792
 20
-315.538513
 40
1.500000
 50
90.000000
 51
180.000000
  0
ARC
  8
0
 62
     4
 10
502.823792
 20
-315.538513
 40
1.500000
 50
0.000000
 51
90.000000
  0
ARC
  8
0
 62
     4
 10
485.823792
 20
-315.538513
 40
1.500000
 50
90.000000
 51
180.000000
  0
CIRCLE
  8
0
 62
     2
 10
-382.333313
 20
73.666687
 40
7.475000
  0
CIRCLE
  8
0
 10
-382.333313
 20
73.666687
 40
8.331000
  0
CIRCLE
  8
0
 10
-382.333313
 20
73.666687
 40
12.000000
  0
CIRCLE
  8
0
 10
-371.333313
 20
87.666687
 40
4.800000
  0
ARC
  8
0
 10
-393.333313
 20
86.666687
 40
2.000000
 50
90.000000
 51
180.000000
  0
ARC
  8
0
 10
-393.333313
 20
60.666687
 40
2.000000
 50
180.000000
 51
270.000000
  0
ARC
  8
0
 10
-385.533325
 20
38.666687
 40
2.000000
 50
180.000000
 51
270.000000
  0
ARC
  8
0
 10
-385.533325
 20
108.666687
 40
2.000000
 50
90.000000
 51
180.000000
  0
ARC
  8
0
 10
-388.533325
 20
89.666687
 40
1.000000
 50
270.000000
 51
0.000000
  0
ARC
  8
0
 10
-388.533325
 20
57.666687
 40
1.000000
 50
0.000000
 51
90.000000
  0
ARC
  8
0
 10
-393.333313
 20
108.666687
 40
2.000000
 50
90.000000
 51
180.000000
  0
ARC
  8
0
 10
-393.333313
 20
38.666687
 40
2.000000
 50
180.000000
 51
270.000000
  0
ARC
  8
0
 10
-385.033325
 20
99.666687
 40
10.499994
 50
160.736435
 51
199.263519
  0
ARC
  8
0
 10
-392.687866
 20
104.862839
 40
2.845458
 50
142.503799
 51
217.496078
  0
ARC
  8
0
 10
-392.687866
 20
94.470535
 40
2.845458
 50
142.503799
 51
217.496078
  0
ARC
  8
0
 10
-392.687866
 20
42.470535
 40
2.845456
 50
142.503860
 51
217.496078
  0
ARC
  8
0
 10
-385.033325
 20
47.666687
 40
10.499996
 50
160.736404
 51
199.263504
  0
ARC
  8
0
 10
-392.687866
 20
52.862839
 40
2.845456
 50
142.503860
 51
217.496140
  0
ARC
  8
0
 10
-269.522919
 20
75.016640
 40
2.000006
 50
154.849472
 51
205.150528
  0
ARC
  8
0
 10
-273.143707
 20
73.316643
 40
2.000006
 50
334.849457
 51
25.150532
  0
ARC
  8
0
 10
-240.333313
 20
74.166641
 40
2.000000
 50
0.001311
 51
0.000000
  0
CIRCLE
  8
0
 10
-250.833313
 20
61.966690
 40
1.500000
  0
ARC
  8
0
 62
     2
 10
53.477081
 20
75.016640
 40
1.999999
 50
154.849380
 51
205.150620
  0
ARC
  8
0
 62
     2
 10
49.856293
 20
73.316643
 40
1.999999
 50
334.849365
 51
25.150625
  0
CIRCLE
  8
0
 10
82.666687
 20
74.166641
 40
2.000000
  0
CIRCLE
  8
0
 10
72.166687
 20
61.966690
 40
1.500000
  0
ARC
  8
0
 10
222.021240
 20
52.862839
 40
2.845456
 50
322.503845
 51
37.496147
  0
CIRCLE
  8
0
 62
     2
 10
211.666687
 20
73.666687
 40
7.475000
  0
CIRCLE
  8
0
 10
211.666687
 20
73.666687
 40
8.331000
  0
CIRCLE
  8
0
 10
211.666687
 20
73.666687
 40
12.000000
  0
CIRCLE
  8
0
 10
200.666687
 20
87.666687
 40
4.800000
  0
ARC
  8
0
 10
222.666687
 20
86.666687
 40
2.000000
 50
0.000000
 51
90.000000
  0
ARC
  8
0
 10
222.666687
 20
60.666687
 40
2.000000
 50
270.000000
 51
0.000000
  0
ARC
  8
0
 10
214.866699
 20
38.666687
 40
2.000000
 50
270.000000
 51
0.000000
  0
ARC
  8
0
 10
214.866699
 20
108.666687
 40
2.000000
 50
0.000000
 51
90.000000
  0
ARC
  8
0
 10
217.866699
 20
89.666687
 40
1.000000
 50
180.000000
 51
270.000000
  0
ARC
  8
0
 10
217.866699
 20
57.666687
 40
1.000000
 50
90.000000
 51
180.000000
  0
ARC
  8
0
 10
222.666687
 20
108.666687
 40
2.000000
 50
0.000000
 51
90.000000
  0
ARC
  8
0
 10
222.666687
 20
38.666687
 40
2.000000
 50
270.000000
 51
0.000000
  0
ARC
  8
0
 10
214.366699
 20
99.666687
 40
10.499994
 50
340.736450
 51
19.263494
  0
ARC
  8
0
 10
222.021240
 20
104.862839
 40
2.845458
 50
322.503784
 51
37.496086
  0
ARC
  8
0
 10
222.021240
 20
94.470535
 40
2.845454
 50
322.503906
 51
37.496208
  0
ARC
  8
0
 10
222.021240
 20
42.470535
 40
2.845456
 50
322.503845
 51
37.496147
  0
ARC
  8
0
 10
214.366699
 20
47.666687
 40
10.500007
 50
340.736481
 51
19.263561
  0
TEXT
  8
0
 10
-516.695007
 20
362.543701
 40
12.727922
  1
ORK SERIES
 50
0.000000
 41
1.052632
 51
0.000000
  7
STANDARD
  0
TEXT
  8
0
 10
342.157104
 20
-388.615875
 40
17.677671
  1
KOGANEI CORP.
 50
0.000000
 41
1.052632
 51
0.000000
  7
STANDARD
  0
TEXT
  8
0
 10
355.238373
 20
362.543701
 40
12.727922
  1
DATE: Apr ,1994
 50
0.000000
 41
1.052632
 51
0.000000
  7
STANDARD
  0
TEXT
  8
0
 10
-544.272156
 20
316.581757
 40
12.727922
  1
MODEL:ORK 50X300
 50
0.000000
 41
1.052632
 51
0.000000
  7
STANDARD
  0
TEXT
  8
0
 10
-436.153687
 20
-34.953560
 40
9.000000
  1
S-ABSORBER(-K)
 50
0.000000
 41
1.052632
 51
0.000000
  7
STANDARD
  0
TEXT
  8
0
 10
-48.646832
 20
-34.953564
 40
9.000000
  1
A-BOLT(-S)
 50
0.000000
 41
1.052632
 51
0.000000
  7
STANDARD
  0
TEXT
  8
0
 10
310.360046
 20
-34.953560
 40
9.000000
  1
L-SUPPORT(-L)
 50
0.000000
 41
1.052632
 51
0.000000
  7
STANDARD
  0
TEXT
  8
0
 10
310.360046
 20
-220.468597
 40
9.000000
  1
F-SUPPORT(-F)
 50
0.000000
 41
1.052632
 51
0.000000
  7
STANDARD
  0
ENDSEC
  0
EOF
