  0
SECTION
  2
HEADER
  0
ENDSEC
  0
SECTION
  2
TABLES
  0
TABLE
  2
LTYPE
 70
     4
  0
LTYPE
  2
CONTINUOUS
 70
    64
  3
Solid line
 72
    65
 73
     0
 40
0.000000
  0
LTYPE
  2
DASHED
 70
    64
  3
__ __ __ __ __ __ __ __ __ __ __ __ __ __ __
 72
    65
 73
     2
 40
3.500000
 49
2.000000
 49
-1.500000
  0
LTYPE
  2
CENTER
 70
    64
  3
____ _ ____ _ ____ _ ____ _ ____ _ ____ _ ____
 72
    65
 73
     4
 40
17.500000
 49
13.000000
 49
-1.500000
 49
1.500000
 49
-1.500000
  0
LTYPE
  2
PHANTOM
 70
    64
  3
_____ _ _ _____ _ _ _____ _ _ _____ _ _ ____  
 72
    65
 73
     6
 40
15.500000
 49
8.000000
 49
-1.500000
 49
1.500000
 49
-1.500000
 49
1.500000
 49
-1.500000
  0
LTYPE
  2
DASHED1
 70
    64
  3
__ __ __ __ __ __ __ __ __ __ __ __ __ __ __
 72
    65
 73
     2
 40
1.500000
 49
1.000000
 49
-0.500000
  0
LTYPE
  2
DASHED2
 70
    64
  3
__ __ __ __ __ __ __ __ __ __ __ __ __ __ __
 72
    65
 73
     2
 40
3.500000
 49
2.500000
 49
-1.000000
  0
LTYPE
  2
DASHED3
 70
    64
  3
__ __ __ __ __ __ __ __ __ __ __ __ __ __ __
 72
    65
 73
     2
 40
6.000000
 49
4.000000
 49
-2.000000
  0
LTYPE
  2
DASHED4
 70
    64
  3
__ __ __ __ __ __ __ __ __ __ __ __ __ __ __
 72
    65
 73
     2
 40
12.000000
 49
10.000000
 49
-2.000000
  0
LTYPE
  2
DASHED5
 70
    64
  3
__ __ __ __ __ __ __ __ __ __ __ __ __ __ __
 72
    65
 73
     2
 40
17.000000
 49
15.000000
 49
-2.000000
  0
LTYPE
  2
DASHED6
 70
    64
  3
__ __ __ __ __ __ __ __ __ __ __ __ __ __ __
 72
    65
 73
     2
 40
29.000000
 49
27.000000
 49
-2.000000
  0
LTYPE
  2
PHANTOM1
 70
    64
  3
_____ _ _ _____ _ _ _____ _ _ _____ _ _ ____  
 72
    65
 73
     6
 40
31.000000
 49
25.000000
 49
-1.500000
 49
1.000000
 49
-1.000000
 49
1.000000
 49
-1.500000
  0
LTYPE
  2
PHANTOM2
 70
    64
  3
_____ _ _ _____ _ _ _____ _ _ _____ _ _ ____  
 72
    65
 73
     6
 40
36.000000
 49
27.000000
 49
-1.500000
 49
2.500000
 49
-1.000000
 49
2.500000
 49
-1.500000
  0
LTYPE
  2
PHANTOM3
 70
    64
  3
_____ _ _ _____ _ _ _____ _ _ _____ _ _ ____  
 72
    65
 73
     6
 40
78.000000
 49
64.000000
 49
-2.000000
 49
4.000000
 49
-2.000000
 49
4.000000
 49
-2.000000
  0
LTYPE
  2
CENTER1
 70
    64
  3
____ _ ____ _ ____ _ ____ _ ____ _ ____ _ ____
 72
    65
 73
     4
 40
19.000000
 49
14.000000
 49
-1.000000
 49
3.000000
 49
-1.000000
  0
LTYPE
  2
CENTER2
 70
    64
  3
____ _ ____ _ ____ _ ____ _ ____ _ ____ _ ____
 72
    65
 73
     4
 40
28.500000
 49
25.000000
 49
-1.000000
 49
1.500000
 49
-1.000000
  0
LTYPE
  2
CENTER3
 70
    64
  3
____ _ ____ _ ____ _ ____ _ ____ _ ____ _ ____
 72
    65
 73
     4
 40
31.500000
 49
27.000000
 49
-1.000000
 49
2.500000
 49
-1.000000
  0
LTYPE
  2
CENTER4
 70
    64
  3
____ _ ____ _ ____ _ ____ _ ____ _ ____ _ ____
 72
    65
 73
     4
 40
50.000000
 49
45.000000
 49
-1.000000
 49
3.000000
 49
-1.000000
  0
LTYPE
  2
CENTER5
 70
    64
  3
____ _ ____ _ ____ _ ____ _ ____ _ ____ _ ____
 72
    65
 73
     4
 40
100.000000
 49
92.000000
 49
-2.000000
 49
4.000000
 49
-2.000000
  0
LTYPE
  2
SBK1
 70
    64
  3
______ _ _ _ ______ _ _ _ ______ _ _ _ _____  
 72
    65
 73
     8
 40
60.500000
 49
45.000000
 49
-2.000000
 49
2.500000
 49
-2.000000
 49
2.500000
 49
-2.000000
 49
2.500000
 49
-2.000000
  0
LTYPE
  2
SBK2
 70
    64
  3
______ _ _ _ ______ _ _ _ ______ _ _ _ _____  
 72
    65
 73
     8
 40
84.000000
 49
64.000000
 49
-2.000000
 49
4.000000
 49
-2.000000
 49
4.000000
 49
-2.000000
 49
4.000000
 49
-2.000000
  0
LTYPE
  2
STCH
 70
    64
  3
__ __ __ __ __ __ __ __ __ __ __ __ __ __ __
 72
    65
 73
     2
 40
3.000000
 49
1.000000
 49
-2.000000
  0
LTYPE
  2
MTCH
 70
    64
  3
_____ _ _ _____ _ _ _____ _ _ _____ _ _ ____  
 72
    65
 73
     6
 40
80.000000
 49
66.000000
 49
-2.000000
 49
4.000000
 49
-2.000000
 49
4.000000
 49
-2.000000
  0
ENDTAB
  0
TABLE
  2
LAYER
 70
     1
  0
LAYER
  2
0
 70
     0
 62
     7
  6
CONTINUOUS
  0
ENDTAB
  0
TABLE
  2
STYLE
 70
     1
  0
STYLE
  2
STANDARD
 70
     0
 40
0.000000
 41
1.000000
 50
0.000000
 71
     0
 42
0.200000
  3
txt
  4
BIGFONT
  0
ENDTAB
  0
TABLE
  2
VIEW
 70
     0
  0
ENDTAB
  0
ENDSEC
  0
SECTION
  2
BLOCKS
  0
ENDSEC
  0
SECTION
  2
ENTITIES
  0
LINE
  8
0
 10
90.274994
 20
-145.250000
 11
399.799988
 21
-145.250000
  0
LINE
  8
0
 10
90.274994
 20
-20.250000
 11
90.274994
 21
-276.750000
  0
LINE
  8
0
 10
-149.487503
 20
-20.250000
 11
-149.487503
 21
-276.750000
  0
LINE
  8
0
 10
-399.250000
 20
-20.250000
 11
399.799988
 21
-20.250000
  0
LINE
  8
0
  6
CENTER
 62
     2
 10
-383.609009
 20
-220.445847
 11
-293.442352
 21
-220.445847
  0
LINE
  8
0
  6
CENTER
 62
     2
 10
-246.450714
 20
-220.445847
 11
-201.064285
 21
-220.445847
  0
LINE
  8
0
  6
CENTER
 62
     2
 10
-223.942352
 20
-208.258514
 11
-223.942352
 21
-242.773285
  0
LINE
  8
0
  6
CENTER
 62
     2
 10
-134.942352
 20
-220.445847
 11
-48.442352
 21
-220.445847
  0
LINE
  8
0
  6
CENTER
 62
     2
 10
-10.725784
 20
-220.445847
 11
34.509220
 21
-220.445847
  0
LINE
  8
0
  6
CENTER
 62
     2
 10
12.057648
 20
-210.160858
 11
12.057648
 21
-243.538269
  0
LINE
  8
0
  6
CENTER
 62
     2
 10
137.569733
 20
-85.579376
 11
208.613861
 21
-85.579376
  0
LINE
  8
0
  6
CENTER
 62
     2
 10
284.101807
 20
-85.579376
 11
333.182922
 21
-85.579376
  0
LINE
  8
0
  6
CENTER
 62
     2
 10
308.419647
 20
-44.856670
 11
308.419647
 21
-110.508591
  0
LINE
  8
0
  6
CENTER
 62
     2
 10
123.336319
 20
-205.579376
 11
208.836304
 21
-205.579376
  0
LINE
  8
0
  6
CENTER
 62
     2
 10
281.419647
 20
-205.579376
 11
335.419647
 21
-205.579376
  0
LINE
  8
0
  6
CENTER
 62
     2
 10
308.419647
 20
-162.579376
 11
308.419647
 21
-229.988434
  0
LINE
  8
0
  6
CENTER
 62
     2
 10
178.419647
 20
-71.021385
 11
178.419647
 21
-89.391304
  0
LINE
  8
0
  6
CENTER
 62
     2
 10
158.419647
 20
-188.588867
 11
158.419647
 21
-214.974762
  0
LINE
  8
0
 10
-399.250000
 20
-32.250000
 11
399.799988
 21
-32.250000
  0
LINE
  8
0
 10
90.274994
 20
-157.250000
 11
399.799988
 21
-157.250000
  0
LINE
  8
0
 10
399.799988
 20
276.250000
 11
399.799988
 21
-276.750000
  0
LINE
  8
0
 10
-399.250000
 20
276.250000
 11
-399.250000
 21
-276.750000
  0
LINE
  8
0
 10
-399.250000
 20
276.250000
 11
399.799988
 21
276.250000
  0
LINE
  8
0
 10
-399.250000
 20
-276.750000
 11
399.799988
 21
-276.750000
  0
LINE
  8
0
 10
239.799988
 20
-251.750000
 11
399.799988
 21
-251.750000
  0
LINE
  8
0
 10
239.799988
 20
251.250000
 11
399.799988
 21
251.250000
  0
LINE
  8
0
 10
-399.250000
 20
251.250000
 11
-239.250000
 21
251.250000
  0
LINE
  8
0
 10
239.799988
 20
-251.750000
 11
239.799988
 21
-276.750000
  0
LINE
  8
0
 10
239.799988
 20
251.250000
 11
239.799988
 21
276.250000
  0
LINE
  8
0
 10
-239.250000
 20
276.250000
 11
-239.250000
 21
251.250000
  0
LINE
  8
0
 10
-239.500000
 20
51.305084
 11
-217.500000
 21
51.305084
  0
LINE
  8
0
 10
-239.500000
 20
48.605377
 11
-217.500000
 21
48.605377
  0
LINE
  8
0
 10
-239.500000
 20
40.500000
 11
-217.500000
 21
40.500000
  0
LINE
  8
0
 10
114.500000
 20
58.000000
 11
114.500000
 21
16.000000
  0
LINE
  8
0
 10
136.500000
 20
18.000000
 11
114.500000
 21
18.000000
  0
LINE
  8
0
 10
132.699982
 20
30.000000
 11
132.699982
 21
19.000000
  0
LINE
  8
0
 10
133.691223
 20
57.000000
 11
132.699982
 21
57.000000
  0
LINE
  8
0
 10
137.317993
 20
46.881203
 11
133.691254
 21
46.881203
  0
LINE
  8
0
 10
137.292633
 20
49.190598
 11
133.691254
 21
49.190598
  0
LINE
  8
0
 10
137.292633
 20
53.809402
 11
133.691254
 21
53.809402
  0
LINE
  8
0
 10
137.317993
 20
56.118797
 11
133.691254
 21
56.118797
  0
LINE
  8
0
 10
136.500000
 20
31.000000
 11
133.699982
 21
31.000000
  0
LINE
  8
0
 10
136.500000
 20
45.000000
 11
133.699982
 21
45.000000
  0
LINE
  8
0
 10
133.691223
 20
46.000000
 11
132.699982
 21
46.000000
  0
LINE
  8
0
 10
137.699982
 20
55.457195
 11
137.699982
 21
47.542809
  0
LINE
  8
0
 10
137.500000
 20
47.196404
 11
137.500000
 21
28.803598
  0
LINE
  8
0
 10
137.699982
 20
28.457193
 11
137.699982
 21
20.542805
  0
LINE
  8
0
 10
133.691223
 20
30.000000
 11
132.699982
 21
30.000000
  0
LINE
  8
0
 10
137.318024
 20
19.881203
 11
133.691254
 21
19.881203
  0
LINE
  8
0
 10
137.292633
 20
22.190598
 11
133.691254
 21
22.190598
  0
LINE
  8
0
 10
137.292633
 20
26.809402
 11
133.691254
 21
26.809402
  0
LINE
  8
0
 10
137.317993
 20
29.118797
 11
133.691254
 21
29.118797
  0
LINE
  8
0
 10
133.691223
 20
19.000000
 11
132.699982
 21
19.000000
  0
LINE
  8
0
 10
137.500000
 20
20.196400
 11
137.500000
 21
19.000000
  0
LINE
  8
0
 10
118.208755
 20
41.463108
 11
121.484421
 21
47.136726
  0
LINE
  8
0
 10
117.515724
 20
41.863232
 11
120.791389
 21
47.536846
  0
LINE
  8
0
 10
126.499924
 20
39.443474
 11
128.999924
 21
40.886848
  0
LINE
  8
0
 10
128.999985
 20
35.113178
 11
131.500015
 21
36.556568
  0
LINE
  8
0
 10
131.499985
 20
39.443356
 11
128.999985
 21
40.886726
  0
LINE
  8
0
 10
128.999985
 20
35.113186
 11
126.499992
 21
36.556557
  0
LINE
  8
0
 10
131.500000
 20
39.443375
 11
131.500000
 21
36.556633
  0
LINE
  8
0
 10
126.500000
 20
39.443382
 11
126.500000
 21
36.556625
  0
LINE
  8
0
 10
132.699982
 20
57.000000
 11
132.699982
 21
46.000000
  0
LINE
  8
0
 10
137.500000
 20
57.000000
 11
137.500000
 21
55.803600
  0
LINE
  8
0
 10
133.691254
 20
46.000000
 11
133.691254
 21
57.000000
  0
LINE
  8
0
 10
133.691223
 20
19.000000
 11
133.691223
 21
30.000000
  0
LINE
  8
0
 10
137.318008
 20
56.118805
 11
137.699982
 21
55.457207
  0
LINE
  8
0
 10
137.318024
 20
46.881214
 11
137.699997
 21
47.542809
  0
LINE
  8
0
 10
137.318024
 20
19.881182
 11
137.700012
 21
20.542793
  0
LINE
  8
0
 10
137.318100
 20
29.118822
 11
137.700073
 21
28.457226
  0
LINE
  8
0
 10
-239.500000
 20
58.000000
 11
-239.500000
 21
16.000000
  0
LINE
  8
0
 10
-261.500000
 20
18.000000
 11
-239.500000
 21
18.000000
  0
LINE
  8
0
 10
-257.699982
 20
30.000000
 11
-257.699982
 21
19.000000
  0
LINE
  8
0
 10
-258.691223
 20
57.000000
 11
-257.699982
 21
57.000000
  0
LINE
  8
0
 10
-262.318024
 20
46.881203
 11
-258.691254
 21
46.881203
  0
LINE
  8
0
 10
-262.292633
 20
49.190598
 11
-258.691254
 21
49.190598
  0
LINE
  8
0
 10
-262.292633
 20
53.809402
 11
-258.691254
 21
53.809402
  0
LINE
  8
0
 10
-262.318024
 20
56.118797
 11
-258.691254
 21
56.118797
  0
LINE
  8
0
 10
-261.500000
 20
31.000000
 11
-258.699982
 21
31.000000
  0
LINE
  8
0
 10
-261.500000
 20
45.000000
 11
-258.699982
 21
45.000000
  0
LINE
  8
0
 10
-258.691223
 20
46.000000
 11
-257.699982
 21
46.000000
  0
LINE
  8
0
 10
-262.699982
 20
55.457195
 11
-262.699982
 21
47.542809
  0
LINE
  8
0
 10
-262.500000
 20
47.196404
 11
-262.500000
 21
28.803598
  0
LINE
  8
0
 10
-262.699982
 20
28.457193
 11
-262.699982
 21
20.542805
  0
LINE
  8
0
 10
-258.691223
 20
30.000000
 11
-257.699982
 21
30.000000
  0
LINE
  8
0
 10
-262.318024
 20
19.881203
 11
-258.691254
 21
19.881203
  0
LINE
  8
0
 10
-262.292633
 20
22.190598
 11
-258.691254
 21
22.190598
  0
LINE
  8
0
 10
-262.292633
 20
26.809402
 11
-258.691254
 21
26.809402
  0
LINE
  8
0
 10
-262.318024
 20
29.118797
 11
-258.691254
 21
29.118797
  0
LINE
  8
0
 10
-258.691223
 20
19.000000
 11
-257.699982
 21
19.000000
  0
LINE
  8
0
 10
-262.500000
 20
20.196400
 11
-262.500000
 21
19.000000
  0
LINE
  8
0
 10
-246.484436
 20
41.863319
 11
-243.208771
 21
47.536938
  0
LINE
  8
0
 10
-245.791367
 20
41.463146
 11
-242.515717
 21
47.136791
  0
LINE
  8
0
 10
-251.499954
 20
39.443508
 11
-253.999954
 21
40.886883
  0
LINE
  8
0
 10
-254.000031
 20
35.113220
 11
-256.500061
 21
36.556606
  0
LINE
  8
0
 10
-256.499939
 20
39.443340
 11
-253.999954
 21
40.886711
  0
LINE
  8
0
 10
-253.999954
 20
35.113171
 11
-251.499954
 21
36.556541
  0
LINE
  8
0
 10
-256.500000
 20
39.443375
 11
-256.500000
 21
36.556633
  0
LINE
  8
0
 10
-251.500000
 20
39.443382
 11
-251.500000
 21
36.556625
  0
LINE
  8
0
 10
-257.699982
 20
57.000000
 11
-257.699982
 21
46.000000
  0
LINE
  8
0
 10
-262.500000
 20
57.000000
 11
-262.500000
 21
55.803600
  0
LINE
  8
0
 10
-258.691254
 20
46.000000
 11
-258.691254
 21
57.000000
  0
LINE
  8
0
 10
-258.691223
 20
19.000000
 11
-258.691223
 21
30.000000
  0
LINE
  8
0
 10
-262.318024
 20
56.118793
 11
-262.699982
 21
55.457188
  0
LINE
  8
0
 10
-262.317993
 20
46.881210
 11
-262.699951
 21
47.542816
  0
LINE
  8
0
 10
-262.318024
 20
19.881176
 11
-262.699982
 21
20.542782
  0
LINE
  8
0
 10
-262.318054
 20
29.118855
 11
-262.700073
 21
28.457237
  0
LINE
  8
0
 10
-209.000000
 20
76.000000
 11
-209.000000
 21
40.000000
  0
LINE
  8
0
 10
-116.000000
 20
76.000000
 11
-116.000000
 21
40.000000
  0
LINE
  8
0
 10
-107.500000
 20
75.500000
 11
-107.500000
 21
40.000000
  0
LINE
  8
0
 10
-217.500000
 20
75.500000
 11
-217.500000
 21
40.000000
  0
LINE
  8
0
 10
-209.000000
 20
76.000000
 11
-116.000000
 21
76.000000
  0
LINE
  8
0
 10
-217.500000
 20
75.500000
 11
-107.500000
 21
75.500000
  0
LINE
  8
0
 10
-217.500000
 20
40.000000
 11
-107.500000
 21
40.000000
  0
LINE
  8
0
  6
CENTER
 62
     2
 10
-162.500000
 20
81.000000
 11
-162.500000
 21
11.000000
  0
LINE
  8
0
  6
CENTER
 62
     2
 10
37.500000
 20
62.700001
 11
37.500000
 21
11.000000
  0
LINE
  8
0
 10
-209.000000
 20
67.000000
 11
-116.000000
 21
67.000000
  0
LINE
  8
0
  6
CENTER
 62
     2
 10
-266.900024
 20
38.000000
 11
142.500000
 21
38.000000
  0
LINE
  8
0
 10
-107.500000
 20
40.500000
 11
26.500000
 21
40.500000
  0
LINE
  8
0
 10
-107.500000
 20
51.305084
 11
114.500000
 21
51.305084
  0
LINE
  8
0
 10
-107.500000
 20
48.605377
 11
114.500000
 21
48.605377
  0
LINE
  8
0
 10
-239.500031
 20
29.299999
 11
-172.500000
 21
29.299999
  0
LINE
  8
0
 10
-239.500015
 20
22.299999
 11
114.500031
 21
22.299999
  0
LINE
  8
0
 10
-239.500015
 20
20.499998
 11
114.500000
 21
20.499998
  0
LINE
  8
0
 10
-239.500015
 20
15.999996
 11
114.500031
 21
15.999996
  0
LINE
  8
0
 10
-107.500000
 20
58.000000
 11
136.500000
 21
58.000000
  0
LINE
  8
0
 10
-261.500000
 20
58.000000
 11
-217.500000
 21
58.000000
  0
LINE
  8
0
 10
-217.500000
 20
45.873699
 11
-107.500000
 21
45.873699
  0
LINE
  8
0
 10
48.500000
 20
41.499996
 11
48.500000
 21
34.499996
  0
LINE
  8
0
 10
42.500000
 20
34.499996
 11
48.500000
 21
34.499996
  0
LINE
  8
0
 10
14.500000
 20
36.299957
 11
24.500000
 21
36.299957
  0
LINE
  8
0
 10
24.500000
 20
40.500000
 11
24.500000
 21
35.499954
  0
LINE
  8
0
 10
24.500000
 20
35.499954
 11
26.500000
 21
35.499954
  0
LINE
  8
0
 10
26.500000
 20
34.499996
 11
27.500000
 21
34.499996
  0
LINE
  8
0
 10
14.500000
 20
39.699951
 11
24.500000
 21
39.699951
  0
LINE
  8
0
 10
42.500000
 20
41.499996
 11
42.500000
 21
25.799992
  0
LINE
  8
0
 10
32.500000
 20
41.499996
 11
32.500000
 21
39.499992
  0
LINE
  8
0
 10
26.500000
 20
41.499996
 11
26.500000
 21
34.499996
  0
LINE
  8
0
 10
27.500000
 20
39.499992
 11
27.500000
 21
25.799992
  0
LINE
  8
0
 10
35.750011
 20
28.733019
 11
35.000008
 21
29.166033
  0
LINE
  8
0
 10
27.500000
 20
39.499992
 11
42.500000
 21
39.499992
  0
LINE
  8
0
 10
27.500000
 20
25.799992
 11
42.500000
 21
25.799992
  0
LINE
  8
0
 10
35.000023
 20
29.165977
 11
34.250019
 21
28.732964
  0
LINE
  8
0
 10
34.250000
 20
28.732998
 11
34.250000
 21
27.866970
  0
LINE
  8
0
 10
34.250000
 20
27.866982
 11
35.000004
 21
27.433968
  0
LINE
  8
0
 10
35.000023
 20
27.433950
 11
35.750023
 21
27.866964
  0
LINE
  8
0
 10
35.750000
 20
27.866978
 11
35.750000
 21
28.733006
  0
LINE
  8
0
 10
-239.500000
 20
24.799997
 11
114.500031
 21
24.799997
  0
LINE
  8
0
 10
-151.500000
 20
40.000000
 11
-151.500000
 21
34.499996
  0
LINE
  8
0
 10
-157.500000
 20
34.499996
 11
-151.500000
 21
34.499996
  0
LINE
  8
0
 10
-185.500000
 20
36.299957
 11
-175.500000
 21
36.299957
  0
LINE
  8
0
 10
-175.500000
 20
40.000000
 11
-175.500000
 21
35.499954
  0
LINE
  8
0
 10
-175.500000
 20
35.499954
 11
-173.500000
 21
35.499954
  0
LINE
  8
0
 10
-173.500000
 20
34.499996
 11
-172.500000
 21
34.499996
  0
LINE
  8
0
 10
-185.500000
 20
39.699951
 11
-175.500000
 21
39.699951
  0
LINE
  8
0
 10
-157.500000
 20
40.000000
 11
-157.500000
 21
25.799992
  0
LINE
  8
0
 10
-173.500000
 20
40.000000
 11
-173.500000
 21
34.499996
  0
LINE
  8
0
 10
-172.500000
 20
39.499992
 11
-172.500000
 21
25.799992
  0
LINE
  8
0
 10
-164.249985
 20
28.733017
 11
-164.999985
 21
29.166031
  0
LINE
  8
0
 10
-172.500000
 20
25.799992
 11
-157.500000
 21
25.799992
  0
LINE
  8
0
 10
-164.999969
 20
29.165991
 11
-165.749969
 21
28.732977
  0
LINE
  8
0
 10
-165.750000
 20
28.732998
 11
-165.750000
 21
27.866970
  0
LINE
  8
0
 10
-165.750000
 20
27.866976
 11
-165.000000
 21
27.433962
  0
LINE
  8
0
 10
-165.000000
 20
27.433947
 11
-164.250000
 21
27.866961
  0
LINE
  8
0
 10
-164.249985
 20
27.866978
 11
-164.249985
 21
28.733006
  0
LINE
  8
0
 10
-239.500000
 20
39.500000
 11
-185.581024
 21
39.500000
  0
LINE
  8
0
 10
-157.500000
 20
29.299999
 11
27.500000
 21
29.299999
  0
LINE
  8
0
 10
-172.500000
 20
39.500000
 11
-157.500000
 21
39.500000
  0
LINE
  8
0
 10
-151.500000
 20
39.500000
 11
14.418976
 21
39.500000
  0
LINE
  8
0
 10
26.500000
 20
41.499996
 11
48.500000
 21
41.499996
  0
LINE
  8
0
 10
48.500000
 20
40.500000
 11
114.500000
 21
40.500000
  0
LINE
  8
0
 10
48.500000
 20
39.500000
 11
114.500000
 21
39.500000
  0
LINE
  8
0
 10
42.500000
 20
29.299999
 11
114.500000
 21
29.299999
  0
LINE
  8
0
 10
-239.500000
 20
128.999969
 11
-217.500000
 21
128.999969
  0
LINE
  8
0
 10
-239.500000
 20
172.999969
 11
-217.500000
 21
172.999969
  0
LINE
  8
0
 10
-239.500000
 20
171.099960
 11
-217.500000
 21
171.099960
  0
LINE
  8
0
 10
-239.500000
 20
166.899963
 11
-217.500000
 21
166.899963
  0
LINE
  8
0
 10
-239.500000
 20
130.899963
 11
-217.500000
 21
130.899963
  0
LINE
  8
0
 10
-239.500000
 20
135.099960
 11
-217.500000
 21
135.099960
  0
LINE
  8
0
 10
114.500000
 20
172.999969
 11
114.500000
 21
128.999969
  0
LINE
  8
0
 10
136.500000
 20
130.999969
 11
114.500000
 21
130.999969
  0
LINE
  8
0
 10
137.500000
 20
169.999969
 11
137.500000
 21
168.499969
  0
LINE
  8
0
 10
136.500000
 20
170.999969
 11
114.500000
 21
170.999969
  0
LINE
  8
0
 10
114.500000
 20
170.999969
 11
114.500000
 21
130.999969
  0
LINE
  8
0
 10
121.000000
 20
160.499969
 11
121.000000
 21
141.499969
  0
LINE
  8
0
 10
118.000000
 20
163.499969
 11
114.500000
 21
163.499969
  0
LINE
  8
0
 10
118.000000
 20
138.499969
 11
114.500000
 21
138.499969
  0
LINE
  8
0
 10
132.699982
 20
169.999969
 11
132.699982
 21
158.999969
  0
LINE
  8
0
 10
136.500000
 20
157.999969
 11
133.699982
 21
157.999969
  0
LINE
  8
0
 10
136.500000
 20
143.999969
 11
133.699982
 21
143.999969
  0
LINE
  8
0
 10
132.699982
 20
142.999969
 11
132.699982
 21
131.999969
  0
LINE
  8
0
 10
117.500038
 20
142.000046
 11
116.439377
 21
143.060715
  0
LINE
  8
0
 10
117.500076
 20
141.999939
 11
118.560730
 21
143.060608
  0
LINE
  8
0
 10
117.499939
 20
141.999985
 11
118.560600
 21
140.939316
  0
LINE
  8
0
 10
117.499939
 20
142.000031
 11
116.439308
 21
140.939377
  0
LINE
  8
0
 10
117.500000
 20
159.999985
 11
118.560638
 21
161.060623
  0
LINE
  8
0
 10
117.500053
 20
160.000031
 11
116.439400
 21
161.060684
  0
LINE
  8
0
 10
117.499962
 20
159.999939
 11
118.560616
 21
158.939270
  0
LINE
  8
0
 10
117.499962
 20
159.999985
 11
116.439354
 21
158.939362
  0
LINE
  8
0
 10
137.500000
 20
160.499969
 11
137.500000
 21
141.499969
  0
LINE
  8
0
 10
133.691284
 20
131.999969
 11
132.699982
 21
131.999969
  0
LINE
  8
0
 10
133.691284
 20
169.999969
 11
132.699982
 21
169.999969
  0
LINE
  8
0
 10
137.699982
 20
168.499969
 11
137.699982
 21
160.499969
  0
LINE
  8
0
 10
137.356842
 20
164.499969
 11
133.691284
 21
164.499969
  0
LINE
  8
0
 10
137.699982
 20
168.499969
 11
133.691284
 21
168.499969
  0
LINE
  8
0
 10
137.699982
 20
160.499969
 11
133.691284
 21
160.499969
  0
LINE
  8
0
 10
133.691284
 20
142.999969
 11
132.699982
 21
142.999969
  0
LINE
  8
0
 10
137.699982
 20
141.499969
 11
137.699982
 21
133.499969
  0
LINE
  8
0
 10
137.356842
 20
137.499969
 11
133.691284
 21
137.499969
  0
LINE
  8
0
 10
137.699982
 20
141.499969
 11
133.691284
 21
141.499969
  0
LINE
  8
0
 10
137.699982
 20
133.499969
 11
133.691284
 21
133.499969
  0
LINE
  8
0
 10
137.500000
 20
133.499969
 11
137.500000
 21
131.999969
  0
LINE
  8
0
 10
133.691284
 20
158.999969
 11
132.699982
 21
158.999969
  0
LINE
  8
0
 10
133.691284
 20
169.999969
 11
133.691284
 21
158.999969
  0
LINE
  8
0
 10
133.691284
 20
142.999969
 11
133.691284
 21
131.999969
  0
LINE
  8
0
 10
-239.500000
 20
172.999969
 11
-239.500000
 21
128.999969
  0
LINE
  8
0
 10
-261.500000
 20
130.999969
 11
-239.500000
 21
130.999969
  0
LINE
  8
0
 10
-262.500000
 20
169.999969
 11
-262.500000
 21
168.499969
  0
LINE
  8
0
 10
-261.500000
 20
170.999969
 11
-239.500000
 21
170.999969
  0
LINE
  8
0
 10
-246.000000
 20
160.499969
 11
-246.000000
 21
141.499969
  0
LINE
  8
0
 10
-243.000000
 20
163.499969
 11
-239.500000
 21
163.499969
  0
LINE
  8
0
 10
-243.000000
 20
138.499969
 11
-239.500000
 21
138.499969
  0
LINE
  8
0
 10
-257.699982
 20
169.999969
 11
-257.699982
 21
158.999969
  0
LINE
  8
0
 10
-261.500000
 20
157.999969
 11
-258.699982
 21
157.999969
  0
LINE
  8
0
 10
-261.500000
 20
143.999969
 11
-258.699982
 21
143.999969
  0
LINE
  8
0
 10
-257.699982
 20
142.999969
 11
-257.699982
 21
131.999969
  0
LINE
  8
0
 10
-242.500000
 20
142.000031
 11
-241.439331
 21
143.060699
  0
LINE
  8
0
 10
-242.500061
 20
141.999969
 11
-243.560699
 21
143.060623
  0
LINE
  8
0
 10
-242.499939
 20
141.999939
 11
-243.560577
 21
140.939270
  0
LINE
  8
0
 10
-242.499908
 20
142.000015
 11
-241.439301
 21
140.939362
  0
LINE
  8
0
 10
-242.499954
 20
160.000046
 11
-243.560623
 21
161.060699
  0
LINE
  8
0
 10
-242.499939
 20
159.999939
 11
-241.439301
 21
161.060593
  0
LINE
  8
0
 10
-242.499908
 20
159.999847
 11
-243.560532
 21
158.939194
  0
LINE
  8
0
 10
-242.500000
 20
159.999985
 11
-241.439377
 21
158.939346
  0
LINE
  8
0
 10
-262.500000
 20
160.499969
 11
-262.500000
 21
141.499969
  0
LINE
  8
0
 10
-258.691284
 20
131.999969
 11
-257.699982
 21
131.999969
  0
LINE
  8
0
 10
-258.691284
 20
169.999969
 11
-257.699982
 21
169.999969
  0
LINE
  8
0
 10
-262.699982
 20
168.499969
 11
-262.699982
 21
160.499969
  0
LINE
  8
0
 10
-262.356842
 20
164.499969
 11
-258.691284
 21
164.499969
  0
LINE
  8
0
 10
-262.699982
 20
168.499969
 11
-258.691284
 21
168.499969
  0
LINE
  8
0
 10
-262.699982
 20
160.499969
 11
-258.691284
 21
160.499969
  0
LINE
  8
0
 10
-258.691284
 20
142.999969
 11
-257.699982
 21
142.999969
  0
LINE
  8
0
 10
-262.699982
 20
141.499969
 11
-262.699982
 21
133.499969
  0
LINE
  8
0
 10
-262.356842
 20
137.499969
 11
-258.691284
 21
137.499969
  0
LINE
  8
0
 10
-262.699982
 20
141.499969
 11
-258.691284
 21
141.499969
  0
LINE
  8
0
 10
-262.699982
 20
133.499969
 11
-258.691284
 21
133.499969
  0
LINE
  8
0
 10
-262.500000
 20
133.499969
 11
-262.500000
 21
131.999969
  0
LINE
  8
0
 10
-258.691284
 20
158.999969
 11
-257.699982
 21
158.999969
  0
LINE
  8
0
 10
-258.691284
 20
169.999969
 11
-258.691284
 21
158.999969
  0
LINE
  8
0
 10
-258.691284
 20
142.999969
 11
-258.691284
 21
131.999969
  0
LINE
  8
0
  6
CENTER
 62
     2
 10
-162.500000
 20
188.499969
 11
-162.500000
 21
113.499969
  0
LINE
  8
0
 10
-116.000000
 20
183.499969
 11
-116.000000
 21
118.499969
  0
LINE
  8
0
 10
-209.000000
 20
183.499969
 11
-209.000000
 21
118.499969
  0
LINE
  8
0
 10
-107.500000
 20
183.499969
 11
-107.500000
 21
118.499969
  0
LINE
  8
0
 10
-217.500000
 20
183.499969
 11
-217.500000
 21
118.499969
  0
LINE
  8
0
 10
-217.500000
 20
118.499969
 11
-107.500000
 21
118.499969
  0
LINE
  8
0
 10
-217.500000
 20
183.499969
 11
-107.500000
 21
183.499969
  0
LINE
  8
0
  6
CENTER
 62
     2
 10
-205.000000
 20
168.499969
 11
-190.000000
 21
168.499969
  0
LINE
  8
0
  6
CENTER
 62
     2
 10
-135.000000
 20
168.499969
 11
-120.000000
 21
168.499969
  0
LINE
  8
0
  6
CENTER
 62
     2
 10
-135.000000
 20
133.499969
 11
-120.000000
 21
133.499969
  0
LINE
  8
0
  6
CENTER
 62
     2
 10
-127.500000
 20
175.999969
 11
-127.500000
 21
125.999969
  0
LINE
  8
0
  6
CENTER
 62
     2
 10
-205.000000
 20
133.499969
 11
-190.000000
 21
133.499969
  0
LINE
  8
0
  6
CENTER
 62
     2
 10
-197.500000
 20
175.999969
 11
-197.500000
 21
125.999969
  0
LINE
  8
0
 10
-239.500000
 20
157.999969
 11
-217.500000
 21
157.999969
  0
LINE
  8
0
 10
-239.500000
 20
143.999969
 11
-217.500000
 21
143.999969
  0
LINE
  8
0
 10
-209.000000
 20
175.999969
 11
-116.000000
 21
175.999969
  0
LINE
  8
0
 10
-209.000000
 20
125.999969
 11
-116.000000
 21
125.999969
  0
LINE
  8
0
  6
CENTER
 62
     2
 10
37.500000
 20
177.999969
 11
37.500000
 21
121.707932
  0
LINE
  8
0
  6
CENTER
 62
     2
 10
-270.333344
 20
150.999969
 11
143.466675
 21
150.999969
  0
LINE
  8
0
 10
-107.500000
 20
172.999969
 11
114.500000
 21
172.999969
  0
LINE
  8
0
 10
-107.500000
 20
171.099960
 11
114.500000
 21
171.099960
  0
LINE
  8
0
 10
-107.500000
 20
166.899963
 11
114.500000
 21
166.899963
  0
LINE
  8
0
 10
-107.500000
 20
157.999969
 11
114.500000
 21
157.999969
  0
LINE
  8
0
 10
-107.500000
 20
143.999969
 11
114.500000
 21
143.999969
  0
LINE
  8
0
 10
-107.500000
 20
135.099960
 11
114.500000
 21
135.099960
  0
LINE
  8
0
 10
-107.500000
 20
130.899963
 11
114.500000
 21
130.899963
  0
LINE
  8
0
 10
-107.500000
 20
128.999969
 11
114.500000
 21
128.999969
  0
LINE
  8
0
 10
42.500000
 20
128.999969
 11
42.500000
 21
124.999969
  0
LINE
  8
0
 10
48.500000
 20
128.999969
 11
48.500000
 21
124.999969
  0
LINE
  8
0
 10
26.500000
 20
128.999969
 11
26.500000
 21
124.999969
  0
LINE
  8
0
 10
24.500000
 20
128.999969
 11
24.500000
 21
126.149918
  0
LINE
  8
0
 10
26.500000
 20
124.999969
 11
48.500000
 21
124.999969
  0
LINE
  8
0
 10
32.500000
 20
128.999969
 11
32.500000
 21
124.999969
  0
LINE
  8
0
 10
24.500000
 20
126.149918
 11
26.500000
 21
126.149918
  0
LINE
  8
0
 10
14.500000
 20
126.949921
 11
24.500000
 21
126.949921
  0
LINE
  8
0
 10
42.500000
 20
124.999969
 11
42.500000
 21
121.999969
  0
LINE
  8
0
 10
27.500000
 20
124.999969
 11
27.500000
 21
121.999969
  0
LINE
  8
0
 10
27.500000
 20
121.999969
 11
42.500000
 21
121.999969
  0
LINE
  8
0
 10
299.500031
 20
20.142490
 11
299.500031
 21
16.300014
  0
LINE
  8
0
 10
255.800034
 20
16.000015
 11
265.500031
 21
16.000015
  0
LINE
  8
0
 10
264.000031
 20
18.000015
 11
291.000031
 21
18.000015
  0
LINE
  8
0
 10
289.500031
 20
16.000015
 11
299.200043
 21
16.000015
  0
LINE
  8
0
 10
296.852112
 20
20.033125
 11
299.147919
 21
20.437941
  0
LINE
  8
0
 10
296.500031
 20
21.035913
 11
296.500031
 21
20.328560
  0
LINE
  8
0
 10
297.500031
 20
24.800014
 11
299.200043
 21
24.800014
  0
LINE
  8
0
 10
299.500031
 20
28.500015
 11
299.500031
 21
25.100014
  0
LINE
  8
0
 10
255.500031
 20
28.798126
 11
255.500031
 21
25.100014
  0
LINE
  8
0
 10
257.500031
 20
24.800014
 11
255.800034
 21
24.800014
  0
LINE
  8
0
 10
258.500031
 20
21.035915
 11
258.500031
 21
20.328560
  0
LINE
  8
0
 10
258.147949
 20
20.033121
 11
255.852112
 21
20.437937
  0
LINE
  8
0
 10
255.500031
 20
20.142490
 11
255.500031
 21
16.300014
  0
LINE
  8
0
  6
CENTER
 62
     2
 10
277.500031
 20
81.000015
 11
277.500031
 21
14.759937
  0
LINE
  8
0
 10
252.500031
 20
76.000015
 11
302.500031
 21
76.000015
  0
LINE
  8
0
 10
245.000031
 20
74.500015
 11
245.000031
 21
45.873711
  0
LINE
  8
0
 10
310.000031
 20
74.500015
 11
310.000031
 21
45.873714
  0
LINE
  8
0
 10
302.500031
 20
76.000031
 11
303.000031
 21
75.500031
  0
LINE
  8
0
 10
246.000031
 20
75.500015
 11
309.000031
 21
75.500015
  0
LINE
  8
0
 10
252.500031
 20
76.000008
 11
252.000031
 21
75.500008
  0
LINE
  8
0
 10
254.500031
 20
41.500015
 11
254.500031
 21
41.000015
  0
LINE
  8
0
 10
245.000031
 20
45.873711
 11
251.498108
 21
40.421177
  0
LINE
  8
0
 10
310.000031
 20
45.873711
 11
303.000031
 21
40.000015
  0
LINE
  8
0
 10
303.000031
 20
40.000015
 11
300.500031
 21
40.000015
  0
LINE
  8
0
 10
300.500031
 20
41.500015
 11
300.500031
 21
40.000015
  0
LINE
  8
0
 10
257.500031
 20
51.500015
 11
257.500031
 21
24.500015
  0
LINE
  8
0
 10
264.000031
 20
58.000015
 11
291.000031
 21
58.000015
  0
LINE
  8
0
 10
297.500031
 20
51.500015
 11
297.500031
 21
24.500015
  0
LINE
  8
0
 10
284.500031
 20
57.000015
 11
284.500031
 21
51.500015
  0
LINE
  8
0
 10
270.500031
 20
57.000015
 11
270.500031
 21
51.500015
  0
LINE
  8
0
 10
258.500031
 20
45.000015
 11
264.000031
 21
45.000015
  0
LINE
  8
0
 10
258.500031
 20
31.000015
 11
264.000031
 21
31.000015
  0
LINE
  8
0
 10
284.500031
 20
24.500015
 11
284.500031
 21
19.000015
  0
LINE
  8
0
 10
291.000031
 20
45.000015
 11
296.500031
 21
45.000015
  0
LINE
  8
0
 10
270.500031
 20
24.500015
 11
270.500031
 21
19.000015
  0
LINE
  8
0
 10
291.000031
 20
31.000015
 11
296.500031
 21
31.000015
  0
LINE
  8
0
 10
260.000031
 20
53.809418
 11
260.000031
 21
49.190613
  0
LINE
  8
0
 10
268.000031
 20
53.809410
 11
268.000031
 21
49.190620
  0
LINE
  8
0
 10
260.000000
 20
53.809410
 11
264.000000
 21
56.118820
  0
LINE
  8
0
 10
264.000061
 20
46.881165
 11
268.000031
 21
49.190559
  0
LINE
  8
0
 10
264.000031
 20
46.881203
 11
260.000031
 21
49.190605
  0
LINE
  8
0
 10
268.000031
 20
53.809429
 11
264.000031
 21
56.118832
  0
LINE
  8
0
 10
295.000031
 20
53.809437
 11
291.000031
 21
56.118839
  0
LINE
  8
0
 10
287.000061
 20
53.809414
 11
291.000061
 21
56.118816
  0
LINE
  8
0
 10
287.000031
 20
53.809418
 11
287.000031
 21
49.190613
  0
LINE
  8
0
 10
291.000031
 20
46.881222
 11
287.000031
 21
49.190624
  0
LINE
  8
0
 10
291.000031
 20
46.881176
 11
295.000031
 21
49.190578
  0
LINE
  8
0
 10
295.000031
 20
53.809410
 11
295.000031
 21
49.190617
  0
LINE
  8
0
 10
295.000031
 20
26.809420
 11
291.000031
 21
29.118822
  0
LINE
  8
0
 10
287.000031
 20
26.809397
 11
291.000031
 21
29.118797
  0
LINE
  8
0
 10
287.000031
 20
26.809418
 11
287.000031
 21
22.190613
  0
LINE
  8
0
 10
291.000031
 20
19.881216
 11
287.000031
 21
22.190619
  0
LINE
  8
0
 10
291.000061
 20
19.881140
 11
295.000061
 21
22.190542
  0
LINE
  8
0
 10
295.000031
 20
26.809410
 11
295.000031
 21
22.190620
  0
LINE
  8
0
 10
268.000031
 20
26.809423
 11
264.000031
 21
29.118826
  0
LINE
  8
0
 10
260.000031
 20
26.809410
 11
264.000031
 21
29.118811
  0
LINE
  8
0
 10
260.000031
 20
26.809418
 11
260.000031
 21
22.190613
  0
LINE
  8
0
 10
264.000031
 20
19.881220
 11
260.000031
 21
22.190622
  0
LINE
  8
0
 10
264.000061
 20
19.881132
 11
268.000061
 21
22.190535
  0
LINE
  8
0
 10
268.000031
 20
26.809410
 11
268.000031
 21
22.190620
  0
LINE
  8
0
  6
CENTER
 62
     2
 10
252.500031
 20
38.000015
 11
302.500031
 21
38.000015
  0
LINE
  8
0
  6
CENTER
 62
     2
 10
287.500031
 20
43.876614
 11
287.500031
 21
32.008865
  0
LINE
  8
0
  6
CENTER
 62
     2
 10
271.500031
 20
43.994118
 11
271.500031
 21
31.656357
  0
LINE
  8
0
  6
CENTER
 62
     2
 10
291.000031
 20
56.801884
 11
291.000031
 21
45.521648
  0
LINE
  8
0
  6
CENTER
 62
     2
 10
264.000031
 20
57.271896
 11
264.000031
 21
45.639149
  0
LINE
  8
0
  6
CENTER
 62
     2
 10
291.000031
 20
32.008865
 11
291.000031
 21
17.203556
  0
LINE
  8
0
  6
CENTER
 62
     2
 10
264.000031
 20
32.500015
 11
264.000031
 21
17.438560
  0
LINE
  8
0
  6
CENTER
 62
     2
 10
258.119263
 20
51.500015
 11
270.104492
 21
51.500015
  0
LINE
  8
0
  6
CENTER
 62
     2
 10
284.674805
 20
51.500015
 11
297.012573
 21
51.500015
  0
LINE
  8
0
  6
CENTER
 62
     2
 10
284.909821
 20
24.500015
 11
297.012573
 21
24.500015
  0
LINE
  8
0
  6
CENTER
 62
     2
 10
257.884247
 20
24.500015
 11
271.279541
 21
24.500015
  0
LINE
  8
0
 10
254.500031
 20
41.500015
 11
256.500031
 21
41.500015
  0
LINE
  8
0
 10
256.500031
 20
41.500008
 11
257.500031
 21
42.691761
  0
LINE
  8
0
 10
298.500031
 20
41.500023
 11
297.500031
 21
42.691776
  0
LINE
  8
0
 10
300.500031
 20
41.500015
 11
298.500031
 21
41.500015
  0
LINE
  8
0
  6
DASHED
 62
     2
 10
263.700043
 20
33.850014
 11
268.963104
 21
33.850014
  0
LINE
  8
0
  6
DASHED
 62
     2
 10
263.700043
 20
42.150017
 11
268.963104
 21
42.150017
  0
LINE
  8
0
  6
DASHED
 62
     2
 10
263.700043
 20
42.736015
 11
263.700043
 21
33.264015
  0
LINE
  8
0
  6
DASHED
 62
     2
 10
257.500031
 20
42.864014
 11
263.700043
 21
42.736015
  0
LINE
  8
0
  6
DASHED
 62
     2
 10
257.500031
 20
33.136017
 11
263.700043
 21
33.264019
  0
LINE
  8
0
  6
DASHED
 62
     2
 10
257.500031
 20
42.278015
 11
263.700012
 21
42.150017
  0
LINE
  8
0
  6
DASHED
 62
     2
 10
257.500061
 20
33.722019
 11
263.700012
 21
33.850018
  0
LINE
  8
0
  6
DASHED
 62
     2
 10
263.700043
 20
42.736008
 11
264.715027
 21
42.150009
  0
LINE
  8
0
  6
DASHED
 62
     2
 10
263.700043
 20
33.264023
 11
264.715027
 21
33.850021
  0
LINE
  8
0
  6
DASHED
 62
     2
 10
263.700043
 20
42.236012
 11
263.189484
 21
42.746555
  0
LINE
  8
0
  6
DASHED
 62
     2
 10
263.700043
 20
33.764019
 11
263.189484
 21
33.253479
  0
LINE
  8
0
  6
DASHED
 62
     2
 10
257.999908
 20
42.853699
 11
257.500031
 21
42.374023
  0
LINE
  8
0
  6
DASHED
 62
     2
 10
257.999908
 20
33.146336
 11
257.500031
 21
33.626011
  0
LINE
  8
0
  6
DASHED
 62
     2
 10
257.999939
 20
33.146336
 11
257.999939
 21
42.853695
  0
LINE
  8
0
  6
DASHED
 62
     2
 10
263.189484
 20
42.746555
 11
263.189484
 21
33.253475
  0
LINE
  8
0
 10
299.500031
 20
28.095879
 11
299.500031
 21
24.800018
  0
LINE
  8
0
 10
257.098114
 20
30.500023
 11
257.098114
 21
30.500023
  0
LINE
  8
0
 10
253.998108
 20
26.300018
 11
254.998108
 21
26.300018
  0
LINE
  8
0
 10
253.998108
 20
26.570518
 11
255.268616
 21
26.570518
  0
LINE
  8
0
 10
254.998108
 20
29.300018
 11
254.998108
 21
26.300018
  0
LINE
  8
0
 10
255.498138
 20
26.800014
 11
254.998138
 21
26.300016
  0
LINE
  8
0
 10
255.500031
 20
28.798124
 11
254.998123
 21
29.300035
  0
LINE
  8
0
 10
253.998108
 20
29.300018
 11
254.998108
 21
29.300018
  0
LINE
  8
0
 10
253.998108
 20
29.029518
 11
255.268616
 21
29.029518
  0
LINE
  8
0
 10
253.998108
 20
29.595879
 11
253.998108
 21
26.300018
  0
LINE
  8
0
 10
250.205658
 20
25.300018
 11
252.998108
 21
25.300018
  0
LINE
  8
0
 10
255.898102
 20
30.692862
 11
253.998108
 21
29.595888
  0
LINE
  8
0
 10
251.498108
 20
41.000015
 11
251.498108
 21
34.000015
  0
LINE
  8
0
 10
251.498108
 20
41.000015
 11
257.500031
 21
41.000015
  0
LINE
  8
0
 10
251.498123
 20
34.000015
 11
257.500031
 21
34.000015
  0
LINE
  8
0
 10
299.501953
 20
28.800018
 11
299.501953
 21
26.800011
  0
LINE
  8
0
 62
     4
 10
-321.442352
 20
-182.945847
 11
-321.442352
 21
-214.245850
  0
LINE
  8
0
 62
     4
 10
-322.192352
 20
-191.695847
 11
-321.442352
 21
-191.695847
  0
LINE
  8
0
 62
     4
 10
-322.192352
 20
-193.195847
 11
-321.442352
 21
-193.195847
  0
LINE
  8
0
 62
     4
 10
-322.192352
 20
-188.745850
 11
-322.192352
 21
-193.445847
  0
LINE
  8
0
 62
     4
 10
-322.192352
 20
-188.745850
 11
-322.711975
 21
-188.445847
  0
LINE
  8
0
 62
     4
 10
-342.442352
 20
-188.445847
 11
-321.442352
 21
-188.445847
  0
LINE
  8
0
 62
     4
 10
-330.692352
 20
-188.745850
 11
-330.172760
 21
-188.445862
  0
LINE
  8
0
 62
     4
 10
-330.692352
 20
-188.745850
 11
-330.692352
 21
-193.445847
  0
LINE
  8
0
 62
     4
 10
-333.192352
 20
-188.745850
 11
-333.192352
 21
-193.445847
  0
LINE
  8
0
 62
     4
 10
-333.192352
 20
-188.745865
 11
-333.711975
 21
-188.445862
  0
LINE
  8
0
 62
     4
 10
-341.692322
 20
-188.745850
 11
-341.172729
 21
-188.445862
  0
LINE
  8
0
 62
     4
 10
-341.692352
 20
-188.745850
 11
-341.692352
 21
-193.445847
  0
LINE
  8
0
 62
     4
 10
-342.442352
 20
-191.695847
 11
-341.692352
 21
-191.695847
  0
LINE
  8
0
 62
     4
 10
-342.442352
 20
-193.195847
 11
-341.692352
 21
-193.195847
  0
LINE
  8
0
 62
     4
 10
-342.442352
 20
-193.445847
 11
-321.442352
 21
-193.445847
  0
LINE
  8
0
 62
     4
 10
-333.192352
 20
-193.195847
 11
-330.692352
 21
-193.195847
  0
LINE
  8
0
 62
     4
 10
-333.192352
 20
-191.695847
 11
-330.692352
 21
-191.695847
  0
LINE
  8
0
 62
     4
 10
-336.192352
 20
-183.745850
 11
-336.192352
 21
-188.445847
  0
LINE
  8
0
 62
     4
 10
-336.192352
 20
-183.745850
 11
-335.672729
 21
-183.445831
  0
LINE
  8
0
 62
     4
 10
-328.211975
 20
-183.445847
 11
-335.672729
 21
-183.445847
  0
LINE
  8
0
 62
     4
 10
-327.692383
 20
-183.745865
 11
-328.212006
 21
-183.445862
  0
LINE
  8
0
 62
     4
 10
-327.692352
 20
-183.745850
 11
-327.692352
 21
-188.445847
  0
LINE
  8
0
 62
     4
 10
-327.692352
 20
-185.257751
 11
-321.442352
 21
-185.257751
  0
LINE
  8
0
 62
     4
 10
-342.442352
 20
-182.945847
 11
-321.442352
 21
-182.945847
  0
LINE
  8
0
 62
     4
 10
-342.442352
 20
-182.945847
 11
-342.442352
 21
-214.245850
  0
LINE
  8
0
 62
     4
 10
-342.442352
 20
-185.257751
 11
-336.192352
 21
-185.257751
  0
LINE
  8
0
 62
     4
 10
-342.442352
 20
-205.945847
 11
-321.442352
 21
-205.945847
  0
LINE
  8
0
 62
     4
 10
-342.442352
 20
-214.245850
 11
-321.442352
 21
-214.245850
  0
LINE
  8
0
  6
CENTER
 62
     1
 10
-326.442352
 20
-186.786057
 11
-326.442352
 21
-195.557449
  0
LINE
  8
0
  6
CENTER
 62
     1
 10
-337.442352
 20
-187.093826
 11
-337.442352
 21
-195.403564
  0
LINE
  8
0
 62
     4
 10
-273.942383
 20
-186.445847
 11
-273.942383
 21
-198.445847
  0
LINE
  8
0
  6
CENTER
 62
     1
 10
-360.442352
 20
-192.445847
 11
-268.942383
 21
-192.445847
  0
LINE
  8
0
 62
     4
 10
-321.442352
 20
-185.445847
 11
-277.942383
 21
-185.445847
  0
LINE
  8
0
 62
     4
 10
-321.442352
 20
-199.445847
 11
-277.942383
 21
-199.445847
  0
LINE
  8
0
 62
     4
 10
-355.442352
 20
-190.945847
 11
-355.442352
 21
-193.945847
  0
LINE
  8
0
 62
     4
 10
-276.942383
 20
-186.445847
 11
-276.942383
 21
-198.445847
  0
LINE
  8
0
 62
     1
 10
-321.442352
 20
-198.445847
 11
-276.942383
 21
-198.445847
  0
LINE
  8
0
 62
     1
 10
-321.442352
 20
-186.445847
 11
-276.942383
 21
-186.445847
  0
LINE
  8
0
 62
     4
 10
-277.942383
 20
-185.445847
 11
-276.942383
 21
-186.445847
  0
LINE
  8
0
 62
     4
 10
-276.942352
 20
-198.445831
 11
-277.942352
 21
-199.445831
  0
LINE
  8
0
 62
     4
 10
-343.442352
 20
-186.445847
 11
-343.442352
 21
-198.445847
  0
LINE
  8
0
 62
     4
 10
-343.442352
 20
-186.445847
 11
-342.442352
 21
-185.445847
  0
LINE
  8
0
 62
     4
 10
-343.442352
 20
-198.445847
 11
-342.442352
 21
-199.445847
  0
LINE
  8
0
 62
     4
 10
-354.442352
 20
-194.945847
 11
-343.442352
 21
-194.945847
  0
LINE
  8
0
 62
     4
 10
-354.442352
 20
-189.945847
 11
-343.442352
 21
-189.945847
  0
LINE
  8
0
 62
     4
 10
-354.442352
 20
-189.945862
 11
-355.442352
 21
-190.945862
  0
LINE
  8
0
 62
     4
 10
-355.442352
 20
-193.945847
 11
-354.442352
 21
-194.945862
  0
LINE
  8
0
 62
     4
 10
-354.442352
 20
-189.945847
 11
-354.442352
 21
-194.945847
  0
LINE
  8
0
 62
     4
 10
-277.942352
 20
-185.445847
 11
-277.942352
 21
-199.445847
  0
LINE
  8
0
 62
     4
 10
-301.942383
 20
-188.840302
 11
-301.942383
 21
-196.051392
  0
LINE
  8
0
 62
     4
 10
-301.942383
 20
-188.840302
 11
-286.942383
 21
-188.840302
  0
LINE
  8
0
 62
     4
 10
-301.942383
 20
-196.051392
 11
-286.942383
 21
-196.051392
  0
LINE
  8
0
 62
     4
 10
-286.942383
 20
-188.840302
 11
-286.942383
 21
-196.051392
  0
LINE
  8
0
 62
     1
 10
-301.942352
 20
-188.840286
 11
-286.942322
 21
-196.051392
  0
LINE
  8
0
 62
     1
 10
-301.942352
 20
-196.051392
 11
-286.942352
 21
-188.840302
  0
LINE
  8
0
  6
CENTER
 62
     1
 10
-343.442352
 20
-198.445847
 11
-342.442352
 21
-198.445847
  0
LINE
  8
0
  6
CENTER
 62
     1
 10
-343.442352
 20
-186.445862
 11
-342.442352
 21
-186.445862
  0
LINE
  8
0
 62
     4
 10
-276.942383
 20
-198.445847
 11
-273.942383
 21
-198.445847
  0
LINE
  8
0
 62
     4
 10
-276.942383
 20
-186.445847
 11
-273.942383
 21
-186.445847
  0
LINE
  8
0
  6
CENTER
 62
     1
 10
-331.942352
 20
-175.293274
 11
-331.942352
 21
-223.621872
  0
LINE
  8
0
 62
     4
 10
-336.192352
 20
-183.745850
 11
-327.692352
 21
-183.745850
  0
LINE
  8
0
 62
     4
 10
-342.442352
 20
-132.445862
 11
-342.442352
 21
-68.445869
  0
LINE
  8
0
 62
     4
 10
-342.442352
 20
-89.945869
 11
-321.442352
 21
-89.945869
  0
LINE
  8
0
 62
     4
 10
-342.442352
 20
-79.945869
 11
-321.442352
 21
-79.945869
  0
LINE
  8
0
 62
     4
 10
-337.442352
 20
-77.255264
 11
-335.442352
 21
-76.100555
  0
LINE
  8
0
 62
     4
 10
-337.442352
 20
-77.255257
 11
-339.442352
 21
-76.100555
  0
LINE
  8
0
 62
     4
 10
-339.442352
 20
-76.100571
 11
-339.442352
 21
-73.791168
  0
LINE
  8
0
 62
     4
 10
-339.442352
 20
-73.791161
 11
-337.442352
 21
-72.636452
  0
LINE
  8
0
 62
     4
 10
-335.442383
 20
-73.791191
 11
-337.442383
 21
-72.636482
  0
LINE
  8
0
 62
     4
 10
-335.442352
 20
-76.100571
 11
-335.442352
 21
-73.791168
  0
LINE
  8
0
 62
     4
 10
-328.442322
 20
-73.791161
 11
-326.442322
 21
-72.636459
  0
LINE
  8
0
 62
     4
 10
-324.442383
 20
-73.791183
 11
-326.442383
 21
-72.636482
  0
LINE
  8
0
 62
     4
 10
-324.442352
 20
-76.100571
 11
-324.442352
 21
-73.791168
  0
LINE
  8
0
 62
     4
 10
-326.442322
 20
-77.255257
 11
-324.442383
 21
-76.100563
  0
LINE
  8
0
 62
     4
 10
-326.442383
 20
-77.255287
 11
-328.442352
 21
-76.100578
  0
LINE
  8
0
 62
     4
 10
-328.442352
 20
-76.100571
 11
-328.442352
 21
-73.791168
  0
LINE
  8
0
 62
     4
 10
-342.442352
 20
-68.445869
 11
-321.442352
 21
-68.445869
  0
LINE
  8
0
 62
     4
 10
-342.442352
 20
-110.945869
 11
-321.442352
 21
-110.945869
  0
LINE
  8
0
 62
     4
 10
-329.942352
 20
-114.791199
 11
-331.942352
 21
-113.636497
  0
LINE
  8
0
 62
     4
 10
-333.942352
 20
-114.791183
 11
-331.942322
 21
-113.636482
  0
LINE
  8
0
 62
     4
 10
-333.942352
 20
-117.100571
 11
-333.942352
 21
-114.791168
  0
LINE
  8
0
 62
     4
 10
-331.942383
 20
-118.255287
 11
-333.942352
 21
-117.100594
  0
LINE
  8
0
 62
     4
 10
-331.942322
 20
-118.255264
 11
-329.942352
 21
-117.100571
  0
LINE
  8
0
 62
     4
 10
-329.942352
 20
-117.100571
 11
-329.942352
 21
-114.791168
  0
LINE
  8
0
 62
     4
 10
-342.442352
 20
-120.945869
 11
-321.442352
 21
-120.945869
  0
LINE
  8
0
 62
     4
 10
-324.442383
 20
-124.791176
 11
-326.442383
 21
-123.636467
  0
LINE
  8
0
 62
     4
 10
-328.442352
 20
-124.791199
 11
-326.442322
 21
-123.636497
  0
LINE
  8
0
 62
     4
 10
-326.442322
 20
-128.255280
 11
-328.442322
 21
-127.100571
  0
LINE
  8
0
 62
     4
 10
-328.442352
 20
-127.100571
 11
-328.442352
 21
-124.791168
  0
LINE
  8
0
 62
     4
 10
-326.442322
 20
-128.255264
 11
-324.442322
 21
-127.100571
  0
LINE
  8
0
 62
     4
 10
-324.442352
 20
-127.100571
 11
-324.442352
 21
-124.791168
  0
LINE
  8
0
 62
     4
 10
-335.442383
 20
-124.791183
 11
-337.442383
 21
-123.636482
  0
LINE
  8
0
 62
     4
 10
-339.442322
 20
-124.791161
 11
-337.442352
 21
-123.636467
  0
LINE
  8
0
 62
     4
 10
-339.442352
 20
-127.100571
 11
-339.442352
 21
-124.791168
  0
LINE
  8
0
 62
     4
 10
-337.442352
 20
-128.255249
 11
-339.442352
 21
-127.100555
  0
LINE
  8
0
 62
     4
 10
-337.442352
 20
-128.255280
 11
-335.442352
 21
-127.100563
  0
LINE
  8
0
 62
     4
 10
-335.442352
 20
-127.100571
 11
-335.442352
 21
-124.791168
  0
LINE
  8
0
 62
     4
 10
-342.442352
 20
-132.445862
 11
-321.442352
 21
-132.445862
  0
LINE
  8
0
  6
CENTER
 62
     1
 10
-326.442352
 20
-67.945869
 11
-326.442352
 21
-81.945869
  0
LINE
  8
0
  6
CENTER
 62
     1
 10
-337.442352
 20
-67.945869
 11
-337.442352
 21
-81.945869
  0
LINE
  8
0
  6
CENTER
 62
     1
 10
-331.942352
 20
-65.944794
 11
-331.942352
 21
-136.889221
  0
LINE
  8
0
  6
CENTER
 62
     1
 10
-326.442352
 20
-118.945869
 11
-326.442352
 21
-132.945862
  0
LINE
  8
0
  6
CENTER
 62
     1
 10
-337.442352
 20
-118.945862
 11
-337.442352
 21
-132.945862
  0
LINE
  8
0
  6
CENTER
 62
     1
 10
-344.442352
 20
-125.945869
 11
-319.442352
 21
-125.945869
  0
LINE
  8
0
  6
CENTER
 62
     1
 10
-338.942352
 20
-115.945869
 11
-324.942352
 21
-115.945869
  0
LINE
  8
0
  6
CENTER
 62
     1
 10
-344.442352
 20
-74.945869
 11
-319.442352
 21
-74.945869
  0
LINE
  8
0
 62
     4
 10
-273.942352
 20
-94.445869
 11
-273.942352
 21
-106.445869
  0
LINE
  8
0
  6
DASHED
 62
     1
 10
-342.442352
 20
-93.445869
 11
-321.442352
 21
-93.445869
  0
LINE
  8
0
  6
DASHED
 62
     1
 10
-342.442352
 20
-107.445869
 11
-321.442352
 21
-107.445869
  0
LINE
  8
0
 62
     4
 10
-355.442352
 20
-98.945862
 11
-355.442352
 21
-101.945869
  0
LINE
  8
0
 62
     4
 10
-276.942352
 20
-94.445869
 11
-276.942352
 21
-106.445869
  0
LINE
  8
0
 62
     4
 10
-276.942352
 20
-106.445869
 11
-273.942352
 21
-106.445869
  0
LINE
  8
0
 62
     4
 10
-276.942352
 20
-94.445869
 11
-273.942352
 21
-94.445869
  0
LINE
  8
0
 62
     4
 10
-277.942383
 20
-93.445885
 11
-276.942383
 21
-94.445885
  0
LINE
  8
0
 62
     4
 10
-276.942352
 20
-106.445854
 11
-277.942352
 21
-107.445862
  0
LINE
  8
0
 62
     4
 10
-343.442352
 20
-94.445869
 11
-343.442352
 21
-106.445869
  0
LINE
  8
0
 62
     4
 10
-343.442352
 20
-94.445869
 11
-342.442352
 21
-93.445869
  0
LINE
  8
0
 62
     4
 10
-343.442352
 20
-106.445877
 11
-342.442352
 21
-107.445869
  0
LINE
  8
0
 62
     4
 10
-354.442352
 20
-102.945869
 11
-343.442352
 21
-102.945869
  0
LINE
  8
0
 62
     4
 10
-354.442352
 20
-97.945869
 11
-343.442352
 21
-97.945869
  0
LINE
  8
0
 62
     4
 10
-354.442352
 20
-97.945930
 11
-355.442322
 21
-98.945908
  0
LINE
  8
0
 62
     4
 10
-355.442352
 20
-101.945862
 11
-354.442322
 21
-102.945869
  0
LINE
  8
0
 62
     4
 10
-354.442322
 20
-97.945877
 11
-354.442322
 21
-102.945869
  0
LINE
  8
0
 62
     4
 10
-277.942352
 20
-93.445869
 11
-277.942352
 21
-107.445869
  0
LINE
  8
0
 62
     4
 10
-302.942352
 20
-93.445869
 11
-301.942352
 21
-94.445869
  0
LINE
  8
0
 62
     4
 10
-286.942352
 20
-106.445854
 11
-285.942352
 21
-107.445854
  0
LINE
  8
0
 62
     4
 10
-302.942352
 20
-107.445869
 11
-301.942352
 21
-106.445862
  0
LINE
  8
0
 62
     4
 10
-286.942383
 20
-94.445885
 11
-285.942383
 21
-93.445885
  0
LINE
  8
0
 62
     1
 10
-321.442352
 20
-94.445869
 11
-301.942322
 21
-94.445869
  0
LINE
  8
0
 62
     1
 10
-321.442352
 20
-106.445869
 11
-301.942352
 21
-106.445869
  0
LINE
  8
0
 62
     4
 10
-285.942352
 20
-107.445869
 11
-277.942352
 21
-107.445869
  0
LINE
  8
0
 62
     4
 10
-285.942352
 20
-93.445869
 11
-277.942352
 21
-93.445869
  0
LINE
  8
0
 62
     4
 10
-321.442352
 20
-68.445869
 11
-321.442352
 21
-132.445862
  0
LINE
  8
0
 62
     4
 10
-321.442352
 20
-93.445869
 11
-302.942352
 21
-93.445869
  0
LINE
  8
0
 62
     4
 10
-321.442352
 20
-107.445869
 11
-302.942352
 21
-107.445869
  0
LINE
  8
0
 62
     1
 10
-343.442352
 20
-94.445869
 11
-342.442352
 21
-94.445869
  0
LINE
  8
0
 62
     1
 10
-343.442352
 20
-106.445869
 11
-342.442352
 21
-106.445869
  0
LINE
  8
0
  6
DASHED
 62
     1
 10
-342.442352
 20
-106.445869
 11
-321.442352
 21
-106.445869
  0
LINE
  8
0
  6
DASHED
 62
     1
 10
-342.442352
 20
-94.445869
 11
-321.442352
 21
-94.445869
  0
LINE
  8
0
 62
     1
 10
-286.942352
 20
-94.445869
 11
-276.942352
 21
-94.445869
  0
LINE
  8
0
 62
     4
 10
-301.942322
 20
-94.445869
 11
-286.942352
 21
-94.445869
  0
LINE
  8
0
 62
     4
 10
-301.942352
 20
-106.445869
 11
-286.942322
 21
-106.445869
  0
LINE
  8
0
 62
     1
 10
-286.942322
 20
-106.445869
 11
-276.942352
 21
-106.445869
  0
LINE
  8
0
  6
CENTER
 62
     1
 10
-358.279236
 20
-100.445869
 11
-271.451721
 21
-100.445869
  0
LINE
  8
0
 62
     4
 10
-246.442352
 20
-200.445831
 11
-201.442352
 21
-200.445831
  0
LINE
  8
0
 62
     4
 10
-245.835175
 20
-206.547501
 11
-243.942337
 21
-208.135773
  0
LINE
  8
0
 62
     4
 10
-202.049530
 20
-206.547516
 11
-203.942352
 21
-208.135788
  0
LINE
  8
0
 62
     4
 10
-255.942352
 20
-194.945831
 11
-255.942352
 21
-212.445831
  0
LINE
  8
0
 62
     4
 10
-191.942352
 20
-194.945831
 11
-191.942352
 21
-212.445831
  0
LINE
  8
0
 62
     4
 10
-194.442352
 20
-202.845825
 11
-194.442352
 21
-205.945831
  0
LINE
  8
0
 62
     4
 10
-253.442352
 20
-202.845825
 11
-253.442352
 21
-205.945831
  0
LINE
  8
0
 62
     4
 10
-255.942352
 20
-205.945831
 11
-253.442352
 21
-205.945831
  0
LINE
  8
0
 62
     4
 10
-253.042358
 20
-202.445831
 11
-246.442352
 21
-202.445831
  0
LINE
  8
0
 62
     4
 10
-194.442352
 20
-205.945831
 11
-191.942352
 21
-205.945831
  0
LINE
  8
0
 62
     4
 10
-254.442352
 20
-193.445831
 11
-244.742340
 21
-193.445831
  0
LINE
  8
0
 62
     4
 10
-203.442352
 20
-189.445831
 11
-203.442352
 21
-193.145828
  0
LINE
  8
0
 62
     4
 10
-244.442352
 20
-189.445831
 11
-244.442352
 21
-191.695831
  0
LINE
  8
0
 62
     4
 10
-203.142365
 20
-193.445831
 11
-193.442352
 21
-193.445831
  0
LINE
  8
0
 62
     4
 10
-243.692352
 20
-188.445831
 11
-234.742355
 21
-188.445831
  0
LINE
  8
0
 62
     4
 10
-234.442352
 20
-185.906097
 11
-234.442352
 21
-188.145828
  0
LINE
  8
0
 62
     4
 10
-213.442352
 20
-185.906097
 11
-213.442352
 21
-188.145828
  0
LINE
  8
0
 62
     4
 10
-213.142365
 20
-188.445831
 11
-204.442352
 21
-188.445831
  0
LINE
  8
0
 62
     4
 10
-244.442352
 20
-191.695831
 11
-230.902054
 21
-191.695831
  0
LINE
  8
0
 62
     4
 10
-244.446548
 20
-193.195831
 11
-230.902054
 21
-193.195831
  0
LINE
  8
0
 62
     4
 10
-253.442352
 20
-202.945831
 11
-245.942352
 21
-202.945831
  0
LINE
  8
0
 62
     4
 10
-253.942352
 20
-214.445831
 11
-245.942352
 21
-214.445831
  0
LINE
  8
0
 62
     4
 10
-194.442352
 20
-202.945831
 11
-201.942352
 21
-202.945831
  0
LINE
  8
0
 62
     4
 10
-193.942352
 20
-214.445831
 11
-201.942352
 21
-214.445831
  0
LINE
  8
0
 62
     4
 10
-243.172729
 20
-183.445831
 11
-235.711975
 21
-183.445831
  0
LINE
  8
0
 62
     4
 10
-243.692352
 20
-183.745834
 11
-243.692352
 21
-188.445831
  0
LINE
  8
0
 62
     4
 10
-235.192352
 20
-183.745834
 11
-235.192352
 21
-188.445831
  0
LINE
  8
0
 62
     4
 10
-243.692337
 20
-183.745865
 11
-243.172714
 21
-183.445862
  0
LINE
  8
0
 62
     4
 10
-235.192352
 20
-183.745819
 11
-235.711975
 21
-183.445831
  0
LINE
  8
0
 62
     4
 10
-251.942352
 20
-202.445831
 11
-251.942352
 21
-202.945831
  0
LINE
  8
0
 62
     4
 10
-246.942352
 20
-202.445831
 11
-246.942352
 21
-202.945831
  0
LINE
  8
0
 62
     4
 10
-195.942352
 20
-202.445831
 11
-195.942352
 21
-202.945831
  0
LINE
  8
0
 62
     4
 10
-200.942352
 20
-202.445831
 11
-200.942352
 21
-202.945831
  0
LINE
  8
0
 62
     4
 10
-253.692352
 20
-188.745834
 11
-253.692352
 21
-193.445831
  0
LINE
  8
0
 62
     4
 10
-253.692337
 20
-188.745850
 11
-253.172714
 21
-188.445847
  0
LINE
  8
0
 62
     4
 10
-253.172729
 20
-188.445831
 11
-245.711975
 21
-188.445831
  0
LINE
  8
0
 62
     4
 10
-245.192368
 20
-188.745834
 11
-245.711975
 21
-188.445831
  0
LINE
  8
0
 62
     4
 10
-245.192352
 20
-188.745834
 11
-245.192352
 21
-193.445831
  0
LINE
  8
0
 62
     4
 10
-241.942352
 20
-191.695831
 11
-241.942352
 21
-193.195831
  0
LINE
  8
0
 62
     4
 10
-236.942352
 20
-191.695831
 11
-236.942352
 21
-193.195831
  0
LINE
  8
0
 62
     4
 10
-202.692352
 20
-188.745834
 11
-202.692352
 21
-193.445831
  0
LINE
  8
0
 62
     4
 10
-202.692352
 20
-188.745834
 11
-202.172729
 21
-188.445831
  0
LINE
  8
0
 62
     4
 10
-194.711975
 20
-188.445831
 11
-202.172729
 21
-188.445831
  0
LINE
  8
0
 62
     4
 10
-194.192368
 20
-188.745834
 11
-194.711975
 21
-188.445831
  0
LINE
  8
0
 62
     4
 10
-194.192352
 20
-188.745834
 11
-194.192352
 21
-193.445831
  0
LINE
  8
0
 62
     4
 10
-246.442352
 20
-200.445831
 11
-246.442352
 21
-202.445831
  0
LINE
  8
0
 62
     4
 10
-201.442352
 20
-200.445831
 11
-201.442352
 21
-202.445831
  0
LINE
  8
0
 62
     4
 10
-201.442352
 20
-202.445831
 11
-194.842346
 21
-202.445831
  0
LINE
  8
0
  6
CENTER
 62
     1
 10
-198.442352
 20
-185.963043
 11
-198.442352
 21
-204.951233
  0
LINE
  8
0
  6
CENTER
 62
     1
 10
-239.442352
 20
-181.331772
 11
-239.442352
 21
-195.534332
  0
LINE
  8
0
  6
CENTER
 62
     1
 10
-249.442352
 20
-185.963043
 11
-249.442352
 21
-204.951233
  0
LINE
  8
0
  6
CENTER
 62
     1
 10
-232.556900
 20
-192.445831
 11
-215.421219
 21
-192.445831
  0
LINE
  8
0
 62
     1
 10
-241.442352
 20
-191.695831
 11
-241.442352
 21
-193.195831
  0
LINE
  8
0
 62
     1
 10
-237.442352
 20
-191.695831
 11
-237.442352
 21
-193.195831
  0
LINE
  8
0
 62
     1
 10
-200.442352
 20
-202.445831
 11
-200.442352
 21
-202.945831
  0
LINE
  8
0
 62
     1
 10
-196.442352
 20
-202.445831
 11
-196.442352
 21
-202.945831
  0
LINE
  8
0
 62
     1
 10
-251.442352
 20
-202.445831
 11
-251.442352
 21
-202.945831
  0
LINE
  8
0
 62
     1
 10
-247.442352
 20
-202.445831
 11
-247.442352
 21
-202.945831
  0
LINE
  8
0
 62
     4
 10
-217.942352
 20
-188.840271
 11
-217.942352
 21
-196.051376
  0
LINE
  8
0
 62
     4
 10
-229.942352
 20
-188.840271
 11
-229.942352
 21
-196.051376
  0
LINE
  8
0
 62
     4
 10
-245.942352
 20
-202.945831
 11
-245.942352
 21
-206.317688
  0
LINE
  8
0
 62
     4
 10
-201.942352
 20
-202.945831
 11
-201.942352
 21
-206.317688
  0
LINE
  8
0
 62
     4
 10
-243.692352
 20
-183.745850
 11
-235.192352
 21
-183.745850
  0
LINE
  8
0
 62
     4
 10
-253.692352
 20
-188.745850
 11
-245.192352
 21
-188.745850
  0
LINE
  8
0
 62
     4
 10
-243.942352
 20
-208.135788
 11
-243.942352
 21
-214.069305
  0
LINE
  8
0
  6
CENTER
 62
     1
 10
-223.942352
 20
-181.199402
 11
-223.942352
 21
-204.888687
  0
LINE
  8
0
 62
     4
 10
-202.692352
 20
-188.745850
 11
-194.192352
 21
-188.745850
  0
LINE
  8
0
 62
     4
 10
-203.942352
 20
-208.135788
 11
-203.942352
 21
-214.069305
  0
LINE
  8
0
 62
     4
 10
-76.442345
 20
-182.945862
 11
-76.442345
 21
-214.245865
  0
LINE
  8
0
 62
     4
 10
-77.192345
 20
-191.695862
 11
-76.442345
 21
-191.695862
  0
LINE
  8
0
 62
     4
 10
-77.192345
 20
-193.195862
 11
-76.442345
 21
-193.195862
  0
LINE
  8
0
 62
     4
 10
-77.192345
 20
-188.745865
 11
-77.192345
 21
-193.445862
  0
LINE
  8
0
 62
     4
 10
-77.192345
 20
-188.745850
 11
-77.711952
 21
-188.445862
  0
LINE
  8
0
 62
     4
 10
-97.442352
 20
-188.445862
 11
-76.442345
 21
-188.445862
  0
LINE
  8
0
 62
     4
 10
-85.692345
 20
-188.745865
 11
-85.172737
 21
-188.445877
  0
LINE
  8
0
 62
     4
 10
-85.692345
 20
-188.745865
 11
-85.692345
 21
-193.445862
  0
LINE
  8
0
 62
     4
 10
-88.192345
 20
-188.745865
 11
-88.192345
 21
-193.445862
  0
LINE
  8
0
 62
     4
 10
-88.192345
 20
-188.745865
 11
-88.711952
 21
-188.445862
  0
LINE
  8
0
 62
     4
 10
-96.692314
 20
-188.745865
 11
-96.172707
 21
-188.445862
  0
LINE
  8
0
 62
     4
 10
-96.692352
 20
-188.745865
 11
-96.692352
 21
-193.445862
  0
LINE
  8
0
 62
     4
 10
-97.442352
 20
-191.695862
 11
-96.692352
 21
-191.695862
  0
LINE
  8
0
 62
     4
 10
-97.442352
 20
-193.195862
 11
-96.692352
 21
-193.195862
  0
LINE
  8
0
 62
     4
 10
-97.442352
 20
-193.445862
 11
-76.442345
 21
-193.445862
  0
LINE
  8
0
 62
     4
 10
-88.192345
 20
-193.195862
 11
-85.692345
 21
-193.195862
  0
LINE
  8
0
 62
     4
 10
-88.192345
 20
-191.695862
 11
-85.692345
 21
-191.695862
  0
LINE
  8
0
 62
     4
 10
-91.192352
 20
-183.745865
 11
-91.192352
 21
-188.445862
  0
LINE
  8
0
 62
     4
 10
-91.192352
 20
-183.745865
 11
-90.672729
 21
-183.445862
  0
LINE
  8
0
 62
     4
 10
-83.211952
 20
-183.445862
 11
-90.672729
 21
-183.445862
  0
LINE
  8
0
 62
     4
 10
-82.692368
 20
-183.745895
 11
-83.211990
 21
-183.445892
  0
LINE
  8
0
 62
     4
 10
-82.692345
 20
-183.745865
 11
-82.692345
 21
-188.445862
  0
LINE
  8
0
 62
     4
 10
-82.692345
 20
-185.257751
 11
-76.442345
 21
-185.257751
  0
LINE
  8
0
 62
     4
 10
-97.442352
 20
-182.945862
 11
-76.442345
 21
-182.945862
  0
LINE
  8
0
 62
     4
 10
-97.442352
 20
-182.945862
 11
-97.442352
 21
-214.245865
  0
LINE
  8
0
 62
     4
 10
-97.442352
 20
-185.257751
 11
-91.192352
 21
-185.257751
  0
LINE
  8
0
 62
     4
 10
-97.442352
 20
-205.945862
 11
-76.442345
 21
-205.945862
  0
LINE
  8
0
 62
     4
 10
-97.442352
 20
-214.245865
 11
-76.442345
 21
-214.245865
  0
LINE
  8
0
 62
     4
 10
-68.442390
 20
-185.445877
 11
-67.442390
 21
-187.177917
  0
LINE
  8
0
 62
     4
 10
-67.442345
 20
-187.177917
 11
-67.442345
 21
-197.713806
  0
LINE
  8
0
 62
     4
 10
-68.442345
 20
-185.445862
 11
-68.442345
 21
-199.445862
  0
LINE
  8
0
 62
     4
 10
-68.442368
 20
-199.445831
 11
-67.442368
 21
-197.713776
  0
LINE
  8
0
 62
     4
 10
-97.442352
 20
-187.445862
 11
-98.442352
 21
-187.445862
  0
LINE
  8
0
 62
     4
 10
-97.442352
 20
-197.445862
 11
-98.442352
 21
-197.445862
  0
LINE
  8
0
  6
CENTER
 62
     1
 10
-66.101349
 20
-192.445862
 11
-100.628708
 21
-192.445862
  0
LINE
  8
0
 62
     4
 10
-68.442360
 20
-199.445862
 11
-76.442345
 21
-199.445862
  0
LINE
  8
0
 62
     4
 10
-68.442345
 20
-185.445862
 11
-76.442345
 21
-185.445862
  0
LINE
  8
0
 62
     1
 10
-67.865013
 20
-186.445862
 11
-76.442345
 21
-186.445862
  0
LINE
  8
0
 62
     1
 10
-67.865013
 20
-198.445862
 11
-76.442345
 21
-198.445862
  0
LINE
  8
0
  6
CENTER
 62
     1
 10
-81.442345
 20
-186.923920
 11
-81.442345
 21
-194.737228
  0
LINE
  8
0
  6
CENTER
 62
     1
 10
-86.942345
 20
-177.484680
 11
-86.942345
 21
-224.709183
  0
LINE
  8
0
  6
CENTER
 62
     1
 10
-92.442352
 20
-187.072754
 11
-92.442352
 21
-194.662811
  0
LINE
  8
0
 62
     4
 10
-98.442352
 20
-187.445862
 11
-98.442352
 21
-197.445862
  0
LINE
  8
0
 62
     4
 10
-91.192352
 20
-183.745865
 11
-82.692345
 21
-183.745865
  0
LINE
  8
0
 62
     4
 10
-96.692352
 20
-188.745865
 11
-88.192345
 21
-188.745865
  0
LINE
  8
0
 62
     4
 10
-85.692345
 20
-188.745865
 11
-77.192345
 21
-188.745865
  0
LINE
  8
0
 62
     4
 10
-76.442352
 20
-68.445862
 11
-76.442352
 21
-132.445862
  0
LINE
  8
0
 62
     4
 10
-97.442352
 20
-132.445862
 11
-97.442352
 21
-68.445862
  0
LINE
  8
0
 62
     4
 10
-97.442352
 20
-89.945862
 11
-76.442352
 21
-89.945862
  0
LINE
  8
0
 62
     4
 10
-97.442352
 20
-79.945862
 11
-76.442352
 21
-79.945862
  0
LINE
  8
0
 62
     4
 10
-92.442360
 20
-77.255257
 11
-90.442360
 21
-76.100555
  0
LINE
  8
0
 62
     4
 10
-92.442345
 20
-77.255257
 11
-94.442368
 21
-76.100555
  0
LINE
  8
0
 62
     4
 10
-94.442352
 20
-76.100563
 11
-94.442352
 21
-73.791161
  0
LINE
  8
0
 62
     4
 10
-94.442352
 20
-73.791145
 11
-92.442352
 21
-72.636444
  0
LINE
  8
0
 62
     4
 10
-90.442375
 20
-73.791183
 11
-92.442375
 21
-72.636475
  0
LINE
  8
0
 62
     4
 10
-90.442352
 20
-76.100563
 11
-90.442352
 21
-73.791161
  0
LINE
  8
0
 62
     4
 10
-83.442345
 20
-73.791161
 11
-81.442322
 21
-72.636459
  0
LINE
  8
0
 62
     4
 10
-79.442390
 20
-73.791183
 11
-81.442398
 21
-72.636482
  0
LINE
  8
0
 62
     4
 10
-79.442352
 20
-76.100563
 11
-79.442352
 21
-73.791161
  0
LINE
  8
0
 62
     4
 10
-81.442337
 20
-77.255249
 11
-79.442375
 21
-76.100555
  0
LINE
  8
0
 62
     4
 10
-81.442360
 20
-77.255257
 11
-83.442360
 21
-76.100548
  0
LINE
  8
0
 62
     4
 10
-83.442352
 20
-76.100563
 11
-83.442352
 21
-73.791161
  0
LINE
  8
0
 62
     4
 10
-97.442352
 20
-68.445862
 11
-76.442352
 21
-68.445862
  0
LINE
  8
0
 62
     4
 10
-97.442352
 20
-110.945862
 11
-76.442352
 21
-110.945862
  0
LINE
  8
0
 62
     4
 10
-84.942352
 20
-114.791176
 11
-86.942352
 21
-113.636475
  0
LINE
  8
0
 62
     4
 10
-88.942337
 20
-114.791183
 11
-86.942322
 21
-113.636482
  0
LINE
  8
0
 62
     4
 10
-88.942352
 20
-117.100563
 11
-88.942352
 21
-114.791161
  0
LINE
  8
0
 62
     4
 10
-86.942375
 20
-118.255280
 11
-88.942368
 21
-117.100586
  0
LINE
  8
0
 62
     4
 10
-86.942337
 20
-118.255257
 11
-84.942345
 21
-117.100563
  0
LINE
  8
0
 62
     4
 10
-84.942352
 20
-117.100563
 11
-84.942352
 21
-114.791161
  0
LINE
  8
0
 62
     4
 10
-97.442352
 20
-120.945862
 11
-76.442352
 21
-120.945862
  0
LINE
  8
0
 62
     4
 10
-79.442390
 20
-124.791161
 11
-81.442390
 21
-123.636459
  0
LINE
  8
0
 62
     4
 10
-83.442337
 20
-124.791183
 11
-81.442329
 21
-123.636490
  0
LINE
  8
0
 62
     4
 10
-81.442314
 20
-128.255264
 11
-83.442329
 21
-127.100555
  0
LINE
  8
0
 62
     4
 10
-83.442352
 20
-127.100563
 11
-83.442352
 21
-124.791161
  0
LINE
  8
0
 62
     4
 10
-81.442322
 20
-128.255264
 11
-79.442322
 21
-127.100563
  0
LINE
  8
0
 62
     4
 10
-79.442352
 20
-127.100563
 11
-79.442352
 21
-124.791161
  0
LINE
  8
0
 62
     4
 10
-90.442375
 20
-124.791168
 11
-92.442375
 21
-123.636467
  0
LINE
  8
0
 62
     4
 10
-94.442337
 20
-124.791161
 11
-92.442337
 21
-123.636459
  0
LINE
  8
0
 62
     4
 10
-94.442352
 20
-127.100563
 11
-94.442352
 21
-124.791161
  0
LINE
  8
0
 62
     4
 10
-92.442375
 20
-128.255264
 11
-94.442375
 21
-127.100571
  0
LINE
  8
0
 62
     4
 10
-92.442352
 20
-128.255264
 11
-90.442352
 21
-127.100555
  0
LINE
  8
0
 62
     4
 10
-90.442352
 20
-127.100563
 11
-90.442352
 21
-124.791161
  0
LINE
  8
0
 62
     4
 10
-97.442352
 20
-132.445862
 11
-76.442352
 21
-132.445862
  0
LINE
  8
0
 62
     4
 10
-67.442352
 20
-95.177910
 11
-67.442352
 21
-105.713806
  0
LINE
  8
0
 62
     4
 10
-68.442345
 20
-93.445869
 11
-67.442345
 21
-95.177925
  0
LINE
  8
0
 62
     1
 10
-68.442352
 20
-93.445862
 11
-68.442352
 21
-107.445862
  0
LINE
  8
0
 62
     4
 10
-68.442352
 20
-107.445869
 11
-67.442352
 21
-105.713814
  0
LINE
  8
0
 62
     4
 10
-97.442352
 20
-95.445862
 11
-98.442352
 21
-95.445862
  0
LINE
  8
0
 62
     4
 10
-97.442352
 20
-105.445862
 11
-98.442352
 21
-105.445862
  0
LINE
  8
0
  6
DASHED
 62
     1
 10
-97.442352
 20
-93.445862
 11
-76.442352
 21
-93.445862
  0
LINE
  8
0
  6
DASHED
 62
     1
 10
-97.442352
 20
-107.445862
 11
-76.442352
 21
-107.445862
  0
LINE
  8
0
  6
DASHED
 62
     1
 10
-97.442352
 20
-94.445862
 11
-76.442352
 21
-94.445862
  0
LINE
  8
0
  6
DASHED
 62
     1
 10
-97.442352
 20
-106.445862
 11
-76.442352
 21
-106.445862
  0
LINE
  8
0
  6
CENTER
 62
     1
 10
-81.442352
 20
-69.341141
 11
-81.442352
 21
-80.798859
  0
LINE
  8
0
  6
CENTER
 62
     1
 10
-92.442352
 20
-69.341141
 11
-92.442352
 21
-80.798859
  0
LINE
  8
0
  6
CENTER
 62
     1
 10
-86.942352
 20
-64.862907
 11
-86.942352
 21
-134.838043
  0
LINE
  8
0
  6
CENTER
 62
     1
 10
-81.442352
 20
-120.103188
 11
-81.442352
 21
-130.980774
  0
LINE
  8
0
  6
CENTER
 62
     1
 10
-92.442352
 20
-119.958153
 11
-92.442352
 21
-131.125809
  0
LINE
  8
0
  6
CENTER
 62
     1
 10
-97.861969
 20
-125.945862
 11
-76.831978
 21
-125.945862
  0
LINE
  8
0
  6
CENTER
 62
     1
 10
-92.640732
 20
-115.945862
 11
-81.328049
 21
-115.945862
  0
LINE
  8
0
  6
CENTER
 62
     1
 10
-99.442352
 20
-74.945862
 11
-75.526672
 21
-74.945862
  0
LINE
  8
0
 62
     4
 10
-76.442352
 20
-93.445862
 11
-68.442352
 21
-93.445862
  0
LINE
  8
0
 62
     1
 10
-76.442352
 20
-94.445862
 11
-67.865028
 21
-94.445862
  0
LINE
  8
0
 62
     1
 10
-76.442352
 20
-106.445862
 11
-67.865021
 21
-106.445862
  0
LINE
  8
0
 62
     4
 10
-76.442352
 20
-107.445862
 11
-68.442352
 21
-107.445862
  0
LINE
  8
0
  6
DASHED
 62
     1
 10
-96.442360
 20
-93.445869
 11
-97.442352
 21
-94.445862
  0
LINE
  8
0
  6
DASHED
 62
     1
 10
-96.442345
 20
-107.445854
 11
-97.442352
 21
-106.445854
  0
LINE
  8
0
  6
CENTER
 62
     1
 10
-105.656555
 20
-100.445862
 11
-49.720268
 21
-100.445862
  0
LINE
  8
0
 62
     4
 10
-98.442352
 20
-95.445862
 11
-98.442352
 21
-105.445862
  0
LINE
  8
0
 62
     4
 10
-10.442329
 20
-200.445862
 11
34.557671
 21
-200.445862
  0
LINE
  8
0
 62
     4
 10
-9.835167
 20
-206.547531
 11
-7.942329
 21
-208.135803
  0
LINE
  8
0
 62
     4
 10
33.950508
 20
-206.547531
 11
32.057674
 21
-208.135818
  0
LINE
  8
0
 62
     4
 10
-19.942329
 20
-194.945862
 11
-19.942329
 21
-212.245865
  0
LINE
  8
0
 62
     4
 10
44.057671
 20
-194.945862
 11
44.057671
 21
-212.245865
  0
LINE
  8
0
 62
     4
 10
41.557671
 20
-202.845856
 11
41.557671
 21
-205.945862
  0
LINE
  8
0
 62
     4
 10
-17.442329
 20
-202.845856
 11
-17.442329
 21
-205.945862
  0
LINE
  8
0
 62
     4
 10
-19.942329
 20
-205.945862
 11
-17.442329
 21
-205.945862
  0
LINE
  8
0
 62
     4
 10
-17.042328
 20
-202.445862
 11
-10.442329
 21
-202.445862
  0
LINE
  8
0
 62
     4
 10
41.557671
 20
-205.945862
 11
44.057671
 21
-205.945862
  0
LINE
  8
0
 62
     4
 10
-18.442329
 20
-193.445862
 11
-8.742325
 21
-193.445862
  0
LINE
  8
0
 62
     4
 10
32.557671
 20
-189.445862
 11
32.557671
 21
-193.145859
  0
LINE
  8
0
 62
     4
 10
-8.442329
 20
-189.445862
 11
-8.442329
 21
-191.695862
  0
LINE
  8
0
 62
     4
 10
32.857666
 20
-193.445862
 11
42.557671
 21
-193.445862
  0
LINE
  8
0
 62
     4
 10
-7.692329
 20
-188.445862
 11
1.257668
 21
-188.445862
  0
LINE
  8
0
 62
     4
 10
1.557671
 20
-185.906128
 11
1.557671
 21
-188.145859
  0
LINE
  8
0
 62
     4
 10
22.557671
 20
-185.906128
 11
22.557671
 21
-188.145859
  0
LINE
  8
0
 62
     4
 10
22.857666
 20
-188.445862
 11
31.557671
 21
-188.445862
  0
LINE
  8
0
 62
     4
 10
-8.442329
 20
-191.695862
 11
5.097965
 21
-191.695862
  0
LINE
  8
0
 62
     4
 10
-8.446526
 20
-193.195862
 11
5.097965
 21
-193.195862
  0
LINE
  8
0
 62
     4
 10
-17.442329
 20
-202.945862
 11
-9.942329
 21
-202.945862
  0
LINE
  8
0
 62
     4
 10
-17.942329
 20
-214.245865
 11
-9.942329
 21
-214.245865
  0
LINE
  8
0
 62
     4
 10
41.557671
 20
-202.945862
 11
34.057671
 21
-202.945862
  0
LINE
  8
0
 62
     4
 10
42.057671
 20
-214.245865
 11
34.057671
 21
-214.245865
  0
LINE
  8
0
 62
     4
 10
-7.172714
 20
-183.445862
 11
0.288055
 21
-183.445862
  0
LINE
  8
0
 62
     4
 10
-7.692329
 20
-183.745865
 11
-7.692329
 21
-188.445862
  0
LINE
  8
0
 62
     4
 10
0.807671
 20
-183.745865
 11
0.807671
 21
-188.445862
  0
LINE
  8
0
 62
     4
 10
-7.692307
 20
-183.745895
 11
-7.172693
 21
-183.445908
  0
LINE
  8
0
 62
     4
 10
0.807668
 20
-183.745865
 11
0.288054
 21
-183.445862
  0
LINE
  8
0
 62
     4
 10
-15.942329
 20
-202.445862
 11
-15.942329
 21
-202.945862
  0
LINE
  8
0
 62
     4
 10
-10.942329
 20
-202.445862
 11
-10.942329
 21
-202.945862
  0
LINE
  8
0
 62
     4
 10
40.057671
 20
-202.445862
 11
40.057671
 21
-202.945862
  0
LINE
  8
0
 62
     4
 10
35.057671
 20
-202.445862
 11
35.057671
 21
-202.945862
  0
LINE
  8
0
 62
     4
 10
-17.692329
 20
-188.745865
 11
-17.692329
 21
-193.445862
  0
LINE
  8
0
 62
     4
 10
-17.692318
 20
-188.745880
 11
-17.172703
 21
-188.445892
  0
LINE
  8
0
 62
     4
 10
-17.172714
 20
-188.445862
 11
-9.711945
 21
-188.445862
  0
LINE
  8
0
 62
     4
 10
-9.192331
 20
-188.745865
 11
-9.711939
 21
-188.445862
  0
LINE
  8
0
 62
     4
 10
-9.192329
 20
-188.745865
 11
-9.192329
 21
-193.445862
  0
LINE
  8
0
 62
     4
 10
-5.942329
 20
-191.695862
 11
-5.942329
 21
-193.195862
  0
LINE
  8
0
 62
     4
 10
-0.942329
 20
-191.695862
 11
-0.942329
 21
-193.195862
  0
LINE
  8
0
 62
     4
 10
33.307671
 20
-188.745865
 11
33.307671
 21
-193.445862
  0
LINE
  8
0
 62
     4
 10
33.307671
 20
-188.745850
 11
33.827286
 21
-188.445862
  0
LINE
  8
0
 62
     4
 10
41.288055
 20
-188.445862
 11
33.827286
 21
-188.445862
  0
LINE
  8
0
 62
     4
 10
41.807652
 20
-188.745880
 11
41.288048
 21
-188.445877
  0
LINE
  8
0
 62
     4
 10
41.807671
 20
-188.745865
 11
41.807671
 21
-193.445862
  0
LINE
  8
0
 62
     4
 10
-10.442329
 20
-200.445862
 11
-10.442329
 21
-202.445862
  0
LINE
  8
0
 62
     4
 10
34.557671
 20
-200.445862
 11
34.557671
 21
-202.445862
  0
LINE
  8
0
 62
     4
 10
34.557671
 20
-202.445862
 11
41.157669
 21
-202.445862
  0
LINE
  8
0
 62
     4
 10
9.057673
 20
-194.177917
 11
12.057674
 21
-195.909958
  0
LINE
  8
0
 62
     4
 10
12.057680
 20
-188.981750
 11
15.057682
 21
-190.713806
  0
LINE
  8
0
 62
     4
 10
9.057672
 20
-190.713821
 11
12.057673
 21
-188.981766
  0
LINE
  8
0
 62
     4
 10
12.057672
 20
-195.909973
 11
15.057673
 21
-194.177917
  0
LINE
  8
0
 62
     4
 10
9.057671
 20
-190.713806
 11
9.057671
 21
-194.177917
  0
LINE
  8
0
 62
     4
 10
15.057671
 20
-190.713806
 11
15.057671
 21
-194.177917
  0
LINE
  8
0
  6
CENTER
 62
     1
 10
37.557671
 20
-186.461105
 11
37.557671
 21
-204.811157
  0
LINE
  8
0
  6
CENTER
 62
     1
 10
-3.442329
 20
-181.660217
 11
-3.442329
 21
-194.996002
  0
LINE
  8
0
  6
CENTER
 62
     1
 10
-13.442329
 20
-186.461105
 11
-13.442329
 21
-205.878021
  0
LINE
  8
0
  6
CENTER
 62
     1
 10
3.676893
 20
-192.445862
 11
20.746708
 21
-192.445862
  0
LINE
  8
0
 62
     1
 10
-15.442329
 20
-202.445862
 11
-15.442329
 21
-202.945862
  0
LINE
  8
0
 62
     1
 10
-11.442329
 20
-202.445862
 11
-11.442329
 21
-202.945862
  0
LINE
  8
0
 62
     1
 10
-5.442329
 20
-191.695862
 11
-5.442329
 21
-193.195862
  0
LINE
  8
0
 62
     1
 10
-1.442329
 20
-191.695862
 11
-1.442329
 21
-193.195862
  0
LINE
  8
0
 62
     1
 10
39.557671
 20
-202.445862
 11
39.557671
 21
-202.945862
  0
LINE
  8
0
 62
     1
 10
35.557671
 20
-202.445862
 11
35.557671
 21
-202.945862
  0
LINE
  8
0
 62
     4
 10
-9.942329
 20
-202.945862
 11
-9.942329
 21
-206.317719
  0
LINE
  8
0
 62
     4
 10
34.057671
 20
-202.945862
 11
34.057671
 21
-206.317719
  0
LINE
  8
0
  6
CENTER
 62
     1
 10
12.057671
 20
-178.518143
 11
12.057671
 21
-208.069763
  0
LINE
  8
0
 62
     4
 10
-7.942327
 20
-208.135818
 11
-7.942327
 21
-213.869339
  0
LINE
  8
0
 62
     4
 10
32.057671
 20
-208.135818
 11
32.057671
 21
-213.869339
  0
LINE
  8
0
 62
     4
 10
-17.692329
 20
-188.745880
 11
-9.192329
 21
-188.745880
  0
LINE
  8
0
 62
     4
 10
-7.692329
 20
-183.745895
 11
0.807671
 21
-183.745895
  0
LINE
  8
0
 62
     4
 10
33.307671
 20
-188.745880
 11
41.807671
 21
-188.745880
  0
LINE
  8
0
 62
     4
 10
178.419617
 20
-91.579361
 11
181.019623
 21
-91.579361
  0
LINE
  8
0
 62
     4
 10
181.019623
 20
-91.579361
 11
181.019623
 21
-103.979355
  0
LINE
  8
0
 62
     4
 10
181.019623
 20
-94.829361
 11
185.719635
 21
-94.829361
  0
LINE
  8
0
 62
     4
 10
185.719604
 20
-94.829399
 11
186.019608
 21
-95.349007
  0
LINE
  8
0
 62
     4
 10
186.019623
 20
-95.348976
 11
186.019623
 21
-102.809746
  0
LINE
  8
0
 62
     4
 10
185.719696
 20
-103.329361
 11
186.019669
 21
-102.809746
  0
LINE
  8
0
 62
     4
 10
181.019623
 20
-103.329361
 11
185.719635
 21
-103.329361
  0
LINE
  8
0
 62
     4
 10
182.019623
 20
-104.979355
 11
200.419647
 21
-104.979355
  0
LINE
  8
0
 62
     4
 10
200.419647
 20
-104.979355
 11
200.419647
 21
-107.579361
  0
LINE
  8
0
 62
     4
 10
182.019623
 20
-107.579361
 11
200.419647
 21
-107.579361
  0
LINE
  8
0
  6
CENTER
 62
     1
 10
191.019623
 20
-99.079361
 11
168.619629
 21
-99.079361
  0
LINE
  8
0
  6
CENTER
 62
     1
 10
194.419647
 20
-102.819992
 11
194.419647
 21
-109.711685
  0
LINE
  8
0
  6
DASHED
 62
     1
 10
191.519653
 20
-104.979355
 11
191.519653
 21
-107.579361
  0
LINE
  8
0
  6
DASHED
 62
     1
 10
197.319641
 20
-104.979355
 11
197.319641
 21
-107.579361
  0
LINE
  8
0
 62
     4
 10
178.419647
 20
-91.579361
 11
178.419647
 21
-103.979355
  0
LINE
  8
0
 62
     4
 10
185.719635
 20
-94.829361
 11
185.719635
 21
-103.329361
  0
LINE
  8
0
 62
     4
 10
288.919678
 20
-94.579376
 11
288.919678
 21
-107.579369
  0
LINE
  8
0
 62
     4
 10
327.919678
 20
-94.579376
 11
327.919678
 21
-107.579369
  0
LINE
  8
0
 62
     4
 10
291.919678
 20
-91.579376
 11
298.419678
 21
-91.579376
  0
LINE
  8
0
 62
     4
 10
288.919678
 20
-104.979378
 11
327.919678
 21
-104.979378
  0
LINE
  8
0
 62
     4
 10
319.919678
 20
-97.924690
 11
321.919678
 21
-96.769989
  0
LINE
  8
0
 62
     4
 10
321.919678
 20
-101.388794
 11
323.919678
 21
-100.234093
  0
LINE
  8
0
 62
     4
 10
319.919678
 20
-100.234085
 11
321.919678
 21
-101.388794
  0
LINE
  8
0
 62
     4
 10
321.919678
 20
-96.769974
 11
323.919678
 21
-97.924683
  0
LINE
  8
0
 62
     4
 10
323.919678
 20
-97.924675
 11
323.919678
 21
-100.234077
  0
LINE
  8
0
 62
     4
 10
319.919678
 20
-97.924675
 11
319.919678
 21
-100.234077
  0
LINE
  8
0
 62
     4
 10
292.919647
 20
-100.234093
 11
294.919678
 21
-101.388802
  0
LINE
  8
0
 62
     4
 10
292.919678
 20
-97.924675
 11
292.919678
 21
-100.234077
  0
LINE
  8
0
 62
     4
 10
292.919678
 20
-97.924690
 11
294.919678
 21
-96.769989
  0
LINE
  8
0
 62
     4
 10
294.919678
 20
-96.769997
 11
296.919678
 21
-97.924690
  0
LINE
  8
0
 62
     4
 10
296.919678
 20
-97.924675
 11
296.919678
 21
-100.234077
  0
LINE
  8
0
 62
     4
 10
294.919678
 20
-101.388786
 11
296.919678
 21
-100.234085
  0
LINE
  8
0
 62
     4
 10
318.419678
 20
-91.579376
 11
324.919678
 21
-91.579376
  0
LINE
  8
0
  6
CENTER
 62
     1
 10
288.919678
 20
-99.079376
 11
300.919678
 21
-99.079376
  0
LINE
  8
0
  6
CENTER
 62
     1
 10
315.919678
 20
-99.079376
 11
327.919678
 21
-99.079376
  0
LINE
  8
0
  6
CENTER
 62
     1
 10
294.919678
 20
-93.079376
 11
294.919678
 21
-109.403862
  0
LINE
  8
0
  6
CENTER
 62
     1
 10
321.919678
 20
-93.079376
 11
321.919678
 21
-109.561684
  0
LINE
  8
0
  6
DASHED
 62
     1
 10
324.819672
 20
-104.979378
 11
324.819672
 21
-107.579369
  0
LINE
  8
0
  6
DASHED
 62
     1
 10
319.019684
 20
-104.979378
 11
319.019684
 21
-107.579369
  0
LINE
  8
0
  6
DASHED
 62
     1
 10
297.819672
 20
-104.979378
 11
297.819672
 21
-107.579369
  0
LINE
  8
0
  6
DASHED
 62
     1
 10
292.019684
 20
-104.979378
 11
292.019684
 21
-107.579369
  0
LINE
  8
0
 62
     4
 10
288.919678
 20
-107.579369
 11
327.919678
 21
-107.579369
  0
LINE
  8
0
 62
     4
 10
133.419647
 20
-219.579391
 11
133.419647
 21
-227.579391
  0
LINE
  8
0
 62
     4
 10
183.419647
 20
-219.579391
 11
183.419647
 21
-227.579391
  0
LINE
  8
0
 62
     4
 10
133.419647
 20
-219.579391
 11
183.419647
 21
-219.579391
  0
LINE
  8
0
  6
CENTER
 62
     1
 10
158.419647
 20
-216.579376
 11
158.419647
 21
-230.412720
  0
LINE
  8
0
  6
CENTER
 62
     1
 10
175.919647
 20
-217.079376
 11
175.919647
 21
-229.412720
  0
LINE
  8
0
  6
DASHED
 62
     1
 10
173.169647
 20
-219.579391
 11
173.169647
 21
-227.579391
  0
LINE
  8
0
  6
DASHED
 62
     1
 10
178.669647
 20
-219.579391
 11
178.669647
 21
-227.579391
  0
LINE
  8
0
  6
DASHED
 62
     1
 10
143.669647
 20
-219.579391
 11
143.669647
 21
-227.579391
  0
LINE
  8
0
  6
CENTER
 62
     1
 10
140.919647
 20
-217.079376
 11
140.919647
 21
-229.412720
  0
LINE
  8
0
  6
DASHED
 62
     1
 10
138.169647
 20
-219.579391
 11
138.169647
 21
-227.579391
  0
LINE
  8
0
 62
     4
 10
133.419647
 20
-227.579391
 11
183.419647
 21
-227.579391
  0
LINE
  8
0
 62
     4
 10
330.419647
 20
-223.436905
 11
330.419647
 21
-227.279373
  0
LINE
  8
0
 62
     4
 10
327.771698
 20
-223.546219
 11
330.067535
 21
-223.141403
  0
LINE
  8
0
 62
     4
 10
289.067566
 20
-223.546234
 11
286.771729
 21
-223.141418
  0
LINE
  8
0
 62
     4
 10
286.419647
 20
-223.436905
 11
286.419647
 21
-227.279373
  0
LINE
  8
0
 62
     4
 10
330.819641
 20
-227.579376
 11
343.019653
 21
-227.579376
  0
LINE
  8
0
 62
     4
 10
327.719666
 20
-219.579376
 11
342.419647
 21
-219.579376
  0
LINE
  8
0
 62
     4
 10
343.419647
 20
-220.579376
 11
343.419647
 21
-227.179382
  0
LINE
  8
0
 62
     4
 10
286.019653
 20
-227.579376
 11
273.819641
 21
-227.579376
  0
LINE
  8
0
 62
     4
 10
289.119629
 20
-219.579376
 11
274.419647
 21
-219.579376
  0
LINE
  8
0
 62
     4
 10
273.419647
 20
-220.579376
 11
273.419647
 21
-227.179382
  0
LINE
  8
0
 62
     4
 10
289.419647
 20
-219.879379
 11
289.419647
 21
-223.250824
  0
LINE
  8
0
 62
     4
 10
327.419647
 20
-219.879379
 11
327.419647
 21
-223.250824
  0
LINE
  8
0
  6
CENTER
 62
     1
 10
337.419647
 20
-216.360107
 11
337.419647
 21
-230.139847
  0
LINE
  8
0
  6
DASHED
 62
     1
 10
340.169647
 20
-219.579376
 11
340.169647
 21
-227.579376
  0
LINE
  8
0
  6
DASHED
 62
     1
 10
334.669647
 20
-219.579376
 11
334.669647
 21
-227.579376
  0
LINE
  8
0
  6
DASHED
 62
     1
 10
282.169647
 20
-219.579376
 11
282.169647
 21
-227.579376
  0
LINE
  8
0
  6
CENTER
 62
     1
 10
279.419647
 20
-216.511536
 11
279.419647
 21
-230.139847
  0
LINE
  8
0
  6
DASHED
 62
     1
 10
276.669647
 20
-219.579376
 11
276.669647
 21
-227.579376
  0
CIRCLE
  8
0
 10
119.500000
 20
44.500000
 40
3.300000
  0
CIRCLE
  8
0
 10
129.000000
 20
38.000000
 40
7.500000
  0
CIRCLE
  8
0
 10
129.000000
 20
38.000000
 40
4.864000
  0
CIRCLE
  8
0
 62
     2
 10
129.000000
 20
38.000000
 40
3.864000
  0
ARC
  8
0
 10
131.699982
 20
57.000000
 40
1.000000
 50
0.000000
 51
90.000000
  0
ARC
  8
0
 10
131.699982
 20
19.000000
 40
1.000000
 50
270.000000
 51
0.000000
  0
ARC
  8
0
 10
136.500000
 20
44.000000
 40
1.000000
 50
0.000000
 51
90.000000
  0
ARC
  8
0
 10
136.500000
 20
32.000000
 40
1.000000
 50
270.000000
 51
0.000000
  0
ARC
  8
0
 10
136.500000
 20
57.000000
 40
1.000000
 50
0.000000
 51
90.000000
  0
ARC
  8
0
 10
136.500000
 20
19.000000
 40
1.000000
 50
270.000000
 51
0.000000
  0
ARC
  8
0
 10
133.699982
 20
46.000000
 40
1.000000
 50
180.000000
 51
270.000000
  0
ARC
  8
0
 10
133.699982
 20
30.000000
 40
1.000000
 50
90.000000
 51
180.000000
  0
ARC
  8
0
 10
130.949982
 20
51.500000
 40
6.750005
 50
339.993103
 51
20.006908
  0
ARC
  8
0
 10
135.859741
 20
54.964100
 40
1.840246
 50
321.136353
 51
38.863640
  0
ARC
  8
0
 10
135.859741
 20
48.035900
 40
1.840246
 50
321.136353
 51
38.863640
  0
ARC
  8
0
 10
135.859741
 20
27.964100
 40
1.840246
 50
321.136353
 51
38.863640
  0
ARC
  8
0
 10
130.949982
 20
24.500000
 40
6.750007
 50
339.993042
 51
20.006863
  0
ARC
  8
0
 10
135.859741
 20
21.035900
 40
1.840247
 50
321.136322
 51
38.863594
  0
ARC
  8
0
 10
-260.859741
 20
21.035900
 40
1.840246
 50
141.136353
 51
218.863647
  0
CIRCLE
  8
0
 10
-244.500000
 20
44.500000
 40
3.300000
  0
CIRCLE
  8
0
 10
-254.000000
 20
38.000000
 40
7.500000
  0
CIRCLE
  8
0
 10
-254.000000
 20
38.000000
 40
4.864000
  0
CIRCLE
  8
0
 62
     2
 10
-254.000000
 20
38.000000
 40
3.864000
  0
ARC
  8
0
 10
-256.699982
 20
57.000000
 40
1.000000
 50
90.000000
 51
180.000000
  0
ARC
  8
0
 10
-256.699982
 20
19.000000
 40
1.000000
 50
180.000000
 51
270.000000
  0
ARC
  8
0
 10
-261.500000
 20
44.000000
 40
1.000000
 50
90.000000
 51
180.000000
  0
ARC
  8
0
 10
-261.500000
 20
32.000000
 40
1.000000
 50
180.000000
 51
270.000000
  0
ARC
  8
0
 10
-261.500000
 20
57.000000
 40
1.000000
 50
90.000000
 51
180.000000
  0
ARC
  8
0
 10
-261.500000
 20
19.000000
 40
1.000000
 50
180.000000
 51
270.000000
  0
ARC
  8
0
 10
-258.699982
 20
46.000000
 40
1.000000
 50
270.000000
 51
0.000000
  0
ARC
  8
0
 10
-258.699982
 20
30.000000
 40
1.000000
 50
0.000000
 51
90.000000
  0
ARC
  8
0
 10
-255.949982
 20
51.500000
 40
6.750006
 50
159.993057
 51
200.006882
  0
ARC
  8
0
 10
-260.859741
 20
54.964100
 40
1.840246
 50
141.136353
 51
218.863647
  0
ARC
  8
0
 10
-260.859741
 20
48.035900
 40
1.840246
 50
141.136353
 51
218.863647
  0
ARC
  8
0
 10
-260.859741
 20
27.964100
 40
1.840247
 50
141.136307
 51
218.863647
  0
ARC
  8
0
 10
-255.949982
 20
24.500000
 40
6.750004
 50
159.993103
 51
200.006943
  0
CIRCLE
  8
0
 10
35.000000
 20
28.299992
 40
1.500000
  0
CIRCLE
  8
0
 10
45.500000
 20
37.999954
 40
2.000000
  0
ARC
  8
0
 62
     2
 10
12.689606
 20
37.149956
 40
2.000000
 50
334.849396
 51
25.150612
  0
ARC
  8
0
 62
     2
 10
16.310394
 20
38.849953
 40
2.000000
 50
154.849258
 51
205.150620
  0
CIRCLE
  8
0
 10
-165.000000
 20
28.299992
 40
1.500000
  0
CIRCLE
  8
0
 10
-154.500000
 20
37.999954
 40
2.000000
  0
ARC
  8
0
 62
     2
 10
-187.310394
 20
37.149956
 40
2.000006
 50
334.849457
 51
25.150532
  0
ARC
  8
0
 62
     2
 10
-183.689606
 20
38.849953
 40
1.999994
 50
154.849182
 51
205.150528
  0
ARC
  8
0
 10
118.000000
 20
160.499969
 40
3.000000
 50
0.000000
 51
90.000000
  0
ARC
  8
0
 10
118.000000
 20
141.499969
 40
3.000000
 50
270.000000
 51
0.000000
  0
CIRCLE
  8
0
 10
127.500000
 20
150.999969
 40
1.500000
  0
CIRCLE
  8
0
 10
132.500000
 20
150.999969
 40
1.500000
  0
CIRCLE
  8
0
 10
127.500000
 20
150.999969
 40
1.250000
  0
CIRCLE
  8
0
 10
132.500000
 20
150.999969
 40
1.250000
  0
CIRCLE
  8
0
 10
117.500000
 20
159.999969
 40
3.000000
  0
CIRCLE
  8
0
 10
117.500000
 20
141.999969
 40
3.000000
  0
ARC
  8
0
 10
131.699982
 20
169.999969
 40
1.000000
 50
0.000000
 51
90.000000
  0
ARC
  8
0
 10
131.699982
 20
131.999969
 40
1.000000
 50
270.000000
 51
0.000000
  0
ARC
  8
0
 10
136.500000
 20
156.999969
 40
1.000000
 50
0.000000
 51
90.000000
  0
ARC
  8
0
 10
136.500000
 20
144.999969
 40
1.000000
 50
270.000000
 51
0.000000
  0
ARC
  8
0
 10
136.500000
 20
169.999969
 40
1.000000
 50
0.000000
 51
90.000000
  0
ARC
  8
0
 10
136.500000
 20
131.999969
 40
1.000000
 50
270.000000
 51
0.000000
  0
ARC
  8
0
 10
133.699982
 20
142.999969
 40
1.000000
 50
90.000000
 51
180.000000
  0
ARC
  8
0
 10
133.699982
 20
158.999969
 40
1.000000
 50
180.000000
 51
270.000000
  0
ARC
  8
0
 10
131.699982
 20
166.499969
 40
6.000006
 50
340.528809
 51
19.471201
  0
ARC
  8
0
 10
131.699982
 20
162.499969
 40
6.000006
 50
340.528809
 51
19.471201
  0
ARC
  8
0
 10
131.699982
 20
135.499969
 40
5.999991
 50
340.528748
 51
19.471201
  0
ARC
  8
0
 10
131.699982
 20
139.499969
 40
5.999991
 50
340.528748
 51
19.471201
  0
ARC
  8
0
 10
-256.699982
 20
139.499969
 40
6.000006
 50
160.528793
 51
199.471207
  0
ARC
  8
0
 10
-243.000000
 20
160.499969
 40
3.000000
 50
90.000000
 51
180.000000
  0
ARC
  8
0
 10
-243.000000
 20
141.499969
 40
3.000000
 50
180.000000
 51
270.000000
  0
CIRCLE
  8
0
 10
-252.500000
 20
150.999969
 40
1.500000
  0
CIRCLE
  8
0
 10
-257.500000
 20
150.999969
 40
1.500000
  0
CIRCLE
  8
0
 10
-252.500000
 20
150.999969
 40
1.250000
  0
CIRCLE
  8
0
 10
-257.500000
 20
150.999969
 40
1.250000
  0
CIRCLE
  8
0
 10
-242.500000
 20
159.999969
 40
3.000000
  0
CIRCLE
  8
0
 10
-242.500000
 20
141.999969
 40
3.000000
  0
ARC
  8
0
 10
-256.699982
 20
169.999969
 40
1.000000
 50
90.000000
 51
180.000000
  0
ARC
  8
0
 10
-256.699982
 20
131.999969
 40
1.000000
 50
180.000000
 51
270.000000
  0
ARC
  8
0
 10
-261.500000
 20
156.999969
 40
1.000000
 50
90.000000
 51
180.000000
  0
ARC
  8
0
 10
-261.500000
 20
144.999969
 40
1.000000
 50
180.000000
 51
270.000000
  0
ARC
  8
0
 10
-261.500000
 20
169.999969
 40
1.000000
 50
90.000000
 51
180.000000
  0
ARC
  8
0
 10
-261.500000
 20
131.999969
 40
1.000000
 50
180.000000
 51
270.000000
  0
ARC
  8
0
 10
-258.699982
 20
142.999969
 40
1.000000
 50
0.000000
 51
90.000000
  0
ARC
  8
0
 10
-258.699982
 20
158.999969
 40
1.000000
 50
270.000000
 51
0.000000
  0
ARC
  8
0
 10
-256.699982
 20
166.499969
 40
6.000006
 50
160.528793
 51
199.471207
  0
ARC
  8
0
 10
-256.699982
 20
162.499969
 40
6.000006
 50
160.528793
 51
199.471207
  0
ARC
  8
0
 10
-256.699982
 20
135.499969
 40
6.000006
 50
160.528793
 51
199.471207
  0
CIRCLE
  8
0
 62
     2
 10
-197.500000
 20
150.999969
 40
2.500000
  0
CIRCLE
  8
0
 10
-197.500000
 20
150.999969
 40
2.100000
  0
CIRCLE
  8
0
 62
     2
 10
-197.500000
 20
168.499969
 40
2.500000
  0
CIRCLE
  8
0
 10
-197.500000
 20
168.499969
 40
2.100000
  0
CIRCLE
  8
0
 62
     2
 10
-127.500000
 20
168.499969
 40
2.500000
  0
CIRCLE
  8
0
 10
-127.500000
 20
168.499969
 40
2.100000
  0
CIRCLE
  8
0
 62
     2
 10
-127.500000
 20
150.999969
 40
2.500000
  0
CIRCLE
  8
0
 10
-127.500000
 20
150.999969
 40
2.100000
  0
CIRCLE
  8
0
 62
     2
 10
-127.500000
 20
133.499969
 40
2.500000
  0
CIRCLE
  8
0
 10
-127.500000
 20
133.499969
 40
2.100000
  0
CIRCLE
  8
0
 62
     2
 10
-197.500000
 20
133.499969
 40
2.500000
  0
CIRCLE
  8
0
 10
-197.500000
 20
133.499969
 40
2.100000
  0
ARC
  8
0
 10
45.500000
 20
126.066635
 40
2.266666
 50
208.072464
 51
331.927521
  0
ARC
  8
0
 62
     2
 10
12.689606
 20
127.799927
 40
2.000000
 50
334.849396
 51
25.892448
  0
ARC
  8
0
 10
267.500031
 20
16.000015
 40
2.000000
 50
90.000000
 51
179.999939
  0
ARC
  8
0
 10
287.500031
 20
16.000015
 40
2.000000
 50
0.000000
 51
90.000000
  0
ARC
  8
0
 10
255.800034
 20
16.300014
 40
0.300003
 50
180.000000
 51
270.000000
  0
ARC
  8
0
 10
299.200043
 20
16.300014
 40
0.299999
 50
270.000000
 51
0.000000
  0
ARC
  8
0
 10
299.200043
 20
20.142490
 40
0.299988
 50
0.000000
 51
99.999817
  0
ARC
  8
0
 10
296.800018
 20
20.328560
 40
0.299988
 50
180.000000
 51
279.999817
  0
ARC
  8
0
 10
299.200043
 20
25.100014
 40
0.299999
 50
270.000000
 51
0.000000
  0
ARC
  8
0
 10
298.700043
 20
28.500015
 40
0.799988
 50
0.000000
 51
180.000000
  0
ARC
  8
0
 10
297.100037
 20
28.500015
 40
0.799998
 50
299.999573
 51
0.000000
  0
ARC
  8
0
 10
257.900024
 20
28.500015
 40
0.799988
 50
180.000000
 51
240.000427
  0
ARC
  8
0
 10
256.300018
 20
28.500015
 40
0.799988
 50
0.000000
 51
180.000000
  0
ARC
  8
0
 10
255.800034
 20
25.100014
 40
0.300003
 50
180.000000
 51
270.000000
  0
ARC
  8
0
 10
258.200043
 20
20.328560
 40
0.300000
 50
260.000183
 51
0.000000
  0
ARC
  8
0
 10
255.800034
 20
20.142490
 40
0.300000
 50
80.000183
 51
180.000000
  0
ARC
  8
0
 10
264.000031
 20
51.500015
 40
6.500000
 50
90.000000
 51
179.999969
  0
ARC
  8
0
 10
291.000031
 20
51.500015
 40
6.500000
 50
0.000000
 51
90.000000
  0
ARC
  8
0
 10
264.000031
 20
24.500015
 40
6.500000
 50
179.999985
 51
270.000000
  0
ARC
  8
0
 10
291.000031
 20
24.500015
 40
6.500000
 50
270.000000
 51
0.000000
  0
ARC
  8
0
 10
291.000031
 20
51.500015
 40
6.500000
 50
179.999969
 51
270.000000
  0
ARC
  8
0
 10
264.000031
 20
51.500015
 40
6.500000
 50
270.000000
 51
0.000000
  0
ARC
  8
0
 10
264.000031
 20
24.500015
 40
6.500000
 50
0.000000
 51
90.000000
  0
ARC
  8
0
 10
291.000031
 20
24.500015
 40
6.500000
 50
90.000000
 51
179.999969
  0
CIRCLE
  8
0
 62
     2
 10
271.500031
 20
38.000015
 40
4.864000
  0
CIRCLE
  8
0
 62
     2
 10
287.500031
 20
38.000015
 40
4.864000
  0
CIRCLE
  8
0
 10
271.500031
 20
38.000015
 40
4.278000
  0
CIRCLE
  8
0
 10
287.500031
 20
38.000015
 40
4.278000
  0
ARC
  8
0
 10
271.500031
 20
57.000015
 40
1.000000
 50
90.000000
 51
180.000000
  0
ARC
  8
0
 10
283.500031
 20
57.000015
 40
1.000000
 50
0.000000
 51
90.000000
  0
ARC
  8
0
 10
296.500031
 20
44.000015
 40
1.000000
 50
0.000000
 51
90.000000
  0
ARC
  8
0
 10
296.500031
 20
32.000015
 40
1.000000
 50
270.000000
 51
0.000000
  0
ARC
  8
0
 10
258.500031
 20
32.000015
 40
1.000000
 50
180.000000
 51
270.000000
  0
ARC
  8
0
 10
258.500031
 20
44.000015
 40
1.000000
 50
90.000000
 51
180.000000
  0
CIRCLE
  8
0
 10
264.000031
 20
51.500015
 40
5.500000
  0
CIRCLE
  8
0
 62
     2
 10
264.000031
 20
51.500015
 40
2.500000
  0
CIRCLE
  8
0
 10
264.000031
 20
51.500015
 40
2.100000
  0
CIRCLE
  8
0
 10
291.000031
 20
51.500015
 40
5.500000
  0
CIRCLE
  8
0
 62
     2
 10
291.000031
 20
51.500015
 40
2.500000
  0
CIRCLE
  8
0
 10
291.000031
 20
51.500015
 40
2.100000
  0
CIRCLE
  8
0
 10
291.000031
 20
24.500015
 40
5.500000
  0
CIRCLE
  8
0
 62
     2
 10
291.000031
 20
24.500015
 40
2.500000
  0
CIRCLE
  8
0
 10
291.000031
 20
24.500015
 40
2.100000
  0
CIRCLE
  8
0
 10
264.000031
 20
24.500015
 40
5.500000
  0
CIRCLE
  8
0
 62
     2
 10
264.000031
 20
24.500015
 40
2.500000
  0
CIRCLE
  8
0
 10
264.000031
 20
24.500015
 40
2.100000
  0
ARC
  8
0
 10
271.500031
 20
19.000015
 40
1.000000
 50
180.000000
 51
270.000000
  0
ARC
  8
0
 10
283.500031
 20
19.000015
 40
1.000000
 50
270.000000
 51
0.000000
  0
CIRCLE
  8
0
 10
264.000031
 20
51.500015
 40
4.000000
  0
CIRCLE
  8
0
 10
291.000031
 20
51.500015
 40
4.000000
  0
CIRCLE
  8
0
 10
291.000031
 20
24.500015
 40
4.000000
  0
CIRCLE
  8
0
 10
264.000031
 20
24.500015
 40
4.000000
  0
ARC
  8
0
 10
246.000031
 20
74.500015
 40
1.000000
 50
90.000000
 51
180.000000
  0
ARC
  8
0
 10
309.000031
 20
74.500015
 40
1.000000
 50
0.000000
 51
90.000000
  0
ARC
  8
0
 10
338.498108
 20
37.500019
 40
90.000000
 50
180.325516
 51
187.229416
  0
ARC
  8
0
 10
252.998108
 20
26.300018
 40
1.000000
 50
270.000000
 51
0.000000
  0
ARC
  8
0
 10
250.205658
 20
26.300018
 40
1.000000
 50
187.229233
 51
270.000000
  0
ARC
  8
0
 10
256.298126
 20
30.000023
 40
0.799988
 50
0.000000
 51
120.000664
  0
ARC
  8
0
 10
257.948120
 20
30.000023
 40
0.850006
 50
180.000000
 51
238.979202
  0
ARC
  8
0
 10
254.648117
 20
29.950012
 40
4.050003
 50
45.237015
 51
90.000000
  0
ARC
  8
0
 10
252.564789
 20
37.500015
 40
2.266666
 50
118.072464
 51
241.927536
  0
ARC
  8
0
 10
250.498108
 20
37.000019
 40
1.999999
 50
80.159492
 51
182.508423
  0
ARC
  8
0
 62
     4
 10
-295.942383
 20
-192.445847
 40
6.999970
 50
148.997192
 51
211.002808
  0
ARC
  8
0
 62
     4
 10
-292.942322
 20
-192.445847
 40
6.999970
 50
328.997192
 51
31.002804
  0
CIRCLE
  8
0
 62
     4
 10
-337.442352
 20
-74.945869
 40
4.250000
  0
CIRCLE
  8
0
 62
     4
 10
-326.442352
 20
-74.945869
 40
4.250000
  0
CIRCLE
  8
0
 62
     4
 10
-331.942352
 20
-115.945869
 40
4.250000
  0
CIRCLE
  8
0
 62
     4
 10
-326.442352
 20
-125.945869
 40
4.250000
  0
CIRCLE
  8
0
 62
     4
 10
-337.442352
 20
-125.945869
 40
4.250000
  0
ARC
  8
0
 62
     4
 10
-253.042358
 20
-202.845825
 40
0.399994
 50
90.000000
 51
180.000000
  0
ARC
  8
0
 62
     4
 10
-194.842346
 20
-202.845825
 40
0.399994
 50
0.000000
 51
90.000000
  0
ARC
  8
0
 62
     4
 10
-254.442352
 20
-194.945831
 40
1.500000
 50
90.000000
 51
180.000000
  0
ARC
  8
0
 62
     4
 10
-193.442352
 20
-194.945831
 40
1.500000
 50
0.000000
 51
90.000000
  0
ARC
  8
0
 62
     4
 10
-244.742340
 20
-193.145828
 40
0.300003
 50
270.000000
 51
350.405457
  0
ARC
  8
0
 62
     4
 10
-203.142365
 20
-193.145828
 40
0.300003
 50
180.000000
 51
270.000000
  0
ARC
  8
0
 62
     4
 10
-243.442352
 20
-189.445831
 40
1.000000
 50
90.000000
 51
180.000000
  0
ARC
  8
0
 62
     4
 10
-204.442352
 20
-189.445831
 40
1.000000
 50
0.000000
 51
90.000000
  0
ARC
  8
0
 62
     4
 10
-223.942352
 20
-207.945831
 40
24.999992
 50
66.682045
 51
113.317986
  0
ARC
  8
0
 62
     4
 10
-233.442352
 20
-185.906097
 40
0.999996
 50
113.317749
 51
180.000000
  0
ARC
  8
0
 62
     4
 10
-214.442352
 20
-185.906097
 40
1.000000
 50
0.000000
 51
66.682251
  0
ARC
  8
0
 62
     4
 10
-234.742355
 20
-188.145828
 40
0.300003
 50
270.000000
 51
0.000000
  0
ARC
  8
0
 62
     4
 10
-213.142365
 20
-188.145828
 40
0.300003
 50
180.000000
 51
270.000000
  0
ARC
  8
0
 62
     4
 10
-245.942352
 20
-208.945831
 40
5.500000
 50
270.000000
 51
291.323700
  0
ARC
  8
0
 62
     4
 10
-253.942352
 20
-212.445831
 40
2.000000
 50
180.000000
 51
270.000000
  0
ARC
  8
0
 62
     4
 10
-201.942352
 20
-208.945831
 40
5.499999
 50
248.676315
 51
270.000000
  0
ARC
  8
0
 62
     4
 10
-193.942352
 20
-212.445831
 40
2.000000
 50
270.000000
 51
0.000000
  0
ARC
  8
0
 62
     4
 10
-202.242355
 20
-206.317688
 40
0.300002
 50
310.000702
 51
0.000000
  0
ARC
  8
0
 62
     4
 10
-245.642349
 20
-206.317688
 40
0.300003
 50
180.000000
 51
229.999283
  0
CIRCLE
  8
0
 62
     4
 10
-223.942352
 20
-192.445831
 40
7.000000
  0
CIRCLE
  8
0
 62
     1
 10
-223.942352
 20
-192.445831
 40
6.250000
  0
CIRCLE
  8
0
 62
     4
 10
-92.442352
 20
-74.945862
 40
4.250000
  0
CIRCLE
  8
0
 62
     4
 10
-81.442352
 20
-74.945862
 40
4.250000
  0
CIRCLE
  8
0
 62
     4
 10
-86.942352
 20
-115.945862
 40
4.250000
  0
CIRCLE
  8
0
 62
     4
 10
-81.442352
 20
-125.945862
 40
4.250000
  0
CIRCLE
  8
0
 62
     4
 10
-92.442352
 20
-125.945862
 40
4.250000
  0
ARC
  8
0
 62
     4
 10
-17.042328
 20
-202.845856
 40
0.399994
 50
90.000000
 51
180.000000
  0
ARC
  8
0
 62
     4
 10
41.157669
 20
-202.845856
 40
0.400002
 50
0.000000
 51
90.000000
  0
ARC
  8
0
 62
     4
 10
-18.442329
 20
-194.945862
 40
1.500000
 50
90.000000
 51
180.000000
  0
ARC
  8
0
 62
     4
 10
42.557671
 20
-194.945862
 40
1.500000
 50
0.000000
 51
90.000000
  0
ARC
  8
0
 62
     4
 10
-8.742325
 20
-193.145859
 40
0.300003
 50
270.000000
 51
350.405365
  0
ARC
  8
0
 62
     4
 10
32.857666
 20
-193.145859
 40
0.299999
 50
180.000000
 51
270.000000
  0
ARC
  8
0
 62
     4
 10
-7.442329
 20
-189.445862
 40
1.000000
 50
89.999969
 51
180.000000
  0
ARC
  8
0
 62
     4
 10
31.557671
 20
-189.445862
 40
1.000000
 50
0.000000
 51
90.000000
  0
ARC
  8
0
 62
     4
 10
12.057671
 20
-207.945862
 40
24.999994
 50
66.682037
 51
113.317978
  0
ARC
  8
0
 62
     4
 10
2.557671
 20
-185.906128
 40
0.999998
 50
113.318024
 51
180.000000
  0
ARC
  8
0
 62
     4
 10
21.557671
 20
-185.906128
 40
1.000000
 50
0.000000
 51
66.681946
  0
ARC
  8
0
 62
     4
 10
1.257668
 20
-188.145859
 40
0.300003
 50
270.000031
 51
0.000000
  0
ARC
  8
0
 62
     4
 10
22.857666
 20
-188.145859
 40
0.299999
 50
180.000000
 51
270.000000
  0
CIRCLE
  8
0
 62
     4
 10
12.057671
 20
-192.445862
 40
7.000000
  0
ARC
  8
0
 62
     4
 10
-9.942329
 20
-208.745865
 40
5.500000
 50
270.000031
 51
291.323700
  0
ARC
  8
0
 62
     4
 10
-17.942329
 20
-212.245865
 40
2.000000
 50
180.000000
 51
270.000000
  0
ARC
  8
0
 62
     4
 10
34.057671
 20
-208.745865
 40
5.499999
 50
248.676315
 51
269.999969
  0
ARC
  8
0
 62
     4
 10
42.057671
 20
-212.245865
 40
2.000000
 50
270.000000
 51
0.000000
  0
ARC
  8
0
 62
     4
 10
33.757671
 20
-206.317719
 40
0.300000
 50
310.000153
 51
0.000000
  0
ARC
  8
0
 62
     4
 10
-9.642330
 20
-206.317719
 40
0.300000
 50
180.000000
 51
229.999847
  0
CIRCLE
  8
0
 62
     1
 10
12.057671
 20
-192.445862
 40
6.000000
  0
ARC
  8
0
 62
     4
 10
182.019623
 20
-103.979355
 40
3.600006
 50
180.000000
 51
270.000000
  0
ARC
  8
0
 62
     4
 10
182.019623
 20
-103.979355
 40
1.000000
 50
180.000000
 51
270.000000
  0
ARC
  8
0
 62
     4
 10
324.919678
 20
-94.579376
 40
3.000000
 50
0.000000
 51
90.000000
  0
ARC
  8
0
 62
     4
 10
291.919678
 20
-94.579376
 40
3.000000
 50
90.000000
 51
180.000000
  0
CIRCLE
  8
0
 62
     4
 10
294.919678
 20
-99.079376
 40
4.250000
  0
CIRCLE
  8
0
 62
     4
 10
321.919678
 20
-99.079376
 40
4.250000
  0
ARC
  8
0
 62
     4
 10
308.419678
 20
-91.579376
 40
10.000000
 50
180.000000
 51
0.000000
  0
ARC
  8
0
 62
     4
 10
330.119629
 20
-223.436905
 40
0.299988
 50
0.000000
 51
99.999878
  0
ARC
  8
0
 62
     4
 10
286.719635
 20
-223.436905
 40
0.299998
 50
80.000122
 51
180.000000
  0
ARC
  8
0
 62
     4
 10
330.819641
 20
-227.179382
 40
0.399994
 50
180.000000
 51
270.000000
  0
ARC
  8
0
 62
     4
 10
343.019653
 20
-227.179382
 40
0.399994
 50
270.000000
 51
0.000000
  0
ARC
  8
0
 62
     4
 10
342.419647
 20
-220.579376
 40
1.000000
 50
0.000000
 51
90.000000
  0
ARC
  8
0
 62
     4
 10
286.019653
 20
-227.179382
 40
0.399994
 50
270.000000
 51
0.000000
  0
ARC
  8
0
 62
     4
 10
273.819641
 20
-227.179382
 40
0.399994
 50
180.000000
 51
270.000000
  0
ARC
  8
0
 62
     4
 10
274.419647
 20
-220.579376
 40
1.000000
 50
90.000000
 51
180.000000
  0
ARC
  8
0
 62
     4
 10
289.119629
 20
-223.250824
 40
0.299998
 50
260.000122
 51
0.000000
  0
ARC
  8
0
 62
     4
 10
327.719666
 20
-223.250824
 40
0.299988
 50
180.000000
 51
279.999878
  0
ARC
  8
0
 62
     4
 10
289.119629
 20
-219.879379
 40
0.299988
 50
0.000000
 51
90.000000
  0
ARC
  8
0
 62
     4
 10
327.719666
 20
-219.879379
 40
0.300003
 50
90.000000
 51
180.000000
  0
TEXT
  8
0
 10
-320.618439
 20
-31.549999
 40
7.000000
  1
S-ABSORBER(K)
 50
0.000000
 41
1.052632
 51
0.000000
  7
STANDARD
  0
TEXT
  8
0
 10
-65.355942
 20
-31.549999
 40
7.000000
  1
A-BOLT(-S)
 50
0.000000
 41
1.052632
 51
0.000000
  7
STANDARD
  0
TEXT
  8
0
 10
198.787811
 20
-31.549999
 40
7.000000
  1
L SUPPORT(-L)
 50
0.000000
 41
1.052632
 51
0.000000
  7
STANDARD
  0
TEXT
  8
0
 10
198.787811
 20
-156.550003
 40
7.000000
  1
F SUPPORT(-F)
 50
0.000000
 41
1.052632
 51
0.000000
  7
STANDARD
  0
TEXT
  8
0
 10
-365.285309
 20
256.649994
 40
9.000000
  1
ORK SERIES
 50
0.000000
 41
1.052632
 51
0.000000
  7
STANDARD
  0
TEXT
  8
0
 10
242.014816
 20
-274.500000
 40
12.500000
  1
KOGANEI CORP.
 50
0.000000
 41
1.052632
 51
0.000000
  7
STANDARD
  0
TEXT
  8
0
 10
251.264664
 20
256.649994
 40
9.000000
  1
DATE: Apr ,1994
 50
0.000000
 41
1.052632
 51
0.000000
  7
STANDARD
  0
TEXT
  8
0
 10
-384.785309
 20
224.149994
 40
9.000000
  1
MODEL:ORK 25X200
 50
0.000000
 41
1.052632
 51
0.000000
  7
STANDARD
  0
ENDSEC
  0
EOF
