  0
SECTION
  2
HEADER
  0
ENDSEC
  0
SECTION
  2
TABLES
  0
TABLE
  2
LTYPE
 70
     4
  0
LTYPE
  2
CONTINUOUS
 70
    64
  3
Solid line
 72
    65
 73
     0
 40
0.000000
  0
LTYPE
  2
DASHED
 70
    64
  3
__ __ __ __ __ __ __ __ __ __ __ __ __ __ __
 72
    65
 73
     2
 40
3.500000
 49
2.000000
 49
-1.500000
  0
LTYPE
  2
CENTER
 70
    64
  3
____ _ ____ _ ____ _ ____ _ ____ _ ____ _ ____
 72
    65
 73
     4
 40
17.500000
 49
13.000000
 49
-1.500000
 49
1.500000
 49
-1.500000
  0
LTYPE
  2
PHANTOM
 70
    64
  3
_____ _ _ _____ _ _ _____ _ _ _____ _ _ ____  
 72
    65
 73
     6
 40
15.500000
 49
8.000000
 49
-1.500000
 49
1.500000
 49
-1.500000
 49
1.500000
 49
-1.500000
  0
LTYPE
  2
DASHED1
 70
    64
  3
__ __ __ __ __ __ __ __ __ __ __ __ __ __ __
 72
    65
 73
     2
 40
1.500000
 49
1.000000
 49
-0.500000
  0
LTYPE
  2
DASHED2
 70
    64
  3
__ __ __ __ __ __ __ __ __ __ __ __ __ __ __
 72
    65
 73
     2
 40
3.500000
 49
2.500000
 49
-1.000000
  0
LTYPE
  2
DASHED3
 70
    64
  3
__ __ __ __ __ __ __ __ __ __ __ __ __ __ __
 72
    65
 73
     2
 40
6.000000
 49
4.000000
 49
-2.000000
  0
LTYPE
  2
DASHED4
 70
    64
  3
__ __ __ __ __ __ __ __ __ __ __ __ __ __ __
 72
    65
 73
     2
 40
12.000000
 49
10.000000
 49
-2.000000
  0
LTYPE
  2
DASHED5
 70
    64
  3
__ __ __ __ __ __ __ __ __ __ __ __ __ __ __
 72
    65
 73
     2
 40
17.000000
 49
15.000000
 49
-2.000000
  0
LTYPE
  2
DASHED6
 70
    64
  3
__ __ __ __ __ __ __ __ __ __ __ __ __ __ __
 72
    65
 73
     2
 40
29.000000
 49
27.000000
 49
-2.000000
  0
LTYPE
  2
PHANTOM1
 70
    64
  3
_____ _ _ _____ _ _ _____ _ _ _____ _ _ ____  
 72
    65
 73
     6
 40
31.000000
 49
25.000000
 49
-1.500000
 49
1.000000
 49
-1.000000
 49
1.000000
 49
-1.500000
  0
LTYPE
  2
PHANTOM2
 70
    64
  3
_____ _ _ _____ _ _ _____ _ _ _____ _ _ ____  
 72
    65
 73
     6
 40
36.000000
 49
27.000000
 49
-1.500000
 49
2.500000
 49
-1.000000
 49
2.500000
 49
-1.500000
  0
LTYPE
  2
PHANTOM3
 70
    64
  3
_____ _ _ _____ _ _ _____ _ _ _____ _ _ ____  
 72
    65
 73
     6
 40
78.000000
 49
64.000000
 49
-2.000000
 49
4.000000
 49
-2.000000
 49
4.000000
 49
-2.000000
  0
LTYPE
  2
CENTER1
 70
    64
  3
____ _ ____ _ ____ _ ____ _ ____ _ ____ _ ____
 72
    65
 73
     4
 40
19.000000
 49
14.000000
 49
-1.000000
 49
3.000000
 49
-1.000000
  0
LTYPE
  2
CENTER2
 70
    64
  3
____ _ ____ _ ____ _ ____ _ ____ _ ____ _ ____
 72
    65
 73
     4
 40
28.500000
 49
25.000000
 49
-1.000000
 49
1.500000
 49
-1.000000
  0
LTYPE
  2
CENTER3
 70
    64
  3
____ _ ____ _ ____ _ ____ _ ____ _ ____ _ ____
 72
    65
 73
     4
 40
31.500000
 49
27.000000
 49
-1.000000
 49
2.500000
 49
-1.000000
  0
LTYPE
  2
CENTER4
 70
    64
  3
____ _ ____ _ ____ _ ____ _ ____ _ ____ _ ____
 72
    65
 73
     4
 40
50.000000
 49
45.000000
 49
-1.000000
 49
3.000000
 49
-1.000000
  0
LTYPE
  2
CENTER5
 70
    64
  3
____ _ ____ _ ____ _ ____ _ ____ _ ____ _ ____
 72
    65
 73
     4
 40
100.000000
 49
92.000000
 49
-2.000000
 49
4.000000
 49
-2.000000
  0
LTYPE
  2
SBK1
 70
    64
  3
______ _ _ _ ______ _ _ _ ______ _ _ _ _____  
 72
    65
 73
     8
 40
60.500000
 49
45.000000
 49
-2.000000
 49
2.500000
 49
-2.000000
 49
2.500000
 49
-2.000000
 49
2.500000
 49
-2.000000
  0
LTYPE
  2
SBK2
 70
    64
  3
______ _ _ _ ______ _ _ _ ______ _ _ _ _____  
 72
    65
 73
     8
 40
84.000000
 49
64.000000
 49
-2.000000
 49
4.000000
 49
-2.000000
 49
4.000000
 49
-2.000000
 49
4.000000
 49
-2.000000
  0
LTYPE
  2
STCH
 70
    64
  3
__ __ __ __ __ __ __ __ __ __ __ __ __ __ __
 72
    65
 73
     2
 40
3.000000
 49
1.000000
 49
-2.000000
  0
LTYPE
  2
MTCH
 70
    64
  3
_____ _ _ _____ _ _ _____ _ _ _____ _ _ ____  
 72
    65
 73
     6
 40
80.000000
 49
66.000000
 49
-2.000000
 49
4.000000
 49
-2.000000
 49
4.000000
 49
-2.000000
  0
ENDTAB
  0
TABLE
  2
LAYER
 70
     1
  0
LAYER
  2
0
 70
     0
 62
     7
  6
CONTINUOUS
  0
ENDTAB
  0
TABLE
  2
STYLE
 70
     1
  0
STYLE
  2
STANDARD
 70
     0
 40
0.000000
 41
1.000000
 50
0.000000
 71
     0
 42
0.200000
  3
txt
  4
BIGFONT
  0
ENDTAB
  0
TABLE
  2
VIEW
 70
     0
  0
ENDTAB
  0
ENDSEC
  0
SECTION
  2
BLOCKS
  0
ENDSEC
  0
SECTION
  2
ENTITIES
  0
LINE
  8
0
 10
-281.250000
 20
-4.500000
 11
282.099976
 21
-4.500000
  0
LINE
  8
0
 10
57.424988
 20
-4.500000
 11
57.424988
 21
-195.000000
  0
LINE
  8
0
 10
-115.412506
 20
-4.500000
 11
-115.412506
 21
-195.000000
  0
LINE
  8
0
 10
57.424988
 20
-96.664696
 11
282.099976
 21
-96.664696
  0
LINE
  8
0
  6
CENTER
 62
     2
 10
-135.667450
 20
-144.449997
 11
-170.322327
 21
-144.449997
  0
LINE
  8
0
  6
CENTER
 62
     2
 10
-152.474976
 20
-137.875839
 11
-152.474976
 21
-162.949997
  0
LINE
  8
0
  6
CENTER
 62
     2
 10
-101.243675
 20
-144.449997
 11
-42.474991
 21
-144.449997
  0
LINE
  8
0
  6
CENTER
 62
     2
 10
20.775009
 20
-144.449997
 11
-20.724991
 21
-144.449997
  0
LINE
  8
0
  6
CENTER
 62
     2
 10
0.275009
 20
-136.670090
 11
0.275009
 21
-162.949997
  0
LINE
  8
0
  6
CENTER
 62
     2
 10
103.203323
 20
-59.449997
 11
137.275009
 21
-59.449997
  0
LINE
  8
0
  6
CENTER
 62
     2
 10
227.775009
 20
-59.449997
 11
186.275009
 21
-59.449997
  0
LINE
  8
0
  6
CENTER
 62
     2
 10
207.275009
 20
-27.449997
 11
207.275009
 21
-79.449997
  0
LINE
  8
0
  6
CENTER
 62
     2
 10
88.589951
 20
-140.538589
 11
148.240280
 21
-140.538589
  0
LINE
  8
0
  6
CENTER
 62
     2
 10
-257.108032
 20
-144.450012
 11
-200.329102
 21
-144.450012
  0
LINE
  8
0
  6
CENTER
 62
     2
 10
132.275009
 20
-49.740494
 11
132.275009
 21
-79.375877
  0
LINE
  8
0
  6
CENTER
 62
     2
 10
114.851921
 20
-124.498627
 11
114.851921
 21
-146.635880
  0
LINE
  8
0
  6
CENTER
 62
     2
 10
213.275009
 20
-118.308632
 11
213.275009
 21
-159.565735
  0
LINE
  8
0
  6
CENTER
 62
     2
 10
198.506088
 20
-140.450012
 11
229.594177
 21
-140.450012
  0
LINE
  8
0
 10
-281.250000
 20
-14.500000
 11
282.099976
 21
-14.500000
  0
LINE
  8
0
 10
57.424988
 20
-106.664696
 11
282.099976
 21
-106.664696
  0
LINE
  8
0
 10
-281.250000
 20
195.500000
 11
282.099976
 21
195.500000
  0
LINE
  8
0
 10
-281.250000
 20
195.500000
 11
-281.250000
 21
-195.000000
  0
LINE
  8
0
 10
282.099976
 20
195.500000
 11
282.099976
 21
-195.000000
  0
LINE
  8
0
 10
-281.250000
 20
-195.000000
 11
282.099976
 21
-195.000000
  0
LINE
  8
0
 10
162.099976
 20
-175.000000
 11
162.099976
 21
-195.000000
  0
LINE
  8
0
 10
162.099976
 20
-175.000000
 11
282.099976
 21
-175.000000
  0
LINE
  8
0
 10
162.099976
 20
175.500000
 11
282.099976
 21
175.500000
  0
LINE
  8
0
 10
-281.250000
 20
175.500000
 11
-161.250000
 21
175.500000
  0
LINE
  8
0
 10
162.099976
 20
195.500000
 11
162.099976
 21
175.500000
  0
LINE
  8
0
 10
-161.250000
 20
195.500000
 11
-161.250000
 21
175.500000
  0
LINE
  8
0
 10
48.985245
 20
48.790066
 11
48.985245
 21
20.290066
  0
LINE
  8
0
 10
-151.014755
 20
44.089428
 11
-136.014755
 21
44.089428
  0
LINE
  8
0
 10
-151.014755
 20
42.338463
 11
-136.014755
 21
42.338463
  0
LINE
  8
0
 10
-151.014755
 20
35.790066
 11
-136.014755
 21
35.790066
  0
LINE
  8
0
 10
63.985245
 20
48.390064
 11
63.985245
 21
47.347721
  0
LINE
  8
0
  6
CENTER
 62
     2
 10
68.985245
 20
35.290066
 11
-156.040176
 21
35.290066
  0
LINE
  8
0
 10
63.585251
 20
21.790066
 11
48.985245
 21
21.790066
  0
LINE
  8
0
 10
50.736782
 20
37.727608
 11
52.714146
 21
41.152538
  0
LINE
  8
0
 10
51.256363
 20
37.427612
 11
53.233742
 21
40.852516
  0
LINE
  8
0
 10
61.185226
 20
48.390064
 11
61.185226
 21
39.990067
  0
LINE
  8
0
 10
63.585251
 20
39.790066
 11
61.385239
 21
39.790066
  0
LINE
  8
0
 10
63.585251
 20
30.790066
 11
61.385239
 21
30.790066
  0
LINE
  8
0
 10
61.185226
 20
30.590065
 11
61.185226
 21
22.190065
  0
LINE
  8
0
 10
64.185226
 20
47.001343
 11
64.185226
 21
41.578789
  0
LINE
  8
0
 10
64.185226
 20
29.001345
 11
64.185226
 21
23.578789
  0
LINE
  8
0
 10
63.917496
 20
41.115067
 11
61.997604
 21
41.115067
  0
LINE
  8
0
 10
63.917496
 20
47.465065
 11
61.997604
 21
47.465065
  0
LINE
  8
0
 10
63.917496
 20
29.465065
 11
61.997604
 21
29.465065
  0
LINE
  8
0
 10
63.917496
 20
23.115067
 11
61.997604
 21
23.115067
  0
LINE
  8
0
 10
63.894974
 20
45.880066
 11
61.997604
 21
45.880066
  0
LINE
  8
0
 10
63.894974
 20
42.700066
 11
61.997604
 21
42.700066
  0
LINE
  8
0
 10
63.894974
 20
24.700066
 11
61.997604
 21
24.700066
  0
LINE
  8
0
 10
63.894974
 20
27.880066
 11
61.997604
 21
27.880066
  0
LINE
  8
0
 10
61.997574
 20
40.790066
 11
61.185226
 21
40.790066
  0
LINE
  8
0
 10
61.997604
 20
47.790066
 11
61.185226
 21
47.790066
  0
LINE
  8
0
 10
63.985245
 20
41.232407
 11
63.985245
 21
29.347723
  0
LINE
  8
0
 10
61.997574
 20
29.790066
 11
61.185226
 21
29.790066
  0
LINE
  8
0
 10
61.997574
 20
22.790066
 11
61.185226
 21
22.790066
  0
LINE
  8
0
 10
63.985245
 20
23.232410
 11
63.985245
 21
22.190065
  0
LINE
  8
0
 10
54.985245
 20
37.310795
 11
54.985245
 21
33.269341
  0
LINE
  8
0
 10
61.985245
 20
37.310791
 11
61.985245
 21
33.269341
  0
LINE
  8
0
 10
58.485233
 20
31.248596
 11
61.985226
 21
33.269318
  0
LINE
  8
0
 10
54.985256
 20
37.310795
 11
58.485249
 21
39.331516
  0
LINE
  8
0
 10
58.485229
 20
31.248621
 11
54.985210
 21
33.269356
  0
LINE
  8
0
 10
61.985191
 20
37.310829
 11
58.485199
 21
39.331551
  0
LINE
  8
0
 10
56.302269
 20
32.508980
 11
59.802269
 21
38.571156
  0
LINE
  8
0
 10
57.168289
 20
32.008965
 11
60.668289
 21
38.071144
  0
LINE
  8
0
 10
61.997604
 20
40.790066
 11
61.997604
 21
47.790066
  0
LINE
  8
0
 10
61.997635
 20
29.790066
 11
61.997635
 21
22.790066
  0
LINE
  8
0
 10
63.917507
 20
47.465080
 11
64.185234
 21
47.001358
  0
LINE
  8
0
 10
63.917515
 20
41.115086
 11
64.185249
 21
41.578808
  0
LINE
  8
0
 10
63.917538
 20
23.115072
 11
64.185272
 21
23.578794
  0
LINE
  8
0
 10
63.917511
 20
29.465061
 11
64.185242
 21
29.001339
  0
LINE
  8
0
 10
-151.014755
 20
48.790066
 11
-151.014755
 21
20.290066
  0
LINE
  8
0
 10
-166.014755
 20
48.390064
 11
-166.014755
 21
47.347721
  0
LINE
  8
0
 10
-165.614761
 20
21.790066
 11
-151.014755
 21
21.790066
  0
LINE
  8
0
 10
-153.285614
 20
41.152348
 11
-155.262985
 21
37.727440
  0
LINE
  8
0
 10
-152.766434
 20
40.852661
 11
-154.743805
 21
37.427757
  0
LINE
  8
0
 10
-163.214737
 20
48.390064
 11
-163.214737
 21
39.990067
  0
LINE
  8
0
 10
-165.614761
 20
39.790066
 11
-163.414749
 21
39.790066
  0
LINE
  8
0
 10
-165.614761
 20
30.790066
 11
-163.414749
 21
30.790066
  0
LINE
  8
0
 10
-163.214737
 20
30.590065
 11
-163.214737
 21
22.190065
  0
LINE
  8
0
 10
-166.214737
 20
47.001343
 11
-166.214737
 21
41.578789
  0
LINE
  8
0
 10
-166.214737
 20
29.001345
 11
-166.214737
 21
23.578789
  0
LINE
  8
0
 10
-165.947006
 20
41.115067
 11
-164.027115
 21
41.115067
  0
LINE
  8
0
 10
-165.947006
 20
47.465065
 11
-164.027115
 21
47.465065
  0
LINE
  8
0
 10
-165.947006
 20
29.465065
 11
-164.027115
 21
29.465065
  0
LINE
  8
0
 10
-165.947006
 20
23.115067
 11
-164.027115
 21
23.115067
  0
LINE
  8
0
 10
-165.924484
 20
45.880066
 11
-164.027115
 21
45.880066
  0
LINE
  8
0
 10
-165.924484
 20
42.700066
 11
-164.027115
 21
42.700066
  0
LINE
  8
0
 10
-165.924484
 20
24.700066
 11
-164.027115
 21
24.700066
  0
LINE
  8
0
 10
-165.924484
 20
27.880066
 11
-164.027115
 21
27.880066
  0
LINE
  8
0
 10
-164.027084
 20
40.790066
 11
-163.214737
 21
40.790066
  0
LINE
  8
0
 10
-164.027115
 20
47.790066
 11
-163.214737
 21
47.790066
  0
LINE
  8
0
 10
-166.014755
 20
41.232407
 11
-166.014755
 21
29.347723
  0
LINE
  8
0
 10
-164.027084
 20
29.790066
 11
-163.214737
 21
29.790066
  0
LINE
  8
0
 10
-164.027084
 20
22.790066
 11
-163.214737
 21
22.790066
  0
LINE
  8
0
 10
-166.014755
 20
23.232410
 11
-166.014755
 21
22.190065
  0
LINE
  8
0
 10
-157.014755
 20
37.310795
 11
-157.014755
 21
33.269341
  0
LINE
  8
0
 10
-164.014755
 20
37.310791
 11
-164.014755
 21
33.269341
  0
LINE
  8
0
 10
-160.514740
 20
31.248598
 11
-164.014740
 21
33.269314
  0
LINE
  8
0
 10
-157.014725
 20
37.310791
 11
-160.514740
 21
39.331524
  0
LINE
  8
0
 10
-160.514725
 20
31.248648
 11
-157.014740
 21
33.269379
  0
LINE
  8
0
 10
-164.014709
 20
37.310810
 11
-160.514709
 21
39.331528
  0
LINE
  8
0
 10
-161.831757
 20
32.008965
 11
-158.331757
 21
38.071144
  0
LINE
  8
0
 10
-162.697754
 20
32.508953
 11
-159.197754
 21
38.571140
  0
LINE
  8
0
 10
-164.027115
 20
40.790066
 11
-164.027115
 21
47.790066
  0
LINE
  8
0
 10
-164.027145
 20
29.790066
 11
-164.027145
 21
22.790066
  0
LINE
  8
0
 10
-165.946991
 20
47.465050
 11
-166.214722
 21
47.001328
  0
LINE
  8
0
 10
-165.946976
 20
41.115089
 11
-166.214706
 21
41.578815
  0
LINE
  8
0
 10
-165.947021
 20
23.115086
 11
-166.214722
 21
23.578810
  0
LINE
  8
0
 10
-165.947021
 20
29.465061
 11
-166.214722
 21
29.001337
  0
LINE
  8
0
 10
-129.514755
 20
62.290066
 11
-72.514755
 21
62.290066
  0
LINE
  8
0
 10
-136.014755
 20
61.790066
 11
-66.014755
 21
61.790066
  0
LINE
  8
0
 10
-136.014755
 20
39.066013
 11
-66.014755
 21
39.066013
  0
LINE
  8
0
 10
-136.014755
 20
35.290066
 11
-66.014755
 21
35.290066
  0
LINE
  8
0
  6
CENTER
 62
     2
 10
-136.014755
 20
35.290066
 11
-171.014755
 21
35.290066
  0
LINE
  8
0
 10
-129.514755
 20
62.290066
 11
-129.514755
 21
35.290066
  0
LINE
  8
0
 10
-72.514755
 20
62.290066
 11
-72.514755
 21
35.290066
  0
LINE
  8
0
 10
-136.014755
 20
61.790066
 11
-136.014755
 21
35.290066
  0
LINE
  8
0
 10
-66.014755
 20
61.790066
 11
-66.014755
 21
35.290066
  0
LINE
  8
0
  6
CENTER
 62
     2
 10
-101.014755
 20
67.290070
 11
-101.014755
 21
15.290066
  0
LINE
  8
0
 10
-129.514755
 20
55.790066
 11
-72.514755
 21
55.790066
  0
LINE
  8
0
  6
CENTER
 62
     2
 10
-1.014755
 20
53.490067
 11
-1.014755
 21
15.290066
  0
LINE
  8
0
 10
-66.014755
 20
44.089428
 11
48.985245
 21
44.089428
  0
LINE
  8
0
 10
-66.014755
 20
42.338463
 11
48.985245
 21
42.338463
  0
LINE
  8
0
 10
-66.014755
 20
35.790066
 11
48.985245
 21
35.790066
  0
LINE
  8
0
 10
-151.014755
 20
34.790066
 11
48.985245
 21
34.790066
  0
LINE
  8
0
 10
-151.014755
 20
29.590067
 11
-117.514755
 21
29.590067
  0
LINE
  8
0
 10
-151.014755
 20
25.890066
 11
-117.514755
 21
25.890066
  0
LINE
  8
0
 10
-151.014755
 20
23.190067
 11
48.985245
 21
23.190067
  0
LINE
  8
0
 10
-151.014755
 20
20.290066
 11
48.985245
 21
20.290066
  0
LINE
  8
0
 10
-66.014755
 20
48.790066
 11
63.585251
 21
48.790066
  0
LINE
  8
0
 10
-165.614761
 20
48.790066
 11
-136.014755
 21
48.790066
  0
LINE
  8
0
 10
-151.014755
 20
23.973557
 11
48.985245
 21
23.973557
  0
LINE
  8
0
 10
-2.514755
 20
29.590067
 11
48.985245
 21
29.590067
  0
LINE
  8
0
 10
-2.514755
 20
25.890066
 11
48.985245
 21
25.890066
  0
LINE
  8
0
 10
-102.514755
 20
29.590067
 11
-17.514755
 21
29.590067
  0
LINE
  8
0
 10
-102.514755
 20
25.890066
 11
-17.514755
 21
25.890066
  0
LINE
  8
0
 62
     2
 10
-32.323891
 20
36.002411
 11
-35.929314
 21
29.757641
  0
LINE
  8
0
 10
-17.514755
 20
34.290066
 11
-33.312561
 21
34.290066
  0
LINE
  8
0
 10
7.485245
 20
33.924053
 11
7.485245
 21
31.656113
  0
LINE
  8
0
 10
5.985245
 20
34.790089
 11
5.985245
 21
30.790089
  0
LINE
  8
0
 10
5.985245
 20
30.790066
 11
-2.514755
 21
30.790066
  0
LINE
  8
0
 10
-17.514755
 20
34.790089
 11
-17.514755
 21
24.790066
  0
LINE
  8
0
 10
7.485270
 20
31.656097
 11
5.985265
 21
30.790070
  0
LINE
  8
0
 10
7.485231
 20
33.924068
 11
5.985257
 21
34.790089
  0
LINE
  8
0
 10
-17.514755
 20
31.290066
 11
-35.044601
 21
31.290066
  0
LINE
  8
0
 10
-2.514755
 20
34.790089
 11
-2.514755
 21
24.790066
  0
LINE
  8
0
 10
-2.514755
 20
24.790066
 11
-17.514755
 21
24.790066
  0
LINE
  8
0
 62
     2
 10
-132.323914
 20
36.002426
 11
-135.929337
 21
29.757660
  0
LINE
  8
0
 10
-117.514755
 20
34.290066
 11
-133.312561
 21
34.290066
  0
LINE
  8
0
 10
-94.014755
 20
34.790066
 11
-117.514755
 21
34.790066
  0
LINE
  8
0
 10
-92.514755
 20
33.924053
 11
-92.514755
 21
31.656113
  0
LINE
  8
0
 10
-94.014755
 20
34.790089
 11
-94.014755
 21
30.790089
  0
LINE
  8
0
 10
-94.014755
 20
30.790066
 11
-102.514755
 21
30.790066
  0
LINE
  8
0
 10
-117.514755
 20
34.790089
 11
-117.514755
 21
24.790068
  0
LINE
  8
0
 10
-92.514748
 20
31.656107
 11
-94.014755
 21
30.790079
  0
LINE
  8
0
 10
-92.514786
 20
33.924076
 11
-94.014771
 21
34.790100
  0
LINE
  8
0
 10
-117.514755
 20
31.290066
 11
-135.044601
 21
31.290066
  0
LINE
  8
0
 10
-102.514755
 20
34.790089
 11
-102.514755
 21
24.790068
  0
LINE
  8
0
 10
-102.514755
 20
24.790068
 11
-117.514755
 21
24.790068
  0
LINE
  8
0
 10
48.985229
 20
99.290070
 11
48.985229
 21
131.290070
  0
LINE
  8
0
 10
-151.014771
 20
102.440063
 11
-136.014771
 21
102.440063
  0
LINE
  8
0
 10
-151.014771
 20
106.640060
 11
-136.014771
 21
106.640060
  0
LINE
  8
0
 10
-151.014771
 20
123.940063
 11
-136.014771
 21
123.940063
  0
LINE
  8
0
 10
-151.014771
 20
128.140060
 11
-136.014771
 21
128.140060
  0
LINE
  8
0
 10
-151.014771
 20
131.290070
 11
-136.014771
 21
131.290070
  0
LINE
  8
0
 10
-151.014771
 20
99.290062
 11
-136.014771
 21
99.290062
  0
LINE
  8
0
 10
63.585236
 20
101.790070
 11
48.985229
 21
101.790070
  0
LINE
  8
0
 10
63.585236
 20
128.790070
 11
48.985229
 21
128.790070
  0
LINE
  8
0
 10
63.985229
 20
128.390076
 11
63.985229
 21
127.040070
  0
LINE
  8
0
 10
48.985229
 20
128.790070
 11
48.985229
 21
101.790070
  0
LINE
  8
0
 10
53.585236
 20
121.590073
 11
53.585236
 21
108.990067
  0
LINE
  8
0
 10
51.385223
 20
106.790070
 11
48.985229
 21
106.790070
  0
LINE
  8
0
 10
51.385223
 20
123.790070
 11
48.985229
 21
123.790070
  0
LINE
  8
0
 10
61.185242
 20
128.390076
 11
61.185242
 21
119.990067
  0
LINE
  8
0
 10
63.585236
 20
119.790070
 11
61.385239
 21
119.790070
  0
LINE
  8
0
 10
63.585236
 20
110.790070
 11
61.385239
 21
110.790070
  0
LINE
  8
0
 10
61.185242
 20
110.590073
 11
61.185242
 21
102.190063
  0
LINE
  8
0
 10
64.185242
 20
124.290070
 11
62.185242
 21
124.290070
  0
LINE
  8
0
 10
64.185242
 20
106.290070
 11
62.185242
 21
106.290070
  0
LINE
  8
0
 10
64.185242
 20
127.040070
 11
62.185242
 21
127.040070
  0
LINE
  8
0
 10
64.185242
 20
121.540070
 11
62.185242
 21
121.540070
  0
LINE
  8
0
 10
64.185242
 20
109.040070
 11
62.185242
 21
109.040070
  0
LINE
  8
0
 10
64.185242
 20
103.540070
 11
62.185242
 21
103.540070
  0
LINE
  8
0
 10
62.185242
 20
109.465073
 11
62.185242
 21
103.115051
  0
LINE
  8
0
 10
62.185242
 20
127.465088
 11
62.185242
 21
121.115067
  0
LINE
  8
0
 10
64.185242
 20
127.040070
 11
64.185242
 21
121.540070
  0
LINE
  8
0
 10
64.185242
 20
109.040070
 11
64.185242
 21
103.540070
  0
LINE
  8
0
 10
61.997604
 20
127.790070
 11
61.185242
 21
127.790070
  0
LINE
  8
0
 10
61.997604
 20
120.790070
 11
61.185242
 21
120.790070
  0
LINE
  8
0
 10
61.997604
 20
109.790070
 11
61.185242
 21
109.790070
  0
LINE
  8
0
 10
61.997604
 20
102.790070
 11
61.185242
 21
102.790070
  0
LINE
  8
0
 10
63.985229
 20
103.540070
 11
63.985229
 21
102.190063
  0
LINE
  8
0
 10
63.985229
 20
121.540070
 11
63.985229
 21
109.040070
  0
LINE
  8
0
 10
51.285217
 20
121.090034
 11
50.507397
 21
121.867851
  0
LINE
  8
0
 10
51.285229
 20
121.090042
 11
52.063053
 21
121.867867
  0
LINE
  8
0
 10
51.285198
 20
121.090057
 11
50.507359
 21
120.312233
  0
LINE
  8
0
 10
51.285305
 20
121.090134
 11
52.063133
 21
120.312309
  0
LINE
  8
0
 10
51.285175
 20
109.490059
 11
50.507339
 21
108.712234
  0
LINE
  8
0
 10
51.285248
 20
109.490112
 11
52.063095
 21
108.712273
  0
LINE
  8
0
 10
51.285183
 20
109.490051
 11
52.063042
 21
110.267876
  0
LINE
  8
0
 10
51.285168
 20
109.490005
 11
50.507343
 21
110.267830
  0
LINE
  8
0
 10
61.997604
 20
127.790085
 11
61.997604
 21
120.790070
  0
LINE
  8
0
 10
61.997608
 20
120.790062
 11
62.185246
 21
121.115059
  0
LINE
  8
0
 10
61.997650
 20
127.790100
 11
62.185287
 21
127.465103
  0
LINE
  8
0
 10
61.997604
 20
109.790070
 11
61.997604
 21
102.790054
  0
LINE
  8
0
 10
61.997620
 20
109.790092
 11
62.185257
 21
109.465096
  0
LINE
  8
0
 10
61.997646
 20
102.790039
 11
62.185284
 21
103.115036
  0
LINE
  8
0
 10
61.985229
 20
101.790070
 11
61.985229
 21
99.290070
  0
LINE
  8
0
 10
61.985229
 20
99.290070
 11
54.985229
 21
99.290070
  0
LINE
  8
0
 10
58.485229
 20
101.790070
 11
58.485229
 21
99.590317
  0
LINE
  8
0
 10
54.985229
 20
101.790070
 11
54.985229
 21
99.290070
  0
LINE
  8
0
  6
CENTER
 62
     2
 10
-171.014771
 20
115.290070
 11
66.914352
 21
115.290070
  0
LINE
  8
0
 10
-151.014771
 20
131.290070
 11
-151.014771
 21
99.290062
  0
LINE
  8
0
 10
-165.614777
 20
101.790070
 11
-151.014771
 21
101.790070
  0
LINE
  8
0
 10
-165.614777
 20
128.790070
 11
-151.014771
 21
128.790070
  0
LINE
  8
0
 10
-166.014771
 20
128.390076
 11
-166.014771
 21
127.040070
  0
LINE
  8
0
 10
-155.614777
 20
121.590073
 11
-155.614777
 21
108.990067
  0
LINE
  8
0
 10
-153.414764
 20
106.790070
 11
-151.014771
 21
106.790070
  0
LINE
  8
0
 10
-153.414764
 20
123.790070
 11
-151.014771
 21
123.790070
  0
LINE
  8
0
 10
-163.214783
 20
128.390076
 11
-163.214783
 21
119.990067
  0
LINE
  8
0
 10
-165.614777
 20
119.790070
 11
-163.414764
 21
119.790070
  0
LINE
  8
0
 10
-165.614777
 20
110.790070
 11
-163.414764
 21
110.790070
  0
LINE
  8
0
 10
-163.214783
 20
110.590073
 11
-163.214783
 21
102.190063
  0
LINE
  8
0
 10
-166.214783
 20
124.290070
 11
-164.027130
 21
124.290070
  0
LINE
  8
0
 10
-166.214783
 20
106.290070
 11
-164.027130
 21
106.290070
  0
LINE
  8
0
 10
-166.214783
 20
127.040070
 11
-164.027130
 21
127.040070
  0
LINE
  8
0
 10
-166.214783
 20
121.540070
 11
-164.027130
 21
121.540070
  0
LINE
  8
0
 10
-166.214783
 20
109.040070
 11
-164.027130
 21
109.040070
  0
LINE
  8
0
 10
-166.214783
 20
103.540070
 11
-164.027130
 21
103.540070
  0
LINE
  8
0
 10
-166.214783
 20
127.040070
 11
-166.214783
 21
121.540070
  0
LINE
  8
0
 10
-166.214783
 20
109.040070
 11
-166.214783
 21
103.540070
  0
LINE
  8
0
 10
-164.027130
 20
127.790070
 11
-163.214783
 21
127.790070
  0
LINE
  8
0
 10
-164.027130
 20
120.790070
 11
-163.214783
 21
120.790070
  0
LINE
  8
0
 10
-164.027130
 20
109.790070
 11
-163.214783
 21
109.790070
  0
LINE
  8
0
 10
-164.027130
 20
102.790070
 11
-163.214783
 21
102.790070
  0
LINE
  8
0
 10
-166.014771
 20
103.540070
 11
-166.014771
 21
102.190063
  0
LINE
  8
0
 10
-166.014771
 20
121.540070
 11
-166.014771
 21
109.040070
  0
LINE
  8
0
 10
-153.314804
 20
121.090096
 11
-152.536972
 21
121.867920
  0
LINE
  8
0
 10
-153.314774
 20
121.090057
 11
-154.092606
 21
121.867867
  0
LINE
  8
0
 10
-153.314743
 20
121.090019
 11
-152.536911
 21
120.312202
  0
LINE
  8
0
 10
-153.314835
 20
121.090164
 11
-154.092667
 21
120.312340
  0
LINE
  8
0
 10
-153.314774
 20
109.490051
 11
-152.536926
 21
108.712219
  0
LINE
  8
0
 10
-153.314774
 20
109.490112
 11
-154.092636
 21
108.712280
  0
LINE
  8
0
 10
-153.314758
 20
109.490013
 11
-154.092621
 21
110.267838
  0
LINE
  8
0
 10
-153.314758
 20
109.490021
 11
-152.536926
 21
110.267838
  0
LINE
  8
0
 10
-164.027130
 20
127.790085
 11
-164.027130
 21
120.790070
  0
LINE
  8
0
 10
-164.027130
 20
109.790070
 11
-164.027130
 21
102.790054
  0
LINE
  8
0
 10
-164.014771
 20
101.790070
 11
-164.014771
 21
99.290070
  0
LINE
  8
0
 10
-164.014771
 20
99.290070
 11
-157.014771
 21
99.290070
  0
LINE
  8
0
 10
-160.514771
 20
101.790070
 11
-160.514771
 21
99.590317
  0
LINE
  8
0
 10
-157.014771
 20
101.790070
 11
-157.014771
 21
99.290070
  0
LINE
  8
0
 10
-151.014771
 20
110.790070
 11
-136.014771
 21
110.790070
  0
LINE
  8
0
 10
-151.014771
 20
119.790070
 11
-136.014771
 21
119.790070
  0
LINE
  8
0
 10
-136.014771
 20
92.790070
 11
-66.014771
 21
92.790070
  0
LINE
  8
0
 10
-136.014771
 20
137.790070
 11
-66.014771
 21
137.790070
  0
LINE
  8
0
  6
CENTER
 62
     2
 10
-101.014771
 20
142.790070
 11
-101.014771
 21
97.790070
  0
LINE
  8
0
 10
-136.014771
 20
137.790070
 11
-136.014771
 21
92.790070
  0
LINE
  8
0
 10
-129.514771
 20
137.790070
 11
-129.514771
 21
92.790070
  0
LINE
  8
0
 10
-72.514771
 20
137.790070
 11
-72.514771
 21
92.790070
  0
LINE
  8
0
 10
-66.014771
 20
137.790070
 11
-66.014771
 21
92.790070
  0
LINE
  8
0
  6
CENTER
 62
     2
 10
-123.514771
 20
131.290070
 11
-123.514771
 21
99.290070
  0
LINE
  8
0
  6
CENTER
 62
     2
 10
-126.727722
 20
126.290070
 11
-120.387238
 21
126.290070
  0
LINE
  8
0
  6
CENTER
 62
     2
 10
-126.560852
 20
104.290070
 11
-120.554108
 21
104.290070
  0
LINE
  8
0
  6
CENTER
 62
     2
 10
-78.514771
 20
130.185303
 11
-78.514771
 21
101.152626
  0
LINE
  8
0
  6
CENTER
 62
     2
 10
-82.344437
 20
126.290070
 11
-75.336548
 21
126.290070
  0
LINE
  8
0
  6
CENTER
 62
     2
 10
-82.177582
 20
104.290070
 11
-75.169693
 21
104.290070
  0
LINE
  8
0
 10
-129.514771
 20
132.790070
 11
-72.514771
 21
132.790070
  0
LINE
  8
0
 10
-129.514771
 20
97.790070
 11
-72.514771
 21
97.790070
  0
LINE
  8
0
  6
CENTER
 62
     2
 10
-1.014771
 20
136.290070
 11
-1.014771
 21
94.290062
  0
LINE
  8
0
 10
-66.014771
 20
131.290070
 11
48.985229
 21
131.290070
  0
LINE
  8
0
 10
-66.014771
 20
128.140060
 11
48.985229
 21
128.140060
  0
LINE
  8
0
 10
-66.014771
 20
123.940063
 11
48.985229
 21
123.940063
  0
LINE
  8
0
 10
-66.014771
 20
119.790070
 11
48.985229
 21
119.790070
  0
LINE
  8
0
 10
-66.014771
 20
110.790070
 11
48.985229
 21
110.790070
  0
LINE
  8
0
 10
-66.014771
 20
106.640060
 11
48.985229
 21
106.640060
  0
LINE
  8
0
 10
-66.014771
 20
102.440063
 11
48.985229
 21
102.440063
  0
LINE
  8
0
 10
-66.014771
 20
99.290062
 11
48.985229
 21
99.290062
  0
LINE
  8
0
  6
CENTER
 62
     2
 10
-101.014771
 20
97.790070
 11
-101.014771
 21
87.790070
  0
LINE
  8
0
 10
0.485229
 20
95.790070
 11
-14.514771
 21
95.790070
  0
LINE
  8
0
 10
-14.514771
 20
99.290062
 11
-14.514771
 21
95.790070
  0
LINE
  8
0
 10
0.485229
 20
99.290062
 11
0.485229
 21
95.790070
  0
LINE
  8
0
 10
158.785309
 20
20.290066
 11
166.485321
 21
20.290066
  0
LINE
  8
0
 10
189.485321
 20
22.832539
 11
189.485321
 21
20.590065
  0
LINE
  8
0
 10
187.837418
 20
22.899502
 11
189.133224
 21
23.127987
  0
LINE
  8
0
 10
187.485321
 20
23.973551
 11
187.485321
 21
23.194939
  0
LINE
  8
0
 10
187.885315
 20
25.890066
 11
189.185333
 21
25.890066
  0
LINE
  8
0
 10
189.485321
 20
29.190067
 11
189.485321
 21
26.190067
  0
LINE
  8
0
 10
160.085327
 20
25.890066
 11
158.785309
 21
25.890066
  0
LINE
  8
0
 10
160.485321
 20
23.973549
 11
160.485321
 21
23.194939
  0
LINE
  8
0
 10
160.133224
 20
22.899506
 11
158.837387
 21
23.127996
  0
LINE
  8
0
 10
158.485321
 20
22.832539
 11
158.485321
 21
20.590065
  0
LINE
  8
0
 10
158.485321
 20
22.832541
 11
158.485321
 21
20.590065
  0
LINE
  8
0
 10
158.485321
 20
29.190067
 11
158.485321
 21
26.190067
  0
LINE
  8
0
 10
159.785309
 20
28.390068
 11
160.485321
 21
28.390068
  0
LINE
  8
0
 10
159.285309
 20
29.190067
 11
159.285309
 21
28.890068
  0
LINE
  8
0
 10
187.985397
 20
35.968674
 11
187.485291
 21
36.564693
  0
LINE
  8
0
 10
189.285309
 20
35.790066
 11
188.368469
 21
35.790066
  0
LINE
  8
0
 10
189.485321
 20
35.590065
 11
189.485321
 21
34.990067
  0
LINE
  8
0
 10
189.285309
 20
34.790066
 11
187.485321
 21
34.790066
  0
LINE
  8
0
 10
188.185333
 20
28.390068
 11
187.485321
 21
28.390068
  0
LINE
  8
0
 10
188.685333
 20
29.190067
 11
188.685333
 21
28.890068
  0
LINE
  8
0
 10
166.485382
 20
20.290056
 11
167.546036
 21
21.350716
  0
LINE
  8
0
 10
181.485291
 20
20.290068
 11
180.424637
 21
21.350727
  0
LINE
  8
0
 10
181.485321
 20
20.290066
 11
189.185333
 21
20.290066
  0
LINE
  8
0
  6
CENTER
 62
     2
 10
173.985321
 20
65.267654
 11
173.985321
 21
19.716396
  0
LINE
  8
0
 10
161.135315
 20
48.290066
 11
161.135315
 21
48.290066
  0
LINE
  8
0
 10
156.485321
 20
62.290066
 11
191.485321
 21
62.290066
  0
LINE
  8
0
 10
190.485321
 20
35.290066
 11
191.985321
 21
35.290066
  0
LINE
  8
0
 10
196.485321
 20
60.790066
 11
196.485321
 21
39.066013
  0
LINE
  8
0
 10
151.485321
 20
60.790066
 11
151.485321
 21
39.066013
  0
LINE
  8
0
 10
191.485352
 20
62.290073
 11
191.985352
 21
61.790085
  0
LINE
  8
0
 10
156.485291
 20
62.290062
 11
155.985306
 21
61.790073
  0
LINE
  8
0
 10
152.485321
 20
61.790066
 11
195.485321
 21
61.790066
  0
LINE
  8
0
 10
190.285309
 20
36.390068
 11
190.285309
 21
35.490067
  0
LINE
  8
0
 10
191.985260
 20
35.290066
 11
196.485260
 21
39.066010
  0
LINE
  8
0
 10
157.685333
 20
36.390068
 11
157.685333
 21
35.490067
  0
LINE
  8
0
 10
157.485321
 20
35.290066
 11
155.985321
 21
35.290066
  0
LINE
  8
0
 10
155.985321
 20
35.290089
 11
151.485321
 21
39.066036
  0
LINE
  8
0
 10
160.485352
 20
39.965340
 11
159.953506
 21
39.331520
  0
LINE
  8
0
 10
182.985321
 20
48.790066
 11
164.985321
 21
48.790066
  0
LINE
  8
0
 10
160.485321
 20
44.290066
 11
160.485321
 21
26.290066
  0
LINE
  8
0
 10
164.985321
 20
21.790066
 11
182.985321
 21
21.790066
  0
LINE
  8
0
 10
187.485321
 20
44.290066
 11
187.485321
 21
26.290066
  0
LINE
  8
0
 10
160.885345
 20
39.790066
 11
164.985321
 21
39.790066
  0
LINE
  8
0
 10
160.885345
 20
30.790066
 11
164.985321
 21
30.790066
  0
LINE
  8
0
 10
178.485321
 20
48.390072
 11
178.485321
 21
44.290066
  0
LINE
  8
0
 10
169.485321
 20
48.390072
 11
169.485321
 21
44.290066
  0
LINE
  8
0
 10
182.985321
 20
30.790066
 11
187.085327
 21
30.790066
  0
LINE
  8
0
 10
182.985321
 20
39.790066
 11
187.085327
 21
39.790066
  0
LINE
  8
0
 10
178.485321
 20
26.290066
 11
178.485321
 21
22.190060
  0
LINE
  8
0
 10
169.485321
 20
26.290066
 11
169.485321
 21
22.190060
  0
LINE
  8
0
 10
162.235321
 20
45.877773
 11
162.235321
 21
42.702358
  0
LINE
  8
0
 10
167.735321
 20
45.877773
 11
167.735321
 21
42.702358
  0
LINE
  8
0
 10
180.235321
 20
45.877773
 11
180.235321
 21
42.702358
  0
LINE
  8
0
 10
185.735321
 20
45.877773
 11
185.735321
 21
42.702358
  0
LINE
  8
0
 10
164.985291
 20
41.114655
 11
167.735291
 21
42.702362
  0
LINE
  8
0
 10
162.235306
 20
45.877769
 11
164.985306
 21
47.465477
  0
LINE
  8
0
 10
182.985321
 20
41.114632
 11
185.735336
 21
42.702354
  0
LINE
  8
0
 10
180.235306
 20
45.877792
 11
182.985306
 21
47.465500
  0
LINE
  8
0
 10
182.985336
 20
23.114618
 11
185.735352
 21
24.702341
  0
LINE
  8
0
 10
180.235352
 20
27.877773
 11
182.985352
 21
29.465481
  0
LINE
  8
0
 10
162.235321
 20
27.877760
 11
164.985336
 21
29.465483
  0
LINE
  8
0
 10
164.985306
 20
23.114620
 11
167.735336
 21
24.702343
  0
LINE
  8
0
 10
182.985321
 20
41.114666
 11
180.235336
 21
42.702374
  0
LINE
  8
0
 10
185.735352
 20
45.877792
 11
182.985336
 21
47.465515
  0
LINE
  8
0
 10
164.985336
 20
41.114658
 11
162.235352
 21
42.702366
  0
LINE
  8
0
 10
167.735352
 20
45.877804
 11
164.985321
 21
47.465527
  0
LINE
  8
0
 10
164.985321
 20
23.114676
 11
162.235321
 21
24.702383
  0
LINE
  8
0
 10
167.735336
 20
27.877787
 11
164.985336
 21
29.465494
  0
LINE
  8
0
 10
182.985321
 20
23.114655
 11
180.235321
 21
24.702362
  0
LINE
  8
0
 10
185.735321
 20
27.877794
 11
182.985321
 21
29.465502
  0
LINE
  8
0
 10
167.735321
 20
27.877773
 11
167.735321
 21
24.702358
  0
LINE
  8
0
 10
162.235321
 20
27.877773
 11
162.235321
 21
24.702358
  0
LINE
  8
0
 10
185.735321
 20
27.877773
 11
185.735321
 21
24.702358
  0
LINE
  8
0
 10
180.235321
 20
27.877773
 11
180.235321
 21
24.702358
  0
LINE
  8
0
  6
CENTER
 62
     2
 10
157.685333
 20
35.290066
 11
190.285309
 21
35.290066
  0
LINE
  8
0
  6
CENTER
 62
     2
 10
160.735321
 20
44.290066
 11
169.235321
 21
44.290066
  0
LINE
  8
0
  6
CENTER
 62
     2
 10
164.985321
 20
48.540066
 11
164.985321
 21
40.040066
  0
LINE
  8
0
  6
CENTER
 62
     2
 10
164.985321
 20
30.540066
 11
164.985321
 21
22.040066
  0
LINE
  8
0
  6
CENTER
 62
     2
 10
160.735321
 20
26.290066
 11
169.235321
 21
26.290066
  0
LINE
  8
0
  6
CENTER
 62
     2
 10
178.735321
 20
44.290066
 11
187.235321
 21
44.290066
  0
LINE
  8
0
  6
CENTER
 62
     2
 10
182.985321
 20
48.540066
 11
182.985321
 21
40.040066
  0
LINE
  8
0
  6
CENTER
 62
     2
 10
182.985321
 20
30.540066
 11
182.985321
 21
22.040066
  0
LINE
  8
0
  6
CENTER
 62
     2
 10
178.735321
 20
26.290066
 11
187.235321
 21
26.290066
  0
LINE
  8
0
  6
CENTER
 62
     2
 10
180.985321
 20
42.290066
 11
180.985321
 21
28.290066
  0
LINE
  8
0
  6
CENTER
 62
     2
 10
166.985321
 20
42.290066
 11
166.985321
 21
28.290066
  0
LINE
  8
0
 10
158.316254
 20
39.331524
 11
160.485321
 21
39.331524
  0
LINE
  8
0
 10
158.335846
 20
37.310787
 11
160.485321
 21
37.310787
  0
LINE
  8
0
 10
158.335846
 20
33.269344
 11
160.485321
 21
33.269344
  0
LINE
  8
0
 10
158.316254
 20
31.248608
 11
160.485321
 21
31.248608
  0
LINE
  8
0
 10
157.985321
 20
38.758297
 11
157.985321
 21
31.821835
  0
LINE
  8
0
 10
157.985321
 20
38.758278
 11
158.316269
 21
39.331497
  0
LINE
  8
0
 10
157.985321
 20
31.821844
 11
158.316284
 21
31.248613
  0
LINE
  8
0
 10
157.985321
 20
36.590065
 11
157.885315
 21
36.590065
  0
LINE
  8
0
 10
188.425369
 20
36.661514
 11
187.485306
 21
37.781826
  0
LINE
  8
0
 10
188.578583
 20
36.590065
 11
190.085327
 21
36.590065
  0
LINE
  8
0
 10
159.465302
 20
25.890066
 11
159.365311
 21
25.790068
  0
LINE
  8
0
 10
157.865326
 20
25.790066
 11
159.365311
 21
25.790066
  0
LINE
  8
0
 10
157.865326
 20
26.006565
 11
158.547974
 21
26.006565
  0
LINE
  8
0
 10
186.385315
 20
27.890068
 11
186.385315
 21
27.840065
  0
LINE
  8
0
 10
157.865326
 20
25.240063
 11
157.865326
 21
28.990093
  0
LINE
  8
0
 10
157.865326
 20
34.790066
 11
157.985321
 21
34.790066
  0
LINE
  8
0
 10
154.485321
 20
31.410065
 11
157.865326
 21
34.790066
  0
LINE
  8
0
 10
154.985321
 20
24.790066
 11
157.415329
 21
24.790066
  0
LINE
  8
0
 10
158.865326
 20
30.790066
 11
159.765320
 21
30.790066
  0
LINE
  8
0
 10
154.485321
 20
25.290066
 11
154.485321
 21
31.410067
  0
LINE
  8
0
 10
157.865311
 20
28.990088
 11
158.582474
 21
29.707239
  0
LINE
  8
0
 10
158.865326
 20
31.248608
 11
158.865326
 21
30.790066
  0
LINE
  8
0
 10
159.765320
 20
30.790066
 11
159.765320
 21
30.410389
  0
LINE
  8
0
 10
158.865326
 20
30.790066
 11
158.865326
 21
31.248608
  0
LINE
  8
0
 10
158.865326
 20
30.790066
 11
159.765320
 21
30.790066
  0
LINE
  8
0
 10
157.865326
 20
28.790066
 11
158.485321
 21
28.790066
  0
LINE
  8
0
 10
157.865326
 20
28.573566
 11
158.485321
 21
28.573566
  0
LINE
  8
0
 10
160.246277
 20
29.147581
 11
160.211456
 21
28.931211
  0
LINE
  8
0
 10
159.371384
 20
28.900896
 11
159.373245
 21
28.864510
  0
LINE
  8
0
 10
159.412048
 20
28.711323
 11
159.432816
 21
28.686861
  0
LINE
  8
0
 62
     4
 10
-227.475098
 20
-117.950012
 11
-227.475098
 21
-140.050018
  0
LINE
  8
0
 62
     4
 10
-227.475098
 20
-140.050018
 11
-241.975098
 21
-140.050018
  0
LINE
  8
0
 62
     4
 10
-227.475098
 20
-134.950012
 11
-241.975098
 21
-134.950012
  0
LINE
  8
0
 62
     4
 10
-227.475098
 20
-125.950012
 11
-241.975098
 21
-125.950012
  0
LINE
  8
0
 62
     4
 10
-233.225098
 20
-125.450012
 11
-236.225098
 21
-125.450012
  0
LINE
  8
0
 62
     4
 10
-233.225098
 20
-124.450012
 11
-236.225098
 21
-124.450012
  0
LINE
  8
0
 62
     4
 10
-236.225098
 20
-123.250015
 11
-236.225098
 21
-125.950012
  0
LINE
  8
0
 62
     4
 10
-236.225082
 20
-123.250015
 11
-236.744705
 21
-122.950012
  0
LINE
  8
0
 62
     4
 10
-241.205475
 20
-122.950012
 11
-236.744705
 21
-122.950012
  0
LINE
  8
0
 62
     4
 10
-241.725113
 20
-123.250000
 11
-241.205490
 21
-122.950005
  0
LINE
  8
0
 62
     4
 10
-241.725098
 20
-123.250015
 11
-241.725098
 21
-125.950012
  0
LINE
  8
0
 62
     4
 10
-241.725098
 20
-124.450012
 11
-241.975098
 21
-124.450012
  0
LINE
  8
0
 62
     4
 10
-241.725098
 20
-125.450012
 11
-241.975098
 21
-125.450012
  0
LINE
  8
0
 62
     4
 10
-241.975098
 20
-117.950012
 11
-241.975098
 21
-140.050018
  0
LINE
  8
0
 62
     4
 10
-227.475098
 20
-121.450012
 11
-241.975098
 21
-121.450012
  0
LINE
  8
0
 62
     4
 10
-237.475098
 20
-118.750015
 11
-237.475098
 21
-121.450012
  0
LINE
  8
0
 62
     4
 10
-237.475082
 20
-118.750000
 11
-236.955460
 21
-118.449997
  0
LINE
  8
0
 62
     4
 10
-236.955475
 20
-118.450012
 11
-232.494705
 21
-118.450012
  0
LINE
  8
0
 62
     4
 10
-231.975098
 20
-118.750008
 11
-232.494720
 21
-118.450012
  0
LINE
  8
0
 62
     4
 10
-231.975098
 20
-118.750015
 11
-231.975098
 21
-121.450012
  0
LINE
  8
0
 62
     4
 10
-227.475098
 20
-119.730858
 11
-231.975098
 21
-119.730858
  0
LINE
  8
0
 62
     4
 10
-237.475098
 20
-119.730858
 11
-241.975098
 21
-119.730858
  0
LINE
  8
0
 62
     4
 10
-227.475098
 20
-117.950012
 11
-241.975098
 21
-117.950012
  0
LINE
  8
0
 62
     4
 10
-227.725082
 20
-123.250008
 11
-228.244705
 21
-122.950005
  0
LINE
  8
0
 62
     4
 10
-232.705475
 20
-122.950012
 11
-228.244705
 21
-122.950012
  0
LINE
  8
0
 62
     4
 10
-227.725098
 20
-123.250015
 11
-227.725098
 21
-125.950012
  0
LINE
  8
0
 62
     4
 10
-227.475098
 20
-125.450012
 11
-227.725098
 21
-125.450012
  0
LINE
  8
0
 62
     4
 10
-227.475098
 20
-124.450012
 11
-227.725098
 21
-124.450012
  0
LINE
  8
0
 62
     4
 10
-233.225098
 20
-123.250015
 11
-233.225098
 21
-125.950012
  0
LINE
  8
0
 62
     4
 10
-233.225098
 20
-123.250015
 11
-232.705475
 21
-122.950012
  0
LINE
  8
0
  6
CENTER
 62
     1
 10
-230.475098
 20
-120.450012
 11
-230.475098
 21
-128.450012
  0
LINE
  8
0
  6
CENTER
 62
     1
 10
-238.975098
 20
-120.450012
 11
-238.975098
 21
-128.450012
  0
LINE
  8
0
 62
     4
 10
-188.475098
 20
-120.700012
 11
-188.475098
 21
-129.200012
  0
LINE
  8
0
 62
     4
 10
-227.475098
 20
-129.950012
 11
-190.975098
 21
-129.950012
  0
LINE
  8
0
 62
     4
 10
-227.475098
 20
-119.950012
 11
-190.975098
 21
-119.950012
  0
LINE
  8
0
 62
     4
 10
-190.475098
 20
-120.450012
 11
-190.475098
 21
-129.450012
  0
LINE
  8
0
 62
     4
 10
-242.475098
 20
-120.450012
 11
-242.475098
 21
-129.450012
  0
LINE
  8
0
 62
     4
 10
-252.475098
 20
-123.950012
 11
-252.475098
 21
-125.950012
  0
LINE
  8
0
 62
     4
 10
-251.975098
 20
-126.450012
 11
-242.475098
 21
-126.450012
  0
LINE
  8
0
 62
     4
 10
-251.975098
 20
-123.450012
 11
-242.475098
 21
-123.450012
  0
LINE
  8
0
 62
     4
 10
-251.975082
 20
-123.450020
 11
-252.475098
 21
-123.950035
  0
LINE
  8
0
 62
     4
 10
-252.475082
 20
-125.949997
 11
-251.975082
 21
-126.449997
  0
LINE
  8
0
 62
     4
 10
-242.475082
 20
-120.450005
 11
-241.975082
 21
-119.950005
  0
LINE
  8
0
 62
     4
 10
-242.475082
 20
-129.449997
 11
-241.975098
 21
-129.949997
  0
LINE
  8
0
 62
     4
 10
-190.475098
 20
-129.200012
 11
-188.475098
 21
-129.200012
  0
LINE
  8
0
 62
     4
 10
-190.475098
 20
-120.700012
 11
-188.475098
 21
-120.700012
  0
LINE
  8
0
 62
     4
 10
-190.975098
 20
-119.950020
 11
-190.475098
 21
-120.450020
  0
LINE
  8
0
 62
     4
 10
-190.475113
 20
-129.450012
 11
-190.975113
 21
-129.950012
  0
LINE
  8
0
 62
     1
 10
-227.475098
 20
-120.550011
 11
-190.475098
 21
-120.550011
  0
LINE
  8
0
 62
     1
 10
-227.475098
 20
-129.350006
 11
-190.475098
 21
-129.350006
  0
LINE
  8
0
 62
     4
 10
-213.975098
 20
-122.770561
 11
-198.975098
 21
-122.770561
  0
LINE
  8
0
 62
     4
 10
-213.975098
 20
-127.129463
 11
-198.975098
 21
-127.129463
  0
LINE
  8
0
 62
     4
 10
-213.975098
 20
-122.770561
 11
-213.975098
 21
-127.129463
  0
LINE
  8
0
 62
     4
 10
-198.975098
 20
-122.770561
 11
-198.975098
 21
-127.129463
  0
LINE
  8
0
 62
     4
 10
-251.975098
 20
-123.450012
 11
-251.975098
 21
-126.450012
  0
LINE
  8
0
 62
     1
 10
-213.975113
 20
-127.129456
 11
-198.975098
 21
-122.770561
  0
LINE
  8
0
 62
     1
 10
-198.975098
 20
-127.129456
 11
-213.975113
 21
-122.770554
  0
LINE
  8
0
  6
CENTER
 62
     1
 10
-234.725098
 20
-113.520004
 11
-234.725098
 21
-151.269226
  0
LINE
  8
0
  6
CENTER
 62
     1
 10
-257.739960
 20
-124.950012
 11
-185.407562
 21
-124.950012
  0
LINE
  8
0
 62
     4
 10
-237.475098
 20
-118.750000
 11
-231.975098
 21
-118.750000
  0
LINE
  8
0
 62
     4
 10
-241.725098
 20
-123.250000
 11
-236.225098
 21
-123.250000
  0
LINE
  8
0
 62
     4
 10
-233.225098
 20
-123.250000
 11
-227.725098
 21
-123.250000
  0
LINE
  8
0
 62
     4
 10
-227.475098
 20
-36.450039
 11
-227.475098
 21
-80.450043
  0
LINE
  8
0
 62
     4
 10
-241.975098
 20
-36.450039
 11
-227.475098
 21
-36.450039
  0
LINE
  8
0
 62
     4
 10
-241.975098
 20
-80.450043
 11
-227.475098
 21
-80.450043
  0
LINE
  8
0
 62
     4
 10
-241.975098
 20
-73.200043
 11
-227.475098
 21
-73.200043
  0
LINE
  8
0
 62
     4
 10
-241.975098
 20
-43.700039
 11
-227.475098
 21
-43.700039
  0
LINE
  8
0
 62
     4
 10
-241.975098
 20
-36.450039
 11
-241.975098
 21
-80.450043
  0
LINE
  8
0
 62
     4
 10
-229.225098
 20
-41.171734
 11
-230.475113
 21
-41.893425
  0
LINE
  8
0
 62
     4
 10
-230.475098
 20
-39.006630
 11
-231.725082
 21
-39.728313
  0
LINE
  8
0
 62
     4
 10
-229.225082
 20
-39.728352
 11
-230.475098
 21
-39.006657
  0
LINE
  8
0
 62
     4
 10
-230.475082
 20
-41.893417
 11
-231.725082
 21
-41.171730
  0
LINE
  8
0
 62
     4
 10
-231.725098
 20
-39.728359
 11
-231.725098
 21
-41.171719
  0
LINE
  8
0
 62
     4
 10
-229.225098
 20
-39.728359
 11
-229.225098
 21
-41.171719
  0
LINE
  8
0
 62
     4
 10
-238.975113
 20
-41.893410
 11
-240.225098
 21
-41.171730
  0
LINE
  8
0
 62
     4
 10
-237.725113
 20
-41.171696
 11
-238.975113
 21
-41.893379
  0
LINE
  8
0
 62
     4
 10
-237.725098
 20
-39.728359
 11
-237.725098
 21
-41.171719
  0
LINE
  8
0
 62
     4
 10
-237.725082
 20
-39.728359
 11
-238.975082
 21
-39.006672
  0
LINE
  8
0
 62
     4
 10
-238.975128
 20
-39.006653
 11
-240.225128
 21
-39.728340
  0
LINE
  8
0
 62
     4
 10
-240.225098
 20
-39.728359
 11
-240.225098
 21
-41.171719
  0
LINE
  8
0
 62
     4
 10
-230.475082
 20
-75.006660
 11
-229.225098
 21
-75.728340
  0
LINE
  8
0
 62
     4
 10
-231.725082
 20
-75.728325
 11
-230.475082
 21
-75.006638
  0
LINE
  8
0
 62
     4
 10
-231.725098
 20
-75.728348
 11
-231.725098
 21
-77.171722
  0
LINE
  8
0
 62
     4
 10
-231.725113
 20
-77.171753
 11
-230.475128
 21
-77.893433
  0
LINE
  8
0
 62
     4
 10
-230.475128
 20
-77.893402
 11
-229.225143
 21
-77.171715
  0
LINE
  8
0
 62
     4
 10
-229.225098
 20
-75.728348
 11
-229.225098
 21
-77.171722
  0
LINE
  8
0
 62
     4
 10
-234.725098
 20
-71.393402
 11
-233.475098
 21
-70.671715
  0
LINE
  8
0
 62
     4
 10
-235.975128
 20
-70.671738
 11
-234.725098
 21
-71.393433
  0
LINE
  8
0
 62
     4
 10
-235.975098
 20
-69.228348
 11
-235.975098
 21
-70.671722
  0
LINE
  8
0
 62
     4
 10
-235.975098
 20
-69.228340
 11
-234.725082
 21
-68.506653
  0
LINE
  8
0
 62
     4
 10
-234.725098
 20
-68.506676
 11
-233.475098
 21
-69.228363
  0
LINE
  8
0
 62
     4
 10
-233.475098
 20
-69.228348
 11
-233.475098
 21
-70.671722
  0
LINE
  8
0
 62
     4
 10
-240.225098
 20
-75.728340
 11
-238.975098
 21
-75.006653
  0
LINE
  8
0
 62
     4
 10
-238.975098
 20
-75.006668
 11
-237.725098
 21
-75.728355
  0
LINE
  8
0
 62
     4
 10
-237.725098
 20
-75.728348
 11
-237.725098
 21
-77.171722
  0
LINE
  8
0
 62
     4
 10
-238.975082
 20
-77.893394
 11
-237.725098
 21
-77.171715
  0
LINE
  8
0
 62
     4
 10
-240.225143
 20
-77.171722
 11
-238.975128
 21
-77.893417
  0
LINE
  8
0
 62
     4
 10
-240.225098
 20
-75.728348
 11
-240.225098
 21
-77.171722
  0
LINE
  8
0
  6
CENTER
 62
     1
 10
-238.975098
 20
-35.450039
 11
-238.975098
 21
-45.450039
  0
LINE
  8
0
  6
CENTER
 62
     1
 10
-230.475098
 20
-35.450039
 11
-230.475098
 21
-45.450039
  0
LINE
  8
0
  6
CENTER
 62
     1
 10
-234.725098
 20
-32.290062
 11
-234.725098
 21
-84.434830
  0
LINE
  8
0
  6
CENTER
 62
     1
 10
-230.475098
 20
-71.450043
 11
-230.475098
 21
-81.450043
  0
LINE
  8
0
  6
CENTER
 62
     1
 10
-238.975098
 20
-71.450043
 11
-238.975098
 21
-81.450043
  0
LINE
  8
0
  6
CENTER
 62
     1
 10
-243.975098
 20
-76.450043
 11
-225.475098
 21
-76.450043
  0
LINE
  8
0
  6
CENTER
 62
     1
 10
-239.725098
 20
-69.950043
 11
-229.725098
 21
-69.950043
  0
LINE
  8
0
  6
CENTER
 62
     1
 10
-243.975098
 20
-40.450039
 11
-225.475098
 21
-40.450039
  0
LINE
  8
0
 62
     4
 10
-188.475098
 20
-54.200039
 11
-188.475098
 21
-62.700039
  0
LINE
  8
0
 62
     4
 10
-190.475098
 20
-53.950039
 11
-190.475098
 21
-62.950039
  0
LINE
  8
0
 62
     4
 10
-252.475098
 20
-57.450039
 11
-252.475098
 21
-59.450039
  0
LINE
  8
0
 62
     4
 10
-251.975098
 20
-59.950039
 11
-242.475098
 21
-59.950039
  0
LINE
  8
0
 62
     4
 10
-251.975098
 20
-56.950039
 11
-242.475098
 21
-56.950039
  0
LINE
  8
0
 62
     4
 10
-251.975082
 20
-56.950043
 11
-252.475082
 21
-57.450043
  0
LINE
  8
0
 62
     4
 10
-252.475082
 20
-59.450043
 11
-251.975098
 21
-59.950031
  0
LINE
  8
0
 62
     4
 10
-242.475098
 20
-53.950050
 11
-241.975098
 21
-53.450047
  0
LINE
  8
0
 62
     4
 10
-242.475082
 20
-62.950031
 11
-241.975082
 21
-63.450035
  0
LINE
  8
0
 62
     4
 10
-190.475098
 20
-62.700039
 11
-188.475098
 21
-62.700039
  0
LINE
  8
0
 62
     4
 10
-190.475098
 20
-54.200039
 11
-188.475098
 21
-54.200039
  0
LINE
  8
0
 62
     4
 10
-190.975113
 20
-53.450058
 11
-190.475113
 21
-53.950058
  0
LINE
  8
0
 62
     4
 10
-190.475143
 20
-62.950031
 11
-190.975128
 21
-63.450020
  0
LINE
  8
0
 62
     2
 10
-242.475098
 20
-54.050045
 11
-241.975098
 21
-54.050045
  0
LINE
  8
0
 62
     2
 10
-242.475098
 20
-62.850040
 11
-241.975098
 21
-62.850040
  0
LINE
  8
0
 62
     4
 10
-214.075073
 20
-53.450054
 11
-213.475098
 21
-54.050041
  0
LINE
  8
0
 62
     4
 10
-197.875122
 20
-53.450020
 11
-198.475128
 21
-54.050030
  0
LINE
  8
0
 62
     4
 10
-214.075089
 20
-63.450031
 11
-213.475098
 21
-62.850033
  0
LINE
  8
0
 62
     4
 10
-197.875137
 20
-63.450069
 11
-198.475143
 21
-62.850060
  0
LINE
  8
0
 62
     4
 10
-197.875122
 20
-53.450039
 11
-190.975098
 21
-53.450039
  0
LINE
  8
0
 62
     4
 10
-197.875153
 20
-63.450039
 11
-190.975098
 21
-63.450039
  0
LINE
  8
0
 62
     4
 10
-251.975098
 20
-56.950039
 11
-251.975098
 21
-59.950039
  0
LINE
  8
0
 62
     4
 10
-227.475098
 20
-53.450039
 11
-214.075104
 21
-53.450039
  0
LINE
  8
0
 62
     1
 10
-227.475098
 20
-54.050045
 11
-213.475098
 21
-54.050045
  0
LINE
  8
0
 62
     1
 10
-227.475098
 20
-62.850040
 11
-213.475098
 21
-62.850040
  0
LINE
  8
0
 62
     4
 10
-227.475098
 20
-63.450039
 11
-214.075104
 21
-63.450039
  0
LINE
  8
0
  6
DASHED
 62
     1
 10
-241.975098
 20
-62.850040
 11
-227.475098
 21
-62.850040
  0
LINE
  8
0
  6
DASHED
 62
     1
 10
-241.975098
 20
-63.450039
 11
-227.475098
 21
-63.450039
  0
LINE
  8
0
  6
DASHED
 62
     1
 10
-241.975098
 20
-53.450039
 11
-227.475098
 21
-53.450039
  0
LINE
  8
0
  6
DASHED
 62
     1
 10
-241.975098
 20
-54.050045
 11
-227.475098
 21
-54.050045
  0
LINE
  8
0
 62
     4
 10
-213.475098
 20
-54.050045
 11
-198.475128
 21
-54.050045
  0
LINE
  8
0
 62
     1
 10
-198.475128
 20
-54.050045
 11
-190.475098
 21
-54.050045
  0
LINE
  8
0
 62
     4
 10
-213.475098
 20
-62.850040
 11
-198.475159
 21
-62.850040
  0
LINE
  8
0
 62
     1
 10
-198.475159
 20
-62.850040
 11
-190.475098
 21
-62.850040
  0
LINE
  8
0
 62
     4
 10
-242.475098
 20
-53.950047
 11
-242.475098
 21
-62.950035
  0
LINE
  8
0
  6
CENTER
 62
     1
 10
-254.967819
 20
-58.450039
 11
-186.708176
 21
-58.450039
  0
LINE
  8
0
 62
     4
 10
-136.475006
 20
-130.950012
 11
-168.474976
 21
-130.950012
  0
LINE
  8
0
 62
     4
 10
-167.974976
 20
-135.421768
 11
-165.974960
 21
-137.099976
  0
LINE
  8
0
 62
     4
 10
-136.974991
 20
-135.421768
 11
-138.974991
 21
-137.099976
  0
LINE
  8
0
 62
     4
 10
-174.474976
 20
-126.950012
 11
-174.474976
 21
-138.550018
  0
LINE
  8
0
 62
     4
 10
-130.475006
 20
-126.950012
 11
-130.475006
 21
-138.550018
  0
LINE
  8
0
 62
     4
 10
-172.974976
 20
-132.950012
 11
-172.974976
 21
-134.950012
  0
LINE
  8
0
 62
     4
 10
-131.975006
 20
-132.950012
 11
-131.975006
 21
-134.950012
  0
LINE
  8
0
 62
     4
 10
-174.474976
 20
-134.950012
 11
-172.974976
 21
-134.950012
  0
LINE
  8
0
 62
     4
 10
-131.975006
 20
-134.950012
 11
-130.475006
 21
-134.950012
  0
LINE
  8
0
 62
     4
 10
-172.174988
 20
-132.150009
 11
-168.474976
 21
-132.150009
  0
LINE
  8
0
 62
     4
 10
-136.475006
 20
-132.150009
 11
-132.774994
 21
-132.150009
  0
LINE
  8
0
 62
     4
 10
-166.724976
 20
-121.450012
 11
-161.024994
 21
-121.450012
  0
LINE
  8
0
 62
     4
 10
-160.724976
 20
-120.387619
 11
-160.724976
 21
-121.150009
  0
LINE
  8
0
 62
     4
 10
-144.224991
 20
-120.387619
 11
-144.224991
 21
-121.150009
  0
LINE
  8
0
 62
     4
 10
-143.924988
 20
-121.450012
 11
-138.725006
 21
-121.450012
  0
LINE
  8
0
 62
     4
 10
-167.224976
 20
-122.450012
 11
-167.224976
 21
-124.450012
  0
LINE
  8
0
 62
     4
 10
-137.725006
 20
-122.450012
 11
-137.725006
 21
-125.650009
  0
LINE
  8
0
 62
     4
 10
-173.474976
 20
-125.950012
 11
-167.524994
 21
-125.950012
  0
LINE
  8
0
 62
     4
 10
-137.424988
 20
-125.950012
 11
-131.475006
 21
-125.950012
  0
LINE
  8
0
 62
     4
 10
-157.449921
 20
-125.450012
 11
-167.224976
 21
-125.450012
  0
LINE
  8
0
 62
     4
 10
-172.974976
 20
-132.950012
 11
-167.974976
 21
-132.950012
  0
LINE
  8
0
 62
     4
 10
-172.974976
 20
-140.050018
 11
-167.974976
 21
-140.050018
  0
LINE
  8
0
 62
     4
 10
-167.974976
 20
-132.950012
 11
-167.974976
 21
-135.421768
  0
LINE
  8
0
 62
     4
 10
-131.975006
 20
-132.950012
 11
-136.975006
 21
-132.950012
  0
LINE
  8
0
 62
     4
 10
-136.975006
 20
-132.950012
 11
-136.975006
 21
-135.421753
  0
LINE
  8
0
 62
     4
 10
-131.975006
 20
-140.050018
 11
-136.975006
 21
-140.050018
  0
LINE
  8
0
 62
     4
 10
-173.224976
 20
-123.250015
 11
-173.224976
 21
-125.950012
  0
LINE
  8
0
 62
     4
 10
-167.724976
 20
-123.250015
 11
-167.724976
 21
-125.950012
  0
LINE
  8
0
 62
     4
 10
-172.705383
 20
-122.950012
 11
-168.244598
 21
-122.950012
  0
LINE
  8
0
 62
     4
 10
-173.224991
 20
-123.249992
 11
-172.705368
 21
-122.949989
  0
LINE
  8
0
 62
     4
 10
-167.724960
 20
-123.249992
 11
-168.244583
 21
-122.949989
  0
LINE
  8
0
 62
     4
 10
-165.474976
 20
-124.450012
 11
-165.474976
 21
-125.450012
  0
LINE
  8
0
 62
     4
 10
-162.474976
 20
-124.450012
 11
-162.474976
 21
-125.450012
  0
LINE
  8
0
 62
     4
 10
-135.975006
 20
-132.150009
 11
-135.975006
 21
-132.950012
  0
LINE
  8
0
 62
     4
 10
-132.975006
 20
-132.150009
 11
-132.975006
 21
-132.950012
  0
LINE
  8
0
 62
     4
 10
-168.974976
 20
-132.150009
 11
-168.974976
 21
-132.950012
  0
LINE
  8
0
 62
     4
 10
-171.974976
 20
-132.150009
 11
-171.974976
 21
-132.950012
  0
LINE
  8
0
 62
     4
 10
-161.224976
 20
-118.750023
 11
-161.744598
 21
-118.450027
  0
LINE
  8
0
 62
     4
 10
-161.224976
 20
-118.750015
 11
-161.224976
 21
-121.450012
  0
LINE
  8
0
 62
     4
 10
-161.744598
 20
-118.450012
 11
-166.205383
 21
-118.450012
  0
LINE
  8
0
 62
     4
 10
-166.724976
 20
-118.749985
 11
-166.205368
 21
-118.449989
  0
LINE
  8
0
 62
     4
 10
-166.724976
 20
-118.750015
 11
-166.724976
 21
-121.450012
  0
LINE
  8
0
 62
     4
 10
-137.225006
 20
-123.250015
 11
-137.225006
 21
-125.950012
  0
LINE
  8
0
 62
     4
 10
-137.224991
 20
-123.250008
 11
-136.705353
 21
-122.949989
  0
LINE
  8
0
 62
     4
 10
-132.244598
 20
-122.950012
 11
-136.705383
 21
-122.950012
  0
LINE
  8
0
 62
     4
 10
-131.725006
 20
-123.250015
 11
-131.725006
 21
-125.950012
  0
LINE
  8
0
 62
     4
 10
-131.724960
 20
-123.249969
 11
-132.244568
 21
-122.949974
  0
LINE
  8
0
 62
     4
 10
-167.224976
 20
-125.450012
 11
-167.224976
 21
-125.650009
  0
LINE
  8
0
 62
     4
 10
-136.475006
 20
-130.950012
 11
-136.475006
 21
-132.150009
  0
LINE
  8
0
 62
     4
 10
-168.474976
 20
-130.950012
 11
-168.474976
 21
-132.150009
  0
LINE
  8
0
 62
     4
 10
-157.449921
 20
-124.450012
 11
-167.224976
 21
-124.450012
  0
LINE
  8
0
  6
CENTER
 62
     1
 10
-144.974991
 20
-124.950012
 11
-159.974991
 21
-124.950012
  0
LINE
  8
0
  6
CENTER
 62
     1
 10
-170.474976
 20
-120.450012
 11
-170.474976
 21
-135.450012
  0
LINE
  8
0
  6
CENTER
 62
     1
 10
-134.475006
 20
-120.450012
 11
-134.475006
 21
-135.450012
  0
LINE
  8
0
  6
CENTER
 62
     1
 10
-163.974976
 20
-115.950012
 11
-163.974976
 21
-127.950012
  0
LINE
  8
0
 62
     1
 10
-164.974976
 20
-124.450012
 11
-164.974976
 21
-125.450012
  0
LINE
  8
0
 62
     1
 10
-162.974976
 20
-124.450012
 11
-162.974976
 21
-125.450012
  0
LINE
  8
0
 62
     1
 10
-171.474976
 20
-132.150009
 11
-171.474976
 21
-132.950012
  0
LINE
  8
0
 62
     1
 10
-169.474976
 20
-132.150009
 11
-169.474976
 21
-132.950012
  0
LINE
  8
0
 62
     1
 10
-135.475006
 20
-132.150009
 11
-135.475006
 21
-132.950012
  0
LINE
  8
0
 62
     1
 10
-133.475006
 20
-132.150009
 11
-133.475006
 21
-132.950012
  0
LINE
  8
0
  6
CENTER
 62
     1
 10
-152.474991
 20
-115.405846
 11
-152.474991
 21
-134.935883
  0
LINE
  8
0
 62
     4
 10
-165.974960
 20
-137.099960
 11
-165.974960
 21
-139.498138
  0
LINE
  8
0
 62
     4
 10
-138.974991
 20
-137.099976
 11
-138.974991
 21
-139.498138
  0
LINE
  8
0
 62
     4
 10
-166.724976
 20
-118.749985
 11
-161.224976
 21
-118.749985
  0
LINE
  8
0
 62
     4
 10
-173.224976
 20
-123.249992
 11
-167.724976
 21
-123.249992
  0
LINE
  8
0
 62
     4
 10
-137.225006
 20
-123.249992
 11
-131.725006
 21
-123.249992
  0
LINE
  8
0
 62
     4
 10
-62.475029
 20
-117.949997
 11
-62.475029
 21
-140.049988
  0
LINE
  8
0
 62
     4
 10
-62.475029
 20
-140.049988
 11
-76.975029
 21
-140.049988
  0
LINE
  8
0
 62
     4
 10
-62.475029
 20
-134.949997
 11
-76.975029
 21
-134.949997
  0
LINE
  8
0
 62
     4
 10
-62.475029
 20
-125.949997
 11
-76.975029
 21
-125.949997
  0
LINE
  8
0
 62
     4
 10
-68.225029
 20
-125.449997
 11
-71.225029
 21
-125.449997
  0
LINE
  8
0
 62
     4
 10
-68.225029
 20
-124.449997
 11
-71.225029
 21
-124.449997
  0
LINE
  8
0
 62
     4
 10
-71.225029
 20
-123.250000
 11
-71.225029
 21
-125.949997
  0
LINE
  8
0
 62
     4
 10
-71.225014
 20
-123.249985
 11
-71.744629
 21
-122.949989
  0
LINE
  8
0
 62
     4
 10
-76.205406
 20
-122.949997
 11
-71.744637
 21
-122.949997
  0
LINE
  8
0
 62
     4
 10
-76.725021
 20
-123.249985
 11
-76.205399
 21
-122.949982
  0
LINE
  8
0
 62
     4
 10
-76.725029
 20
-123.250000
 11
-76.725029
 21
-125.949997
  0
LINE
  8
0
 62
     4
 10
-76.725029
 20
-124.449997
 11
-76.975029
 21
-124.449997
  0
LINE
  8
0
 62
     4
 10
-76.725029
 20
-125.449997
 11
-76.975029
 21
-125.449997
  0
LINE
  8
0
 62
     4
 10
-76.975029
 20
-117.949997
 11
-76.975029
 21
-140.049988
  0
LINE
  8
0
 62
     4
 10
-62.475029
 20
-121.449997
 11
-76.975029
 21
-121.449997
  0
LINE
  8
0
 62
     4
 10
-72.475029
 20
-118.750000
 11
-72.475029
 21
-121.449997
  0
LINE
  8
0
 62
     4
 10
-72.474998
 20
-118.749985
 11
-71.955383
 21
-118.449974
  0
LINE
  8
0
 62
     4
 10
-71.955406
 20
-118.449997
 11
-67.494637
 21
-118.449997
  0
LINE
  8
0
 62
     4
 10
-66.975014
 20
-118.749992
 11
-67.494629
 21
-118.449997
  0
LINE
  8
0
 62
     4
 10
-66.975029
 20
-118.750000
 11
-66.975029
 21
-121.449997
  0
LINE
  8
0
 62
     4
 10
-62.475029
 20
-119.730843
 11
-66.975029
 21
-119.730843
  0
LINE
  8
0
 62
     4
 10
-72.475029
 20
-119.730843
 11
-76.975029
 21
-119.730843
  0
LINE
  8
0
 62
     4
 10
-62.475029
 20
-117.949997
 11
-76.975029
 21
-117.949997
  0
LINE
  8
0
 62
     4
 10
-62.725002
 20
-123.249985
 11
-63.244621
 21
-122.949982
  0
LINE
  8
0
 62
     4
 10
-67.705406
 20
-122.949997
 11
-63.244637
 21
-122.949997
  0
LINE
  8
0
 62
     4
 10
-62.725029
 20
-123.250000
 11
-62.725029
 21
-125.949997
  0
LINE
  8
0
 62
     4
 10
-62.475029
 20
-125.449997
 11
-62.725029
 21
-125.449997
  0
LINE
  8
0
 62
     4
 10
-62.475029
 20
-124.449997
 11
-62.725029
 21
-124.449997
  0
LINE
  8
0
 62
     4
 10
-68.225029
 20
-123.250000
 11
-68.225029
 21
-125.949997
  0
LINE
  8
0
 62
     4
 10
-68.225021
 20
-123.249992
 11
-67.705406
 21
-122.949989
  0
LINE
  8
0
 62
     4
 10
-56.475029
 20
-121.335632
 11
-56.475029
 21
-128.564362
  0
LINE
  8
0
 62
     4
 10
-57.275047
 20
-119.950012
 11
-56.475048
 21
-121.335640
  0
LINE
  8
0
 62
     4
 10
-57.275009
 20
-129.949997
 11
-56.475014
 21
-128.564377
  0
LINE
  8
0
 62
     4
 10
-76.975029
 20
-121.449997
 11
-77.475029
 21
-121.449997
  0
LINE
  8
0
 62
     4
 10
-76.975029
 20
-128.449997
 11
-77.475029
 21
-128.449997
  0
LINE
  8
0
 62
     4
 10
-57.275017
 20
-129.949997
 11
-57.275017
 21
-119.949997
  0
LINE
  8
0
 62
     4
 10
-57.275063
 20
-119.949997
 11
-62.475029
 21
-119.949997
  0
LINE
  8
0
 62
     4
 10
-57.275017
 20
-129.949997
 11
-62.475029
 21
-129.949997
  0
LINE
  8
0
 62
     1
 10
-56.842049
 20
-120.699997
 11
-62.475029
 21
-120.699997
  0
LINE
  8
0
 62
     1
 10
-56.842003
 20
-129.199997
 11
-62.475029
 21
-129.199997
  0
LINE
  8
0
  6
CENTER
 62
     1
 10
-65.475029
 20
-120.449997
 11
-65.475029
 21
-128.449997
  0
LINE
  8
0
  6
CENTER
 62
     1
 10
-73.975029
 20
-120.449997
 11
-73.975029
 21
-128.449997
  0
LINE
  8
0
 62
     4
 10
-77.475029
 20
-121.449997
 11
-77.475029
 21
-128.449997
  0
LINE
  8
0
  6
CENTER
 62
     1
 10
-52.380898
 20
-124.949997
 11
-80.129456
 21
-124.949997
  0
LINE
  8
0
 62
     4
 10
-72.475029
 20
-118.749985
 11
-66.975029
 21
-118.749985
  0
LINE
  8
0
 62
     4
 10
-76.725029
 20
-123.249992
 11
-71.225029
 21
-123.249992
  0
LINE
  8
0
 62
     4
 10
-68.225029
 20
-123.249992
 11
-62.725029
 21
-123.249992
  0
LINE
  8
0
  6
CENTER
 62
     1
 10
-69.725029
 20
-113.869110
 11
-69.725029
 21
-145.598801
  0
LINE
  8
0
 62
     4
 10
-62.475014
 20
-36.450008
 11
-62.475014
 21
-80.450012
  0
LINE
  8
0
 62
     4
 10
-76.975014
 20
-36.450008
 11
-62.475014
 21
-36.450008
  0
LINE
  8
0
 62
     4
 10
-76.975014
 20
-80.450012
 11
-62.475014
 21
-80.450012
  0
LINE
  8
0
 62
     4
 10
-76.975014
 20
-73.200012
 11
-62.475014
 21
-73.200012
  0
LINE
  8
0
 62
     4
 10
-76.975014
 20
-66.700012
 11
-62.475014
 21
-66.700012
  0
LINE
  8
0
 62
     4
 10
-76.975014
 20
-50.200008
 11
-62.475014
 21
-50.200008
  0
LINE
  8
0
 62
     4
 10
-76.975014
 20
-43.700008
 11
-62.475014
 21
-43.700008
  0
LINE
  8
0
 62
     4
 10
-76.975014
 20
-36.450008
 11
-76.975014
 21
-80.450012
  0
LINE
  8
0
 62
     4
 10
-64.225014
 20
-41.171692
 11
-65.475029
 21
-41.893383
  0
LINE
  8
0
 62
     4
 10
-65.475021
 20
-39.006611
 11
-66.725006
 21
-39.728294
  0
LINE
  8
0
 62
     4
 10
-64.224991
 20
-39.728294
 11
-65.474998
 21
-39.006603
  0
LINE
  8
0
 62
     4
 10
-65.474998
 20
-41.893379
 11
-66.724998
 21
-41.171692
  0
LINE
  8
0
 62
     4
 10
-66.725014
 20
-39.728329
 11
-66.725014
 21
-41.171688
  0
LINE
  8
0
 62
     4
 10
-64.225014
 20
-39.728329
 11
-64.225014
 21
-41.171688
  0
LINE
  8
0
 62
     4
 10
-73.975006
 20
-41.893379
 11
-75.225006
 21
-41.171692
  0
LINE
  8
0
 62
     4
 10
-72.725014
 20
-41.171680
 11
-73.975014
 21
-41.893368
  0
LINE
  8
0
 62
     4
 10
-72.725014
 20
-39.728329
 11
-72.725014
 21
-41.171688
  0
LINE
  8
0
 62
     4
 10
-72.724998
 20
-39.728310
 11
-73.974998
 21
-39.006626
  0
LINE
  8
0
 62
     4
 10
-73.975044
 20
-39.006615
 11
-75.225029
 21
-39.728294
  0
LINE
  8
0
 62
     4
 10
-75.225014
 20
-39.728329
 11
-75.225014
 21
-41.171688
  0
LINE
  8
0
 62
     4
 10
-65.474998
 20
-75.006638
 11
-64.225014
 21
-75.728325
  0
LINE
  8
0
 62
     4
 10
-66.724998
 20
-75.728302
 11
-65.474991
 21
-75.006622
  0
LINE
  8
0
 62
     4
 10
-66.725014
 20
-75.728317
 11
-66.725014
 21
-77.171692
  0
LINE
  8
0
 62
     4
 10
-66.725021
 20
-77.171692
 11
-65.475021
 21
-77.893379
  0
LINE
  8
0
 62
     4
 10
-65.475052
 20
-77.893394
 11
-64.225037
 21
-77.171700
  0
LINE
  8
0
 62
     4
 10
-64.225014
 20
-75.728317
 11
-64.225014
 21
-77.171692
  0
LINE
  8
0
 62
     4
 10
-69.725021
 20
-71.393372
 11
-68.475021
 21
-70.671684
  0
LINE
  8
0
 62
     4
 10
-70.975037
 20
-70.671707
 11
-69.725006
 21
-71.393402
  0
LINE
  8
0
 62
     4
 10
-70.975014
 20
-69.228317
 11
-70.975014
 21
-70.671692
  0
LINE
  8
0
 62
     4
 10
-70.974998
 20
-69.228302
 11
-69.724998
 21
-68.506622
  0
LINE
  8
0
 62
     4
 10
-69.724998
 20
-68.506622
 11
-68.474998
 21
-69.228310
  0
LINE
  8
0
 62
     4
 10
-68.475014
 20
-69.228317
 11
-68.475014
 21
-70.671692
  0
LINE
  8
0
 62
     4
 10
-75.225014
 20
-75.728302
 11
-73.974998
 21
-75.006607
  0
LINE
  8
0
 62
     4
 10
-73.975006
 20
-75.006630
 11
-72.725006
 21
-75.728310
  0
LINE
  8
0
 62
     4
 10
-72.725014
 20
-75.728317
 11
-72.725014
 21
-77.171692
  0
LINE
  8
0
 62
     4
 10
-73.975006
 20
-77.893379
 11
-72.725021
 21
-77.171692
  0
LINE
  8
0
 62
     4
 10
-75.225037
 20
-77.171707
 11
-73.975021
 21
-77.893394
  0
LINE
  8
0
 62
     4
 10
-75.225014
 20
-75.728317
 11
-75.225014
 21
-77.171692
  0
LINE
  8
0
 62
     4
 10
-57.275017
 20
-63.450008
 11
-57.275017
 21
-53.450008
  0
LINE
  8
0
 62
     4
 10
-57.275013
 20
-53.449986
 11
-56.475025
 21
-54.835629
  0
LINE
  8
0
 62
     4
 10
-56.475014
 20
-54.835644
 11
-56.475014
 21
-62.064373
  0
LINE
  8
0
 62
     4
 10
-57.275047
 20
-63.450005
 11
-56.475044
 21
-62.064358
  0
LINE
  8
0
 62
     4
 10
-76.975014
 20
-61.950008
 11
-77.475014
 21
-61.950008
  0
LINE
  8
0
 62
     4
 10
-76.975014
 20
-54.950008
 11
-77.475014
 21
-54.950008
  0
LINE
  8
0
 62
     4
 10
-62.475014
 20
-63.450008
 11
-57.275017
 21
-63.450008
  0
LINE
  8
0
 62
     4
 10
-62.475014
 20
-53.450008
 11
-57.275017
 21
-53.450008
  0
LINE
  8
0
 62
     1
 10
-62.475014
 20
-62.700008
 11
-56.842003
 21
-62.700008
  0
LINE
  8
0
 62
     1
 10
-62.475014
 20
-54.200008
 11
-56.842003
 21
-54.200008
  0
LINE
  8
0
 62
     4
 10
-77.475014
 20
-54.950008
 11
-77.475014
 21
-61.950008
  0
LINE
  8
0
  6
CENTER
 62
     1
 10
-73.975014
 20
-35.450008
 11
-73.975014
 21
-45.450008
  0
LINE
  8
0
  6
CENTER
 62
     1
 10
-65.475014
 20
-35.450008
 11
-65.475014
 21
-45.450008
  0
LINE
  8
0
  6
CENTER
 62
     1
 10
-65.475014
 20
-71.450012
 11
-65.475014
 21
-81.450012
  0
LINE
  8
0
  6
CENTER
 62
     1
 10
-73.975014
 20
-71.450012
 11
-73.975014
 21
-81.450012
  0
LINE
  8
0
  6
CENTER
 62
     1
 10
-78.975014
 20
-76.450012
 11
-60.475014
 21
-76.450012
  0
LINE
  8
0
  6
CENTER
 62
     1
 10
-74.725014
 20
-69.950012
 11
-64.725014
 21
-69.950012
  0
LINE
  8
0
  6
CENTER
 62
     1
 10
-78.975014
 20
-40.450008
 11
-60.475014
 21
-40.450008
  0
LINE
  8
0
  6
DASHED
 62
     1
 10
-76.975014
 20
-53.450008
 11
-62.475014
 21
-53.450008
  0
LINE
  8
0
  6
DASHED
 62
     1
 10
-76.975014
 20
-63.450008
 11
-62.475014
 21
-63.450008
  0
LINE
  8
0
  6
DASHED
 62
     1
 10
-76.975014
 20
-62.700008
 11
-62.475014
 21
-62.700008
  0
LINE
  8
0
  6
DASHED
 62
     1
 10
-76.975014
 20
-54.200008
 11
-62.475014
 21
-54.200008
  0
LINE
  8
0
  6
DASHED
 62
     1
 10
-76.475006
 20
-53.450012
 11
-76.975014
 21
-53.950012
  0
LINE
  8
0
  6
DASHED
 62
     1
 10
-76.475021
 20
-63.450001
 11
-76.975021
 21
-62.950001
  0
LINE
  8
0
  6
DASHED
 62
     1
 10
-76.475014
 20
-53.450008
 11
-76.475014
 21
-63.450008
  0
LINE
  8
0
  6
CENTER
 62
     1
 10
-79.676964
 20
-58.450008
 11
-54.553543
 21
-58.450008
  0
LINE
  8
0
  6
CENTER
 62
     1
 10
-69.725014
 20
-32.958714
 11
-69.725014
 21
-84.551834
  0
LINE
  8
0
 62
     4
 10
16.274996
 20
-130.949966
 11
-15.725005
 21
-130.949966
  0
LINE
  8
0
 62
     4
 10
-15.225015
 20
-135.421738
 11
-13.225006
 21
-137.099930
  0
LINE
  8
0
 62
     4
 10
15.775007
 20
-135.421707
 11
13.774999
 21
-137.099915
  0
LINE
  8
0
 62
     4
 10
-21.725004
 20
-126.949966
 11
-21.725004
 21
-138.549957
  0
LINE
  8
0
 62
     4
 10
22.274996
 20
-126.949966
 11
22.274996
 21
-138.549957
  0
LINE
  8
0
 62
     4
 10
-20.225004
 20
-132.949966
 11
-20.225004
 21
-134.949966
  0
LINE
  8
0
 62
     4
 10
20.774996
 20
-132.949966
 11
20.774996
 21
-134.949966
  0
LINE
  8
0
 62
     4
 10
-21.725004
 20
-134.949966
 11
-20.225004
 21
-134.949966
  0
LINE
  8
0
 62
     4
 10
20.774996
 20
-134.949966
 11
22.274996
 21
-134.949966
  0
LINE
  8
0
 62
     4
 10
-19.424986
 20
-132.149963
 11
-15.725005
 21
-132.149963
  0
LINE
  8
0
 62
     4
 10
16.274996
 20
-132.149963
 11
19.974993
 21
-132.149963
  0
LINE
  8
0
 62
     4
 10
-13.975005
 20
-121.449966
 11
-8.275008
 21
-121.449966
  0
LINE
  8
0
 62
     4
 10
-7.975005
 20
-120.387573
 11
-7.975005
 21
-121.149963
  0
LINE
  8
0
 62
     4
 10
8.524995
 20
-120.387573
 11
8.524995
 21
-121.149963
  0
LINE
  8
0
 62
     4
 10
8.824998
 20
-121.449966
 11
14.024995
 21
-121.449966
  0
LINE
  8
0
 62
     4
 10
-14.475005
 20
-122.449966
 11
-14.475005
 21
-124.449966
  0
LINE
  8
0
 62
     4
 10
15.024995
 20
-122.449966
 11
15.024995
 21
-125.649963
  0
LINE
  8
0
 62
     4
 10
-20.725004
 20
-125.949966
 11
-14.774993
 21
-125.949966
  0
LINE
  8
0
 62
     4
 10
15.324998
 20
-125.949966
 11
21.274996
 21
-125.949966
  0
LINE
  8
0
 62
     4
 10
-4.699934
 20
-125.449966
 11
-14.475005
 21
-125.449966
  0
LINE
  8
0
 62
     4
 10
-20.225004
 20
-132.949966
 11
-15.225005
 21
-132.949966
  0
LINE
  8
0
 62
     4
 10
-20.225004
 20
-140.049957
 11
-15.225005
 21
-140.049957
  0
LINE
  8
0
 62
     4
 10
-15.225005
 20
-132.949966
 11
-15.225005
 21
-135.421722
  0
LINE
  8
0
 62
     4
 10
20.774996
 20
-132.949966
 11
15.774995
 21
-132.949966
  0
LINE
  8
0
 62
     4
 10
15.774995
 20
-132.949966
 11
15.774995
 21
-135.421722
  0
LINE
  8
0
 62
     4
 10
20.774996
 20
-140.049957
 11
15.774995
 21
-140.049957
  0
LINE
  8
0
 62
     4
 10
-20.475004
 20
-123.249969
 11
-20.475004
 21
-125.949966
  0
LINE
  8
0
 62
     4
 10
-14.975005
 20
-123.249969
 11
-14.975005
 21
-125.949966
  0
LINE
  8
0
 62
     4
 10
-19.955381
 20
-122.949966
 11
-15.494628
 21
-122.949966
  0
LINE
  8
0
 62
     4
 10
-20.475016
 20
-123.249947
 11
-19.955393
 21
-122.949951
  0
LINE
  8
0
 62
     4
 10
-14.974966
 20
-123.249939
 11
-15.494588
 21
-122.949936
  0
LINE
  8
0
 62
     4
 10
-12.725005
 20
-124.449966
 11
-12.725005
 21
-125.449966
  0
LINE
  8
0
 62
     4
 10
-9.725005
 20
-124.449966
 11
-9.725005
 21
-125.449966
  0
LINE
  8
0
 62
     4
 10
16.774996
 20
-132.149963
 11
16.774996
 21
-132.949966
  0
LINE
  8
0
 62
     4
 10
19.774996
 20
-132.149963
 11
19.774996
 21
-132.949966
  0
LINE
  8
0
 62
     4
 10
-16.225004
 20
-132.149963
 11
-16.225004
 21
-132.949966
  0
LINE
  8
0
 62
     4
 10
-19.225004
 20
-132.149963
 11
-19.225004
 21
-132.949966
  0
LINE
  8
0
 62
     4
 10
-8.475000
 20
-118.749954
 11
-8.994608
 21
-118.449959
  0
LINE
  8
0
 62
     4
 10
-8.475005
 20
-118.749969
 11
-8.475005
 21
-121.449966
  0
LINE
  8
0
 62
     4
 10
-8.994613
 20
-118.449966
 11
-13.455382
 21
-118.449966
  0
LINE
  8
0
 62
     4
 10
-13.975016
 20
-118.749954
 11
-13.455409
 21
-118.449951
  0
LINE
  8
0
 62
     4
 10
-13.975005
 20
-118.749969
 11
-13.975005
 21
-121.449966
  0
LINE
  8
0
 62
     4
 10
15.524995
 20
-123.249969
 11
15.524995
 21
-125.949966
  0
LINE
  8
0
 62
     4
 10
15.524977
 20
-123.249939
 11
16.044598
 21
-122.949936
  0
LINE
  8
0
 62
     4
 10
20.505388
 20
-122.949966
 11
16.044619
 21
-122.949966
  0
LINE
  8
0
 62
     4
 10
21.024996
 20
-123.249969
 11
21.024996
 21
-125.949966
  0
LINE
  8
0
 62
     4
 10
21.025036
 20
-123.249939
 11
20.505430
 21
-122.949944
  0
LINE
  8
0
 62
     4
 10
-14.475005
 20
-125.449966
 11
-14.475005
 21
-125.649963
  0
LINE
  8
0
 62
     4
 10
16.274996
 20
-130.949966
 11
16.274996
 21
-132.149963
  0
LINE
  8
0
 62
     4
 10
-15.725005
 20
-130.949966
 11
-15.725005
 21
-132.149963
  0
LINE
  8
0
 62
     4
 10
-2.225011
 20
-126.393349
 11
0.274987
 21
-127.836716
  0
LINE
  8
0
 62
     4
 10
0.275008
 20
-122.063232
 11
2.775006
 21
-123.506607
  0
LINE
  8
0
 62
     4
 10
-2.224998
 20
-123.506630
 11
0.275002
 21
-122.063263
  0
LINE
  8
0
 62
     4
 10
0.275004
 20
-127.836723
 11
2.775002
 21
-126.393356
  0
LINE
  8
0
 62
     4
 10
-2.225005
 20
-123.506592
 11
-2.225005
 21
-126.393341
  0
LINE
  8
0
 62
     4
 10
2.774995
 20
-123.506592
 11
2.774995
 21
-126.393341
  0
LINE
  8
0
 62
     4
 10
-4.699934
 20
-124.449966
 11
-14.475005
 21
-124.449966
  0
LINE
  8
0
  6
CENTER
 62
     1
 10
7.774995
 20
-124.949966
 11
-7.225005
 21
-124.949966
  0
LINE
  8
0
  6
CENTER
 62
     1
 10
-17.725004
 20
-120.449966
 11
-17.725004
 21
-135.449966
  0
LINE
  8
0
  6
CENTER
 62
     1
 10
18.274996
 20
-120.449966
 11
18.274996
 21
-135.449966
  0
LINE
  8
0
  6
CENTER
 62
     1
 10
-11.225005
 20
-115.949966
 11
-11.225005
 21
-127.949966
  0
LINE
  8
0
 62
     1
 10
-18.725004
 20
-132.149963
 11
-18.725004
 21
-132.949966
  0
LINE
  8
0
 62
     1
 10
-16.725004
 20
-132.149963
 11
-16.725004
 21
-132.949966
  0
LINE
  8
0
 62
     1
 10
-10.225005
 20
-124.449966
 11
-10.225005
 21
-125.449966
  0
LINE
  8
0
 62
     1
 10
-12.225005
 20
-124.449966
 11
-12.225005
 21
-125.449966
  0
LINE
  8
0
 62
     1
 10
19.274996
 20
-132.149963
 11
19.274996
 21
-132.949966
  0
LINE
  8
0
 62
     1
 10
17.274996
 20
-132.149963
 11
17.274996
 21
-132.949966
  0
LINE
  8
0
  6
CENTER
 62
     1
 10
0.274995
 20
-114.671021
 11
0.274995
 21
-135.557648
  0
LINE
  8
0
 62
     4
 10
-13.225008
 20
-137.099945
 11
-13.225008
 21
-139.498093
  0
LINE
  8
0
 62
     4
 10
13.774999
 20
-137.099915
 11
13.774999
 21
-139.498093
  0
LINE
  8
0
 62
     4
 10
-13.975005
 20
-118.749954
 11
-8.475005
 21
-118.749954
  0
LINE
  8
0
 62
     4
 10
-20.475004
 20
-123.249947
 11
-14.975005
 21
-123.249947
  0
LINE
  8
0
 62
     4
 10
15.524995
 20
-123.249947
 11
21.024996
 21
-123.249947
  0
LINE
  8
0
 62
     4
 10
135.074997
 20
-74.450012
 11
146.474991
 21
-74.450012
  0
LINE
  8
0
 62
     4
 10
132.474991
 20
-64.450012
 11
134.074997
 21
-64.450012
  0
LINE
  8
0
 62
     4
 10
135.074997
 20
-72.850006
 11
146.474991
 21
-72.850006
  0
LINE
  8
0
 62
     4
 10
132.474991
 20
-64.450012
 11
132.474991
 21
-71.850006
  0
LINE
  8
0
 62
     4
 10
134.074997
 20
-64.450012
 11
134.074997
 21
-71.850006
  0
LINE
  8
0
 62
     4
 10
146.474991
 20
-72.850006
 11
146.474991
 21
-74.450012
  0
LINE
  8
0
 62
     4
 10
134.074997
 20
-71.200012
 11
136.774994
 21
-71.200012
  0
LINE
  8
0
 62
     4
 10
134.074997
 20
-65.700012
 11
136.774994
 21
-65.700012
  0
LINE
  8
0
 62
     4
 10
137.074997
 20
-66.219635
 11
137.074997
 21
-70.680389
  0
LINE
  8
0
 62
     4
 10
136.774963
 20
-65.700035
 11
137.074966
 21
-66.219658
  0
LINE
  8
0
 62
     4
 10
136.775009
 20
-71.200012
 11
137.074997
 21
-70.680405
  0
LINE
  8
0
  6
CENTER
 62
     1
 10
142.474991
 20
-70.350006
 11
142.474991
 21
-76.950012
  0
LINE
  8
0
  6
DASHED
 62
     1
 10
140.674988
 20
-72.850006
 11
140.674988
 21
-74.450012
  0
LINE
  8
0
  6
DASHED
 62
     1
 10
144.274994
 20
-72.850006
 11
144.274994
 21
-74.450012
  0
LINE
  8
0
  6
CENTER
 62
     1
 10
139.574997
 20
-68.450012
 11
126.974991
 21
-68.450012
  0
LINE
  8
0
 62
     4
 10
136.774979
 20
-65.700012
 11
136.774979
 21
-71.200012
  0
LINE
  8
0
 62
     4
 10
194.274994
 20
-72.849998
 11
220.274994
 21
-72.849998
  0
LINE
  8
0
 62
     4
 10
196.274994
 20
-64.449997
 11
200.274994
 21
-64.449997
  0
LINE
  8
0
 62
     4
 10
194.274994
 20
-66.449997
 11
194.274994
 21
-74.449997
  0
LINE
  8
0
 62
     4
 10
220.274994
 20
-66.449997
 11
220.274994
 21
-74.449997
  0
LINE
  8
0
 62
     4
 10
215.025009
 20
-69.171669
 11
216.275009
 21
-69.893356
  0
LINE
  8
0
 62
     4
 10
216.275009
 20
-67.006599
 11
217.525009
 21
-67.728279
  0
LINE
  8
0
 62
     4
 10
216.274994
 20
-69.893394
 11
217.524994
 21
-69.171707
  0
LINE
  8
0
 62
     4
 10
215.024994
 20
-67.728302
 11
216.274994
 21
-67.006622
  0
LINE
  8
0
 62
     4
 10
215.024994
 20
-67.728317
 11
215.024994
 21
-69.171684
  0
LINE
  8
0
 62
     4
 10
217.524994
 20
-67.728310
 11
217.524994
 21
-69.171692
  0
LINE
  8
0
 62
     4
 10
198.275024
 20
-69.893402
 11
199.525024
 21
-69.171715
  0
LINE
  8
0
 62
     4
 10
199.524994
 20
-67.728310
 11
199.524994
 21
-69.171692
  0
LINE
  8
0
 62
     4
 10
198.274994
 20
-67.006630
 11
199.524979
 21
-67.728317
  0
LINE
  8
0
 62
     4
 10
197.024994
 20
-67.728310
 11
198.274994
 21
-67.006630
  0
LINE
  8
0
 62
     4
 10
197.024994
 20
-67.728317
 11
197.024994
 21
-69.171684
  0
LINE
  8
0
 62
     4
 10
197.024994
 20
-69.171684
 11
198.274994
 21
-69.893372
  0
LINE
  8
0
 62
     4
 10
214.274994
 20
-64.449997
 11
218.274994
 21
-64.449997
  0
LINE
  8
0
  6
CENTER
 62
     1
 10
216.274994
 20
-63.495380
 11
216.274994
 21
-76.949997
  0
LINE
  8
0
  6
CENTER
 62
     1
 10
198.274994
 20
-63.230473
 11
198.274994
 21
-76.949997
  0
LINE
  8
0
  6
CENTER
 62
     1
 10
221.344116
 20
-68.449997
 11
210.535904
 21
-68.449997
  0
LINE
  8
0
  6
CENTER
 62
     1
 10
203.595352
 20
-68.449997
 11
193.740814
 21
-68.449997
  0
LINE
  8
0
  6
DASHED
 62
     1
 10
196.475006
 20
-72.849998
 11
196.475006
 21
-74.449997
  0
LINE
  8
0
  6
DASHED
 62
     1
 10
200.074997
 20
-72.849998
 11
200.074997
 21
-74.449997
  0
LINE
  8
0
  6
DASHED
 62
     1
 10
214.474991
 20
-72.849998
 11
214.474991
 21
-74.449997
  0
LINE
  8
0
  6
DASHED
 62
     1
 10
218.074997
 20
-72.849998
 11
218.074997
 21
-74.449997
  0
LINE
  8
0
 62
     4
 10
194.274994
 20
-74.449997
 11
220.274994
 21
-74.449997
  0
LINE
  8
0
 62
     4
 10
94.851921
 20
-150.538589
 11
134.851929
 21
-150.538589
  0
LINE
  8
0
 62
     4
 10
94.851921
 20
-150.538589
 11
94.851921
 21
-155.538589
  0
LINE
  8
0
 62
     4
 10
134.851929
 20
-150.538589
 11
134.851929
 21
-155.538589
  0
LINE
  8
0
  6
CENTER
 62
     1
 10
114.851921
 20
-148.038589
 11
114.851921
 21
-158.038589
  0
LINE
  8
0
  6
CENTER
 62
     1
 10
128.851929
 20
-148.038589
 11
128.851929
 21
-158.038589
  0
LINE
  8
0
  6
CENTER
 62
     1
 10
100.851921
 20
-148.038589
 11
100.851921
 21
-158.038589
  0
LINE
  8
0
  6
DASHED
 62
     1
 10
99.151924
 20
-150.538589
 11
99.151924
 21
-155.538589
  0
LINE
  8
0
  6
DASHED
 62
     1
 10
102.551918
 20
-150.538589
 11
102.551918
 21
-155.538589
  0
LINE
  8
0
  6
DASHED
 62
     1
 10
127.151924
 20
-150.538589
 11
127.151924
 21
-155.538589
  0
LINE
  8
0
  6
DASHED
 62
     1
 10
130.551910
 20
-150.538589
 11
130.551910
 21
-155.538589
  0
LINE
  8
0
 62
     4
 10
94.851921
 20
-155.538589
 11
134.851929
 21
-155.538589
  0
LINE
  8
0
 62
     1
 10
228.775009
 20
-152.907532
 11
228.775009
 21
-155.150009
  0
LINE
  8
0
 62
     1
 10
227.127106
 20
-152.840591
 11
228.422913
 21
-152.612106
  0
LINE
  8
0
 62
     4
 10
226.775009
 20
-151.450012
 11
226.775009
 21
-152.545135
  0
LINE
  8
0
 62
     4
 10
199.775009
 20
-151.450012
 11
199.775009
 21
-152.545135
  0
LINE
  8
0
 62
     4
 10
199.422943
 20
-152.840591
 11
198.127121
 21
-152.612106
  0
LINE
  8
0
 62
     4
 10
197.775009
 20
-152.907532
 11
197.775009
 21
-155.150009
  0
LINE
  8
0
 62
     4
 10
229.075012
 20
-155.450012
 11
235.475006
 21
-155.450012
  0
LINE
  8
0
 62
     4
 10
227.775009
 20
-150.450012
 11
235.475006
 21
-150.450012
  0
LINE
  8
0
 62
     4
 10
235.775009
 20
-150.750015
 11
235.775009
 21
-155.150009
  0
LINE
  8
0
 62
     4
 10
197.475006
 20
-155.450012
 11
191.075012
 21
-155.450012
  0
LINE
  8
0
 62
     4
 10
190.775009
 20
-150.750015
 11
190.775009
 21
-155.150009
  0
LINE
  8
0
 62
     4
 10
198.775009
 20
-150.450012
 11
191.075012
 21
-150.450012
  0
LINE
  8
0
  6
CENTER
 62
     1
 10
232.275009
 20
-147.950012
 11
232.275009
 21
-157.950012
  0
LINE
  8
0
  6
DASHED
 62
     1
 10
233.975006
 20
-150.450012
 11
233.975006
 21
-155.450012
  0
LINE
  8
0
  6
DASHED
 62
     1
 10
230.575012
 20
-150.450012
 11
230.575012
 21
-155.450012
  0
LINE
  8
0
  6
DASHED
 62
     1
 10
195.975006
 20
-150.450012
 11
195.975006
 21
-155.450012
  0
LINE
  8
0
  6
DASHED
 62
     1
 10
192.575012
 20
-150.450012
 11
192.575012
 21
-155.450012
  0
LINE
  8
0
  6
CENTER
 62
     1
 10
194.275009
 20
-147.950012
 11
194.275009
 21
-157.950012
  0
LINE
  8
0
 62
     4
 10
226.775009
 20
-151.766525
 11
226.775009
 21
-152.545135
  0
LINE
  8
0
 62
     4
 10
227.127090
 20
-152.840546
 11
228.422897
 21
-152.612061
  0
LINE
  8
0
 62
     4
 10
228.775009
 20
-152.907532
 11
228.775009
 21
-155.150009
  0
ARC
  8
0
 10
61.385239
 20
30.590065
 40
0.200001
 50
90.000000
 51
180.000000
  0
ARC
  8
0
 10
60.785233
 20
48.390064
 40
0.400002
 50
0.000000
 51
90.000000
  0
ARC
  8
0
 10
63.585251
 20
31.190065
 40
0.400000
 50
270.000000
 51
0.000000
  0
ARC
  8
0
 10
63.585251
 20
39.390068
 40
0.400002
 50
0.000000
 51
90.000000
  0
ARC
  8
0
 10
60.785233
 20
22.190065
 40
0.400000
 50
270.000000
 51
0.000000
  0
ARC
  8
0
 10
61.385239
 20
39.990067
 40
0.200001
 50
180.000000
 51
270.000000
  0
CIRCLE
  8
0
 10
58.485245
 20
35.290066
 40
3.500000
  0
CIRCLE
  8
0
 10
51.985245
 20
39.290066
 40
2.000000
  0
ARC
  8
0
 10
63.585251
 20
48.390064
 40
0.400002
 50
0.000000
 51
90.000000
  0
ARC
  8
0
 10
63.585251
 20
22.190065
 40
0.400000
 50
270.000000
 51
0.000000
  0
CIRCLE
  8
0
 10
58.485245
 20
35.290066
 40
4.500000
  0
ARC
  8
0
 10
59.685226
 20
44.290066
 40
4.500001
 50
339.308655
 51
20.691330
  0
ARC
  8
0
 10
62.958221
 20
46.672565
 40
1.227010
 50
319.768402
 51
40.231590
  0
ARC
  8
0
 10
62.958221
 20
41.907566
 40
1.227010
 50
319.768402
 51
40.231590
  0
ARC
  8
0
 10
62.958221
 20
28.672565
 40
1.227009
 50
319.768494
 51
40.231590
  0
ARC
  8
0
 10
59.685226
 20
26.290066
 40
4.500001
 50
339.308655
 51
20.691330
  0
ARC
  8
0
 10
62.958221
 20
23.907566
 40
1.227010
 50
319.768402
 51
40.231590
  0
ARC
  8
0
 10
-164.987747
 20
23.907566
 40
1.227013
 50
139.768524
 51
220.231476
  0
ARC
  8
0
 10
-163.414749
 20
30.590065
 40
0.199997
 50
0.000000
 51
90.000000
  0
ARC
  8
0
 10
-162.814743
 20
48.390064
 40
0.400002
 50
90.000000
 51
180.000000
  0
ARC
  8
0
 10
-165.614761
 20
31.190065
 40
0.399994
 50
180.000000
 51
270.000000
  0
ARC
  8
0
 10
-165.614761
 20
39.390068
 40
0.400002
 50
90.000000
 51
180.000000
  0
ARC
  8
0
 10
-162.814743
 20
22.190065
 40
0.399994
 50
180.000000
 51
270.000000
  0
ARC
  8
0
 10
-163.414749
 20
39.990067
 40
0.200001
 50
270.000000
 51
0.000000
  0
CIRCLE
  8
0
 10
-160.514755
 20
35.290066
 40
3.500000
  0
CIRCLE
  8
0
 10
-154.014755
 20
39.290066
 40
2.000000
  0
ARC
  8
0
 10
-165.614761
 20
48.390064
 40
0.400002
 50
90.000000
 51
180.000000
  0
ARC
  8
0
 10
-165.614761
 20
22.190065
 40
0.399994
 50
180.000000
 51
270.000000
  0
CIRCLE
  8
0
 10
-160.514755
 20
35.290066
 40
4.500000
  0
ARC
  8
0
 10
-161.714737
 20
44.290066
 40
4.499995
 50
159.308594
 51
200.691315
  0
ARC
  8
0
 10
-164.987747
 20
46.672565
 40
1.227013
 50
139.768524
 51
220.231476
  0
ARC
  8
0
 10
-164.987747
 20
41.907566
 40
1.227013
 50
139.768524
 51
220.231476
  0
ARC
  8
0
 10
-164.987747
 20
28.672565
 40
1.227014
 50
139.768463
 51
220.231400
  0
ARC
  8
0
 10
-161.714737
 20
26.290066
 40
4.499994
 50
159.308609
 51
200.691345
  0
CIRCLE
  8
0
 62
     2
 10
-10.014755
 20
26.790066
 40
1.500000
  0
CIRCLE
  8
0
 10
-10.014755
 20
26.790066
 40
1.300000
  0
CIRCLE
  8
0
 62
     2
 10
-110.014755
 20
26.790068
 40
1.500000
  0
CIRCLE
  8
0
 10
-110.014755
 20
26.790068
 40
1.300000
  0
ARC
  8
0
 10
63.585236
 20
102.190063
 40
0.400002
 50
270.000000
 51
0.000000
  0
ARC
  8
0
 10
60.235229
 20
104.540070
 40
5.249998
 50
250.528778
 51
289.471222
  0
ARC
  8
0
 10
56.735229
 20
104.540070
 40
5.249998
 50
250.528778
 51
289.471222
  0
ARC
  8
0
 10
63.585236
 20
128.390076
 40
0.400002
 50
0.000000
 51
90.000000
  0
ARC
  8
0
 10
51.385223
 20
121.590073
 40
2.200001
 50
0.000000
 51
90.000000
  0
ARC
  8
0
 10
51.385223
 20
108.990067
 40
2.199997
 50
270.000000
 51
0.000000
  0
CIRCLE
  8
0
 10
61.185242
 20
115.290070
 40
1.000000
  0
CIRCLE
  8
0
 10
56.985229
 20
115.290070
 40
1.000000
  0
CIRCLE
  8
0
 10
51.285217
 20
121.090073
 40
2.000000
  0
CIRCLE
  8
0
 10
51.285217
 20
109.490067
 40
2.000000
  0
ARC
  8
0
 10
61.385239
 20
119.990067
 40
0.200001
 50
180.000000
 51
270.000000
  0
ARC
  8
0
 10
61.385239
 20
110.590073
 40
0.199997
 50
90.000000
 51
180.000000
  0
ARC
  8
0
 10
60.785248
 20
128.390076
 40
0.400002
 50
0.000000
 51
90.000000
  0
ARC
  8
0
 10
63.585236
 20
119.390076
 40
0.400002
 50
0.000000
 51
90.000000
  0
ARC
  8
0
 10
63.585236
 20
111.190063
 40
0.400002
 50
270.000000
 51
0.000000
  0
ARC
  8
0
 10
60.785248
 20
102.190063
 40
0.400002
 50
270.000000
 51
0.000000
  0
ARC
  8
0
 10
59.685242
 20
125.665070
 40
4.499999
 50
342.208405
 51
17.791597
  0
ARC
  8
0
 10
59.685242
 20
122.915070
 40
4.499999
 50
342.208405
 51
17.791597
  0
ARC
  8
0
 10
59.685242
 20
107.665070
 40
4.500000
 50
342.208313
 51
17.791491
  0
ARC
  8
0
 10
59.685242
 20
104.915070
 40
4.500000
 50
342.208313
 51
17.791491
  0
ARC
  8
0
 10
-165.614777
 20
102.190063
 40
0.399994
 50
180.000000
 51
270.000000
  0
ARC
  8
0
 10
-162.264771
 20
104.540070
 40
5.249998
 50
250.528778
 51
289.471222
  0
ARC
  8
0
 10
-158.764771
 20
104.540070
 40
5.249998
 50
250.528778
 51
289.471222
  0
ARC
  8
0
 10
-165.614777
 20
128.390076
 40
0.399994
 50
90.000000
 51
180.000000
  0
ARC
  8
0
 10
-153.414764
 20
121.590073
 40
2.199997
 50
90.000000
 51
180.000000
  0
ARC
  8
0
 10
-153.414764
 20
108.990067
 40
2.199997
 50
180.000000
 51
270.000000
  0
CIRCLE
  8
0
 10
-163.214783
 20
115.290070
 40
1.000000
  0
CIRCLE
  8
0
 10
-159.014771
 20
115.290070
 40
1.000000
  0
CIRCLE
  8
0
 10
-153.314758
 20
121.090073
 40
2.000000
  0
CIRCLE
  8
0
 10
-153.314758
 20
109.490067
 40
2.000000
  0
ARC
  8
0
 10
-163.414764
 20
119.990067
 40
0.199997
 50
270.000000
 51
0.000000
  0
ARC
  8
0
 10
-163.414764
 20
110.590073
 40
0.199997
 50
0.000000
 51
90.000000
  0
ARC
  8
0
 10
-162.814789
 20
128.390076
 40
0.399994
 50
90.000000
 51
180.000000
  0
ARC
  8
0
 10
-165.614777
 20
119.390076
 40
0.400002
 50
90.000000
 51
180.000000
  0
ARC
  8
0
 10
-165.614777
 20
111.190063
 40
0.399994
 50
180.000000
 51
270.000000
  0
ARC
  8
0
 10
-162.814789
 20
102.190063
 40
0.399994
 50
180.000000
 51
270.000000
  0
ARC
  8
0
 10
-161.714783
 20
125.665070
 40
4.500006
 50
162.208435
 51
197.791565
  0
ARC
  8
0
 10
-161.714783
 20
122.915070
 40
4.500006
 50
162.208435
 51
197.791565
  0
ARC
  8
0
 10
-161.714783
 20
107.665070
 40
4.500006
 50
162.208435
 51
197.791565
  0
ARC
  8
0
 10
-161.714783
 20
104.915070
 40
4.500006
 50
162.208435
 51
197.791565
  0
CIRCLE
  8
0
 62
     2
 10
-78.514771
 20
115.290070
 40
1.500000
  0
CIRCLE
  8
0
 10
-78.514771
 20
115.290070
 40
1.250000
  0
CIRCLE
  8
0
 62
     2
 10
-123.514771
 20
126.290070
 40
1.500000
  0
CIRCLE
  8
0
 10
-123.514771
 20
126.290070
 40
1.250000
  0
CIRCLE
  8
0
 62
     2
 10
-123.514771
 20
115.290070
 40
1.500000
  0
CIRCLE
  8
0
 10
-123.514771
 20
115.290070
 40
1.250000
  0
CIRCLE
  8
0
 62
     2
 10
-123.514771
 20
104.290070
 40
1.500000
  0
CIRCLE
  8
0
 10
-123.514771
 20
104.290070
 40
1.250000
  0
CIRCLE
  8
0
 62
     2
 10
-78.514771
 20
126.290070
 40
1.500000
  0
CIRCLE
  8
0
 10
-78.514771
 20
126.290070
 40
1.250000
  0
CIRCLE
  8
0
 62
     2
 10
-78.514771
 20
104.290070
 40
1.500000
  0
CIRCLE
  8
0
 10
-78.514771
 20
104.290070
 40
1.250000
  0
CIRCLE
  8
0
 10
-163.214783
 20
115.290070
 40
0.500000
  0
CIRCLE
  8
0
 10
-159.014771
 20
115.290070
 40
0.500000
  0
CIRCLE
  8
0
 10
56.985229
 20
115.290070
 40
0.500000
  0
CIRCLE
  8
0
 10
61.185242
 20
115.290070
 40
0.500000
  0
ARC
  8
0
 10
187.885315
 20
24.890066
 40
1.000000
 50
90.000000
 51
115.303543
  0
ARC
  8
0
 10
187.785309
 20
23.194939
 40
0.300003
 50
180.000000
 51
279.999817
  0
ARC
  8
0
 10
189.185333
 20
22.832539
 40
0.300003
 50
0.000000
 51
99.999817
  0
ARC
  8
0
 10
189.185333
 20
20.590065
 40
0.299999
 50
270.000000
 51
0.000000
  0
ARC
  8
0
 10
189.185333
 20
26.190067
 40
0.299999
 50
270.000000
 51
0.000000
  0
ARC
  8
0
 10
160.085327
 20
24.890066
 40
1.000000
 50
293.577820
 51
327.194366
  0
ARC
  8
0
 10
158.785309
 20
22.832541
 40
0.300000
 50
80.000183
 51
180.000000
  0
ARC
  8
0
 10
158.785309
 20
26.190067
 40
0.300003
 50
180.000000
 51
270.000000
  0
ARC
  8
0
 10
160.185333
 20
23.194939
 40
0.300000
 50
260.000183
 51
0.000000
  0
ARC
  8
0
 10
158.785309
 20
20.590065
 40
0.300003
 50
180.000000
 51
270.000000
  0
ARC
  8
0
 10
158.885315
 20
29.190067
 40
0.399994
 50
0.000000
 51
180.000000
  0
ARC
  8
0
 10
159.785309
 20
28.890068
 40
0.500000
 50
180.000000
 51
270.000000
  0
ARC
  8
0
 10
189.085327
 20
29.190067
 40
0.399994
 50
0.000000
 51
180.000000
  0
ARC
  8
0
 10
188.368469
 20
36.290066
 40
0.500002
 50
219.999557
 51
270.000000
  0
ARC
  8
0
 10
189.285309
 20
35.590065
 40
0.199997
 50
0.000000
 51
90.000000
  0
ARC
  8
0
 10
189.285309
 20
34.990067
 40
0.200001
 50
270.000000
 51
0.000000
  0
ARC
  8
0
 10
188.185333
 20
28.890068
 40
0.500000
 50
270.000000
 51
0.000000
  0
ARC
  8
0
 10
168.606659
 20
20.290066
 40
1.500000
 50
90.000000
 51
134.999847
  0
ARC
  8
0
 10
179.363983
 20
20.290066
 40
1.499995
 50
45.000156
 51
90.000000
  0
ARC
  8
0
 10
159.616760
 20
32.258984
 40
1.631444
 50
141.734634
 51
218.265427
  0
ARC
  8
0
 10
159.616760
 20
38.321148
 40
1.631444
 50
141.734634
 51
218.265366
  0
ARC
  8
0
 10
163.985321
 20
35.290066
 40
6.000006
 50
160.318741
 51
199.681213
  0
ARC
  8
0
 10
164.985321
 20
44.290066
 40
4.500000
 50
90.000000
 51
179.999954
  0
ARC
  8
0
 10
182.985321
 20
44.290066
 40
4.500000
 50
0.000000
 51
90.000000
  0
ARC
  8
0
 10
164.985321
 20
26.290066
 40
4.500000
 50
179.999969
 51
270.000000
  0
ARC
  8
0
 10
182.985321
 20
26.290066
 40
4.500000
 50
270.000000
 51
0.000000
  0
ARC
  8
0
 10
164.985321
 20
26.290066
 40
4.500000
 50
0.000000
 51
90.000000
  0
ARC
  8
0
 10
164.985321
 20
44.290066
 40
4.500000
 50
270.000000
 51
0.000000
  0
ARC
  8
0
 10
182.985321
 20
44.290066
 40
4.500000
 50
180.000000
 51
270.000000
  0
ARC
  8
0
 10
182.985321
 20
26.290066
 40
4.500000
 50
90.000000
 51
179.999969
  0
CIRCLE
  8
0
 10
182.985321
 20
44.290066
 40
3.500000
  0
CIRCLE
  8
0
 10
182.985321
 20
26.290066
 40
3.500000
  0
CIRCLE
  8
0
 10
164.985321
 20
44.290066
 40
3.500000
  0
CIRCLE
  8
0
 10
164.985321
 20
26.290066
 40
3.500000
  0
CIRCLE
  8
0
 62
     2
 10
164.985321
 20
26.290066
 40
1.500000
  0
CIRCLE
  8
0
 62
     2
 10
164.985321
 20
44.290066
 40
1.500000
  0
CIRCLE
  8
0
 62
     2
 10
182.985321
 20
44.290066
 40
1.500000
  0
CIRCLE
  8
0
 62
     2
 10
182.985321
 20
26.290066
 40
1.500000
  0
CIRCLE
  8
0
 10
164.985321
 20
44.290066
 40
1.250000
  0
CIRCLE
  8
0
 10
182.985321
 20
44.290066
 40
1.250000
  0
CIRCLE
  8
0
 10
182.985321
 20
26.290066
 40
1.250000
  0
CIRCLE
  8
0
 10
164.985321
 20
26.290066
 40
1.250000
  0
CIRCLE
  8
0
 10
166.985321
 20
35.290066
 40
4.500000
  0
CIRCLE
  8
0
 10
180.985321
 20
35.290066
 40
4.500000
  0
CIRCLE
  8
0
 62
     2
 10
166.985321
 20
35.290066
 40
2.500000
  0
CIRCLE
  8
0
 62
     2
 10
180.985321
 20
35.290066
 40
2.500000
  0
CIRCLE
  8
0
 10
166.985321
 20
35.290066
 40
2.100000
  0
CIRCLE
  8
0
 10
180.985321
 20
35.290066
 40
2.100000
  0
ARC
  8
0
 10
169.885315
 20
48.390072
 40
0.400002
 50
90.000000
 51
180.000000
  0
ARC
  8
0
 10
178.085327
 20
48.390072
 40
0.399994
 50
0.000000
 51
90.000000
  0
ARC
  8
0
 10
187.085327
 20
39.390072
 40
0.399994
 50
0.000000
 51
90.000000
  0
ARC
  8
0
 10
187.085327
 20
31.190060
 40
0.400000
 50
270.000000
 51
0.000000
  0
ARC
  8
0
 10
160.885345
 20
31.190060
 40
0.399994
 50
180.000000
 51
270.000000
  0
ARC
  8
0
 10
160.885345
 20
39.390072
 40
0.400002
 50
90.000000
 51
180.000000
  0
ARC
  8
0
 10
169.885315
 20
22.190060
 40
0.399994
 50
180.000000
 51
270.000000
  0
ARC
  8
0
 10
178.085327
 20
22.190060
 40
0.400000
 50
270.000000
 51
0.000000
  0
ARC
  8
0
 10
187.885315
 20
24.890066
 40
1.000002
 50
212.805634
 51
246.422150
  0
ARC
  8
0
 10
160.085327
 20
24.890066
 40
1.000000
 50
64.696457
 51
90.000000
  0
ARC
  8
0
 10
157.885315
 20
36.390068
 40
0.200001
 50
90.000000
 51
180.000000
  0
ARC
  8
0
 10
157.485321
 20
35.490067
 40
0.200001
 50
270.000000
 51
0.000000
  0
ARC
  8
0
 10
190.485321
 20
35.490067
 40
0.199997
 50
180.000000
 51
270.000000
  0
ARC
  8
0
 10
188.578583
 20
36.790066
 40
0.200005
 50
219.999496
 51
270.000000
  0
ARC
  8
0
 10
190.085327
 20
36.390068
 40
0.199997
 50
0.000000
 51
90.000000
  0
CIRCLE
  8
0
 10
164.985321
 20
44.290066
 40
2.750000
  0
CIRCLE
  8
0
 10
182.985321
 20
44.290066
 40
2.750000
  0
CIRCLE
  8
0
 10
182.985321
 20
26.290066
 40
2.750000
  0
CIRCLE
  8
0
 10
164.985321
 20
26.290066
 40
2.750000
  0
ARC
  8
0
 10
152.485321
 20
60.790066
 40
1.000000
 50
90.000000
 51
180.000000
  0
ARC
  8
0
 10
195.485321
 20
60.790066
 40
1.000000
 50
0.000000
 51
90.000000
  0
ARC
  8
0
 10
154.985321
 20
25.290066
 40
0.500000
 50
180.000000
 51
270.000000
  0
ARC
  8
0
 10
158.865326
 20
29.424377
 40
0.399994
 50
15.199646
 51
134.999420
  0
ARC
  8
0
 10
159.765320
 20
28.990063
 40
0.450001
 50
222.359528
 51
352.485077
  0
ARC
  8
0
 10
157.415329
 20
25.240063
 40
0.450001
 50
270.000000
 51
0.000000
  0
ARC
  8
0
 10
158.852371
 20
29.339691
 40
1.407082
 50
352.152771
 51
49.546448
  0
ARC
  8
0
 10
156.695221
 20
28.715223
 40
2.682596
 50
3.968793
 51
17.664762
  0
ARC
  8
0
 10
159.899811
 20
28.916386
 40
0.529115
 50
185.626495
 51
202.803024
  0
ARC
  8
0
 62
     4
 10
-209.475082
 20
-124.950012
 40
5.000014
 50
154.158127
 51
205.841873
  0
ARC
  8
0
 62
     4
 10
-203.475143
 20
-124.950012
 40
5.000042
 50
334.158295
 51
25.841721
  0
CIRCLE
  8
0
 62
     4
 10
-238.975098
 20
-76.450043
 40
2.750000
  0
CIRCLE
  8
0
 62
     4
 10
-230.475098
 20
-40.450039
 40
2.750000
  0
CIRCLE
  8
0
 62
     4
 10
-238.975098
 20
-40.450039
 40
2.750000
  0
CIRCLE
  8
0
 62
     4
 10
-230.475098
 20
-76.450043
 40
2.750000
  0
CIRCLE
  8
0
 62
     4
 10
-234.725098
 20
-69.950043
 40
2.750000
  0
ARC
  8
0
 62
     4
 10
-132.774994
 20
-132.950012
 40
0.800003
 50
0.000000
 51
90.000000
  0
ARC
  8
0
 62
     4
 10
-172.174988
 20
-132.950012
 40
0.800003
 50
90.000000
 51
180.000000
  0
ARC
  8
0
 62
     4
 10
-152.474991
 20
-137.950012
 40
19.999998
 50
67.568489
 51
112.431557
  0
ARC
  8
0
 62
     4
 10
-159.724976
 20
-120.387619
 40
1.000002
 50
112.431328
 51
180.000000
  0
ARC
  8
0
 62
     4
 10
-145.224991
 20
-120.387619
 40
1.000000
 50
0.000000
 51
67.568672
  0
ARC
  8
0
 62
     4
 10
-161.024994
 20
-121.150009
 40
0.300003
 50
270.000000
 51
0.000000
  0
ARC
  8
0
 62
     4
 10
-143.924988
 20
-121.150009
 40
0.300003
 50
180.000000
 51
270.000000
  0
ARC
  8
0
 62
     4
 10
-166.224976
 20
-122.450012
 40
1.000000
 50
90.000000
 51
180.000000
  0
ARC
  8
0
 62
     4
 10
-138.725006
 20
-122.450012
 40
1.000000
 50
0.000000
 51
90.000000
  0
ARC
  8
0
 62
     4
 10
-173.474976
 20
-126.950012
 40
1.000000
 50
90.000000
 51
180.000000
  0
ARC
  8
0
 62
     4
 10
-131.475006
 20
-126.950012
 40
1.000000
 50
0.000000
 51
90.000000
  0
ARC
  8
0
 62
     4
 10
-167.524994
 20
-125.650009
 40
0.300003
 50
270.000000
 51
0.000000
  0
ARC
  8
0
 62
     4
 10
-137.424988
 20
-125.650009
 40
0.300003
 50
180.000000
 51
270.000000
  0
ARC
  8
0
 62
     4
 10
-172.974976
 20
-138.550018
 40
1.500000
 50
180.000000
 51
270.000000
  0
ARC
  8
0
 62
     4
 10
-167.974976
 20
-136.150009
 40
3.899994
 50
270.000000
 51
300.851929
  0
ARC
  8
0
 62
     4
 10
-136.975006
 20
-136.150009
 40
3.899996
 50
239.148087
 51
270.000000
  0
ARC
  8
0
 62
     4
 10
-131.975006
 20
-138.550018
 40
1.500000
 50
270.000000
 51
0.000000
  0
CIRCLE
  8
0
 62
     4
 10
-152.474991
 20
-124.950012
 40
5.000000
  0
CIRCLE
  8
0
 62
     1
 10
-152.474991
 20
-124.950012
 40
4.400000
  0
CIRCLE
  8
0
 62
     4
 10
-73.975014
 20
-76.450012
 40
2.750000
  0
CIRCLE
  8
0
 62
     4
 10
-65.475014
 20
-40.450008
 40
2.750000
  0
CIRCLE
  8
0
 62
     4
 10
-73.975014
 20
-40.450008
 40
2.750000
  0
CIRCLE
  8
0
 62
     4
 10
-65.475014
 20
-76.450012
 40
2.750000
  0
CIRCLE
  8
0
 62
     4
 10
-69.725014
 20
-69.950012
 40
2.750000
  0
ARC
  8
0
 62
     4
 10
19.974993
 20
-132.949966
 40
0.799999
 50
0.000000
 51
90.000000
  0
ARC
  8
0
 62
     4
 10
-19.424986
 20
-132.949966
 40
0.800003
 50
90.000000
 51
180.000000
  0
ARC
  8
0
 62
     4
 10
0.274995
 20
-137.949966
 40
20.000000
 50
67.568481
 51
112.431534
  0
ARC
  8
0
 62
     4
 10
-6.975005
 20
-120.387573
 40
1.000003
 50
112.431480
 51
180.000000
  0
ARC
  8
0
 62
     4
 10
7.524995
 20
-120.387573
 40
1.000000
 50
0.000000
 51
67.568550
  0
ARC
  8
0
 62
     4
 10
-8.275008
 20
-121.149963
 40
0.300003
 50
270.000000
 51
0.000000
  0
ARC
  8
0
 62
     4
 10
8.824998
 20
-121.149963
 40
0.300000
 50
180.000000
 51
270.000000
  0
ARC
  8
0
 62
     4
 10
-13.475005
 20
-122.449966
 40
1.000000
 50
90.000000
 51
180.000000
  0
ARC
  8
0
 62
     4
 10
14.024995
 20
-122.449966
 40
1.000000
 50
0.000000
 51
90.000000
  0
ARC
  8
0
 62
     4
 10
-20.725004
 20
-126.949966
 40
1.000000
 50
90.000000
 51
180.000000
  0
ARC
  8
0
 62
     4
 10
21.274996
 20
-126.949966
 40
1.000000
 50
0.000000
 51
90.000000
  0
ARC
  8
0
 62
     4
 10
-14.774993
 20
-125.649963
 40
0.300003
 50
270.000000
 51
0.000000
  0
ARC
  8
0
 62
     4
 10
15.324998
 20
-125.649963
 40
0.300000
 50
180.000000
 51
270.000000
  0
CIRCLE
  8
0
 62
     4
 10
0.274995
 20
-124.949966
 40
5.000000
  0
CIRCLE
  8
0
 62
     1
 10
0.274995
 20
-124.949966
 40
4.250000
  0
ARC
  8
0
 62
     4
 10
-20.225004
 20
-138.549957
 40
1.500000
 50
180.000000
 51
270.000000
  0
ARC
  8
0
 62
     4
 10
-15.225005
 20
-136.149963
 40
3.899994
 50
270.000000
 51
300.851929
  0
ARC
  8
0
 62
     4
 10
15.774995
 20
-136.149963
 40
3.899996
 50
239.148087
 51
269.999969
  0
ARC
  8
0
 62
     4
 10
20.774996
 20
-138.549957
 40
1.500000
 50
269.999939
 51
0.000000
  0
ARC
  8
0
 62
     4
 10
135.074997
 20
-71.850006
 40
1.000000
 50
180.000000
 51
270.000000
  0
ARC
  8
0
 62
     4
 10
135.074997
 20
-71.850006
 40
2.600006
 50
180.000000
 51
270.000000
  0
CIRCLE
  8
0
 62
     4
 10
216.274994
 20
-68.449997
 40
2.750000
  0
CIRCLE
  8
0
 62
     4
 10
198.274994
 20
-68.449997
 40
2.750000
  0
ARC
  8
0
 62
     4
 10
196.274994
 20
-66.449997
 40
2.000000
 50
90.000000
 51
180.000000
  0
ARC
  8
0
 62
     4
 10
218.274994
 20
-66.449997
 40
2.000000
 50
0.000000
 51
90.000000
  0
ARC
  8
0
 62
     4
 10
207.274994
 20
-66.449997
 40
5.000000
 50
180.000000
 51
0.000000
  0
ARC
  8
0
 62
     4
 10
214.274994
 20
-66.449997
 40
2.000000
 50
90.000000
 51
180.000000
  0
ARC
  8
0
 62
     4
 10
200.274994
 20
-66.449997
 40
2.000000
 50
0.000000
 51
90.000000
  0
ARC
  8
0
 62
     1
 10
227.075012
 20
-152.545135
 40
0.300003
 50
180.000000
 51
279.999878
  0
ARC
  8
0
 62
     1
 10
228.475006
 20
-152.907532
 40
0.300003
 50
0.000000
 51
99.999878
  0
ARC
  8
0
 62
     4
 10
198.075012
 20
-152.907532
 40
0.299998
 50
80.000122
 51
180.000000
  0
ARC
  8
0
 62
     4
 10
199.475021
 20
-152.545135
 40
0.299998
 50
260.000122
 51
0.000000
  0
ARC
  8
0
 62
     1
 10
199.176468
 20
-130.276611
 40
0.200002
 50
50.001339
 51
140.001343
  0
ARC
  8
0
 62
     1
 10
228.094269
 20
-131.368881
 40
0.200002
 50
219.998657
 51
309.998657
  0
ARC
  8
0
 62
     1
 10
226.475006
 20
-128.750015
 40
0.199997
 50
270.000000
 51
0.000000
  0
ARC
  8
0
 62
     4
 10
227.775009
 20
-151.450012
 40
1.000000
 50
90.000000
 51
180.000000
  0
ARC
  8
0
 62
     4
 10
235.475006
 20
-150.750015
 40
0.300003
 50
0.000000
 51
90.000000
  0
ARC
  8
0
 62
     4
 10
235.475006
 20
-155.150009
 40
0.300003
 50
270.000000
 51
0.000000
  0
ARC
  8
0
 62
     4
 10
229.075012
 20
-155.150009
 40
0.300003
 50
180.000000
 51
270.000000
  0
ARC
  8
0
 62
     4
 10
198.775009
 20
-151.450012
 40
1.000000
 50
0.000000
 51
90.000000
  0
ARC
  8
0
 62
     4
 10
191.075012
 20
-150.750015
 40
0.300003
 50
90.000000
 51
180.000000
  0
ARC
  8
0
 62
     4
 10
191.075012
 20
-155.150009
 40
0.300003
 50
180.000000
 51
270.000000
  0
ARC
  8
0
 62
     4
 10
197.475006
 20
-155.150009
 40
0.300003
 50
270.000000
 51
0.000000
  0
ARC
  8
0
 62
     4
 10
227.075012
 20
-152.545135
 40
0.300003
 50
180.000000
 51
279.999878
  0
ARC
  8
0
 62
     4
 10
228.475006
 20
-152.907532
 40
0.300003
 50
0.000000
 51
99.999878
  0
TEXT
  8
0
 10
133.452194
 20
-106.379089
 40
5.000000
  1
Ｆ　ＳＵＰＰＯＲＴ（－Ｆ）
 50
0.000000
 41
0.833333
 51
0.000000
  7
STANDARD
  0
TEXT
  8
0
 10
-238.110901
 20
-13.678783
 40
5.000000
  1
Ｓ－ＡＢＳＯＲＢＥＲ（－Ｋ）
 50
0.000000
 41
0.833333
 51
0.000000
  7
STANDARD
  0
TEXT
  8
0
 10
-58.353470
 20
-13.678784
 40
5.000000
  1
Ａ－ＢＯＬＴ（－Ｓ）
 50
0.000000
 41
0.833333
 51
0.000000
  7
STANDARD
  0
TEXT
  8
0
 10
130.555298
 20
-13.678784
 40
5.000000
  1
Ｌ　ＳＵＰＰＯＲＴ（－Ｌ）
 50
0.000000
 41
0.833333
 51
0.000000
  7
STANDARD
  0
TEXT
  8
0
 10
174.200241
 20
180.830002
 40
6.300000
  1
DATE: Apr ,1994
 50
0.000000
 41
1.052632
 51
0.000000
  7
STANDARD
  0
TEXT
  8
0
 10
167.564667
 20
-192.100006
 40
9.000000
  1
KOGANEI CORP.
 50
0.000000
 41
1.052632
 51
0.000000
  7
STANDARD
  0
TEXT
  8
0
 10
-253.399719
 20
180.830002
 40
6.300000
  1
ORK SERIES
 50
0.000000
 41
1.052632
 51
0.000000
  7
STANDARD
  0
TEXT
  8
0
 10
-270.049713
 20
155.830002
 40
6.300000
  1
MODEL:ORK 16X100
 50
0.000000
 41
1.052632
 51
0.000000
  7
STANDARD
  0
ENDSEC
  0
EOF
