  0
SECTION
  2
HEADER
  0
ENDSEC
  0
SECTION
  2
TABLES
  0
TABLE
  2
LTYPE
 70
     4
  0
LTYPE
  2
CONTINUOUS
 70
    64
  3
Solid line
 72
    65
 73
     0
 40
0.000000
  0
LTYPE
  2
DASHED
 70
    64
  3
__ __ __ __ __ __ __ __ __ __ __ __ __ __ __
 72
    65
 73
     2
 40
3.500000
 49
2.000000
 49
-1.500000
  0
LTYPE
  2
CENTER
 70
    64
  3
____ _ ____ _ ____ _ ____ _ ____ _ ____ _ ____
 72
    65
 73
     4
 40
17.500000
 49
13.000000
 49
-1.500000
 49
1.500000
 49
-1.500000
  0
LTYPE
  2
PHANTOM
 70
    64
  3
_____ _ _ _____ _ _ _____ _ _ _____ _ _ ____  
 72
    65
 73
     6
 40
15.500000
 49
8.000000
 49
-1.500000
 49
1.500000
 49
-1.500000
 49
1.500000
 49
-1.500000
  0
LTYPE
  2
DASHED1
 70
    64
  3
__ __ __ __ __ __ __ __ __ __ __ __ __ __ __
 72
    65
 73
     2
 40
1.500000
 49
1.000000
 49
-0.500000
  0
LTYPE
  2
DASHED2
 70
    64
  3
__ __ __ __ __ __ __ __ __ __ __ __ __ __ __
 72
    65
 73
     2
 40
3.500000
 49
2.500000
 49
-1.000000
  0
LTYPE
  2
DASHED3
 70
    64
  3
__ __ __ __ __ __ __ __ __ __ __ __ __ __ __
 72
    65
 73
     2
 40
6.000000
 49
4.000000
 49
-2.000000
  0
LTYPE
  2
DASHED4
 70
    64
  3
__ __ __ __ __ __ __ __ __ __ __ __ __ __ __
 72
    65
 73
     2
 40
12.000000
 49
10.000000
 49
-2.000000
  0
LTYPE
  2
DASHED5
 70
    64
  3
__ __ __ __ __ __ __ __ __ __ __ __ __ __ __
 72
    65
 73
     2
 40
17.000000
 49
15.000000
 49
-2.000000
  0
LTYPE
  2
DASHED6
 70
    64
  3
__ __ __ __ __ __ __ __ __ __ __ __ __ __ __
 72
    65
 73
     2
 40
29.000000
 49
27.000000
 49
-2.000000
  0
LTYPE
  2
PHANTOM1
 70
    64
  3
_____ _ _ _____ _ _ _____ _ _ _____ _ _ ____  
 72
    65
 73
     6
 40
31.000000
 49
25.000000
 49
-1.500000
 49
1.000000
 49
-1.000000
 49
1.000000
 49
-1.500000
  0
LTYPE
  2
PHANTOM2
 70
    64
  3
_____ _ _ _____ _ _ _____ _ _ _____ _ _ ____  
 72
    65
 73
     6
 40
36.000000
 49
27.000000
 49
-1.500000
 49
2.500000
 49
-1.000000
 49
2.500000
 49
-1.500000
  0
LTYPE
  2
PHANTOM3
 70
    64
  3
_____ _ _ _____ _ _ _____ _ _ _____ _ _ ____  
 72
    65
 73
     6
 40
78.000000
 49
64.000000
 49
-2.000000
 49
4.000000
 49
-2.000000
 49
4.000000
 49
-2.000000
  0
LTYPE
  2
CENTER1
 70
    64
  3
____ _ ____ _ ____ _ ____ _ ____ _ ____ _ ____
 72
    65
 73
     4
 40
19.000000
 49
14.000000
 49
-1.000000
 49
3.000000
 49
-1.000000
  0
LTYPE
  2
CENTER2
 70
    64
  3
____ _ ____ _ ____ _ ____ _ ____ _ ____ _ ____
 72
    65
 73
     4
 40
28.500000
 49
25.000000
 49
-1.000000
 49
1.500000
 49
-1.000000
  0
LTYPE
  2
CENTER3
 70
    64
  3
____ _ ____ _ ____ _ ____ _ ____ _ ____ _ ____
 72
    65
 73
     4
 40
31.500000
 49
27.000000
 49
-1.000000
 49
2.500000
 49
-1.000000
  0
LTYPE
  2
CENTER4
 70
    64
  3
____ _ ____ _ ____ _ ____ _ ____ _ ____ _ ____
 72
    65
 73
     4
 40
50.000000
 49
45.000000
 49
-1.000000
 49
3.000000
 49
-1.000000
  0
LTYPE
  2
CENTER5
 70
    64
  3
____ _ ____ _ ____ _ ____ _ ____ _ ____ _ ____
 72
    65
 73
     4
 40
100.000000
 49
92.000000
 49
-2.000000
 49
4.000000
 49
-2.000000
  0
LTYPE
  2
SBK1
 70
    64
  3
______ _ _ _ ______ _ _ _ ______ _ _ _ _____  
 72
    65
 73
     8
 40
60.500000
 49
45.000000
 49
-2.000000
 49
2.500000
 49
-2.000000
 49
2.500000
 49
-2.000000
 49
2.500000
 49
-2.000000
  0
LTYPE
  2
SBK2
 70
    64
  3
______ _ _ _ ______ _ _ _ ______ _ _ _ _____  
 72
    65
 73
     8
 40
84.000000
 49
64.000000
 49
-2.000000
 49
4.000000
 49
-2.000000
 49
4.000000
 49
-2.000000
 49
4.000000
 49
-2.000000
  0
LTYPE
  2
STCH
 70
    64
  3
__ __ __ __ __ __ __ __ __ __ __ __ __ __ __
 72
    65
 73
     2
 40
3.000000
 49
1.000000
 49
-2.000000
  0
LTYPE
  2
MTCH
 70
    64
  3
_____ _ _ _____ _ _ _____ _ _ _____ _ _ ____  
 72
    65
 73
     6
 40
80.000000
 49
66.000000
 49
-2.000000
 49
4.000000
 49
-2.000000
 49
4.000000
 49
-2.000000
  0
ENDTAB
  0
TABLE
  2
LAYER
 70
     1
  0
LAYER
  2
0
 70
     0
 62
     7
  6
CONTINUOUS
  0
ENDTAB
  0
TABLE
  2
STYLE
 70
     1
  0
STYLE
  2
STANDARD
 70
     0
 40
0.000000
 41
1.000000
 50
0.000000
 71
     0
 42
0.200000
  3
txt
  4
BIGFONT
  0
ENDTAB
  0
TABLE
  2
VIEW
 70
     0
  0
ENDTAB
  0
ENDSEC
  0
SECTION
  2
BLOCKS
  0
ENDSEC
  0
SECTION
  2
ENTITIES
  0
POINT
  8
0
 10
-73.500061
 20
-65.000038
  0
POINT
  8
0
 10
70.499947
 20
-64.999992
  0
POINT
  8
0
 10
74.500008
 20
-65.000015
  0
POINT
  8
0
 10
81.499992
 20
-65.000023
  0
POINT
  8
0
 10
-73.500046
 20
41.510735
  0
POINT
  8
0
 10
-73.500053
 20
34.510735
  0
POINT
  8
0
 10
-73.500076
 20
30.510752
  0
POINT
  8
0
 10
-49.500061
 20
-65.000038
  0
POINT
  8
0
 10
-49.500076
 20
30.510752
  0
POINT
  8
0
 10
98.499947
 20
-64.999992
  0
LINE
  8
0
 62
     3
 10
-185.436783
 20
-127.279236
 11
-185.436783
 21
127.279236
  0
LINE
  8
0
 62
     3
 10
185.436783
 20
127.279236
 11
185.436783
 21
-127.279236
  0
LINE
  8
0
 62
     3
 10
-185.436783
 20
-127.279236
 11
185.436783
 21
-127.279236
  0
LINE
  8
0
 62
     3
 10
-185.436783
 20
127.279236
 11
185.436783
 21
127.279236
  0
LINE
  8
0
 62
     3
 10
-185.436783
 20
112.978195
 11
-109.164589
 21
112.978195
  0
LINE
  8
0
 62
     3
 10
-109.164589
 20
112.978195
 11
-109.164589
 21
127.279236
  0
LINE
  8
0
 62
     3
 10
109.164581
 20
-112.978210
 11
185.436783
 21
-112.978210
  0
LINE
  8
0
 62
     5
 10
129.190811
 20
-116.416870
 11
136.517700
 21
-116.416870
  0
LINE
  8
0
 62
     5
 10
129.190811
 20
-122.914322
 11
135.411774
 21
-122.914322
  0
LINE
  8
0
 62
     5
 10
129.190811
 20
-124.573227
 11
137.623672
 21
-124.573227
  0
LINE
  8
0
 62
     5
 10
129.190811
 20
-118.075790
 11
135.411774
 21
-118.075790
  0
LINE
  8
0
 62
     5
 10
129.190811
 20
-116.416870
 11
129.190811
 21
-118.075790
  0
LINE
  8
0
 62
     5
 10
137.623672
 20
-117.522827
 11
137.623672
 21
-124.573227
  0
LINE
  8
0
 62
     5
 10
135.411774
 20
-118.075790
 11
135.411774
 21
-122.914322
  0
LINE
  8
0
 62
     5
 10
138.867828
 20
-116.416870
 11
138.867828
 21
-118.075790
  0
LINE
  8
0
 62
     5
 10
146.747696
 20
-118.075790
 11
146.747696
 21
-123.467316
  0
LINE
  8
0
 62
     5
 10
144.535812
 20
-118.075790
 11
144.535812
 21
-122.914322
  0
LINE
  8
0
 62
     5
 10
129.190811
 20
-122.914322
 11
129.190811
 21
-124.573227
  0
LINE
  8
0
 62
     5
 10
138.867828
 20
-116.416870
 11
141.053345
 21
-116.416870
  0
LINE
  8
0
 62
     5
 10
138.867828
 20
-124.573227
 11
140.585297
 21
-124.573227
  0
LINE
  8
0
 62
     5
 10
138.867752
 20
-124.573166
 11
140.608795
 21
-118.075737
  0
LINE
  8
0
 62
     5
 10
138.867828
 20
-118.075790
 11
140.608841
 21
-118.075790
  0
LINE
  8
0
 62
     5
 10
140.585434
 20
-124.573364
 11
142.326385
 21
-118.075928
  0
LINE
  8
0
 62
     5
 10
142.876877
 20
-122.914322
 11
144.535812
 21
-122.914322
  0
LINE
  8
0
 62
     5
 10
142.876907
 20
-122.914337
 11
143.321396
 21
-124.573227
  0
LINE
  8
0
 62
     5
 10
143.321426
 20
-124.573227
 11
145.641785
 21
-124.573227
  0
LINE
  8
0
 62
     5
 10
142.326279
 20
-118.075790
 11
144.535812
 21
-118.075790
  0
LINE
  8
0
 62
     5
 10
142.770782
 20
-116.416870
 11
145.088776
 21
-116.416870
  0
LINE
  8
0
 62
     5
 10
141.053421
 20
-116.416908
 11
141.383072
 21
-115.186577
  0
LINE
  8
0
 62
     5
 10
142.770691
 20
-116.416794
 11
143.100342
 21
-115.186401
  0
LINE
  8
0
 62
     5
 10
148.130142
 20
-116.416870
 11
150.756775
 21
-116.416870
  0
LINE
  8
0
 62
     5
 10
148.130142
 20
-118.075790
 11
154.581039
 21
-118.075790
  0
LINE
  8
0
 62
     5
 10
150.756775
 20
-124.573227
 11
152.968643
 21
-124.573227
  0
LINE
  8
0
 62
     5
 10
148.130142
 20
-116.416870
 11
148.130142
 21
-118.075790
  0
LINE
  8
0
 62
     5
 10
156.286499
 20
-121.083908
 11
156.286499
 21
-122.914322
  0
LINE
  8
0
 62
     5
 10
148.130035
 20
-122.914253
 11
150.756714
 21
-121.689400
  0
LINE
  8
0
 62
     5
 10
148.130325
 20
-121.084061
 11
154.581238
 21
-118.075935
  0
LINE
  8
0
 62
     5
 10
148.130142
 20
-121.083908
 11
148.130142
 21
-122.914322
  0
LINE
  8
0
 62
     5
 10
152.968597
 20
-121.367157
 11
156.286514
 21
-122.914276
  0
LINE
  8
0
 62
     5
 10
154.171204
 20
-120.097549
 11
156.286728
 21
-121.084045
  0
LINE
  8
0
 62
     5
 10
156.286499
 20
-117.522827
 11
156.286499
 21
-118.406387
  0
LINE
  8
0
 62
     5
 10
150.756775
 20
-115.186523
 11
150.756775
 21
-116.416870
  0
LINE
  8
0
 62
     5
 10
152.968643
 20
-115.186523
 11
152.968643
 21
-116.416870
  0
LINE
  8
0
 62
     5
 10
152.968643
 20
-116.416870
 11
155.180557
 21
-116.416870
  0
LINE
  8
0
 62
     5
 10
150.756775
 20
-121.689514
 11
150.756775
 21
-124.573227
  0
LINE
  8
0
 62
     5
 10
152.968643
 20
-121.367203
 11
152.968643
 21
-124.573227
  0
LINE
  8
0
 62
     5
 10
154.171204
 20
-120.097557
 11
155.648163
 21
-119.408852
  0
LINE
  8
0
 62
     5
 10
163.751663
 20
-115.684204
 11
165.410553
 21
-115.684204
  0
LINE
  8
0
 62
     5
 10
156.977722
 20
-119.110947
 11
156.977722
 21
-120.896240
  0
LINE
  8
0
 62
     5
 10
165.410553
 20
-115.684204
 11
165.410553
 21
-116.416870
  0
LINE
  8
0
 62
     5
 10
163.751663
 20
-115.684204
 11
163.751663
 21
-116.041687
  0
LINE
  8
0
 62
     5
 10
161.539749
 20
-119.081879
 11
161.539749
 21
-124.573227
  0
LINE
  8
0
 62
     5
 10
156.977844
 20
-119.111031
 11
163.403137
 21
-116.555603
  0
LINE
  8
0
 62
     5
 10
156.977783
 20
-120.896362
 11
161.539810
 21
-119.081955
  0
LINE
  8
0
 62
     5
 10
161.539749
 20
-124.573227
 11
163.751663
 21
-124.573227
  0
LINE
  8
0
 62
     5
 10
163.751663
 20
-118.202194
 11
163.751663
 21
-124.573227
  0
LINE
  8
0
 62
     5
 10
163.751831
 20
-118.202301
 11
164.364929
 21
-117.958435
  0
LINE
  8
0
 62
     5
 10
141.383057
 20
-115.186523
 11
143.100449
 21
-115.186523
  0
LINE
  8
0
 62
     5
 10
145.849136
 20
-115.186523
 11
146.554138
 21
-115.186523
  0
LINE
  8
0
 62
     5
 10
150.756775
 20
-115.186523
 11
152.968643
 21
-115.186523
  0
LINE
  8
0
 62
     5
 10
145.849136
 20
-116.292480
 11
146.554138
 21
-116.292480
  0
LINE
  8
0
 62
     5
 10
145.849136
 20
-115.186523
 11
145.849136
 21
-116.292480
  0
LINE
  8
0
 62
     5
 10
146.554138
 20
-115.186523
 11
146.554138
 21
-116.292480
  0
LINE
  8
0
 62
     5
 10
146.968918
 20
-115.186523
 11
146.968918
 21
-116.292480
  0
LINE
  8
0
 62
     5
 10
147.756912
 20
-115.186523
 11
147.756912
 21
-116.292480
  0
LINE
  8
0
 62
     5
 10
146.968918
 20
-115.186523
 11
147.756912
 21
-115.186523
  0
LINE
  8
0
 62
     5
 10
146.968918
 20
-116.292480
 11
147.756912
 21
-116.292480
  0
LINE
  8
0
 62
     3
 10
109.164581
 20
112.978195
 11
185.436783
 21
112.978195
  0
LINE
  8
0
 62
     3
 10
109.164581
 20
127.279236
 11
109.164581
 21
112.978195
  0
LINE
  8
0
 62
     3
 10
109.164581
 20
-112.978210
 11
109.164581
 21
-127.279236
  0
LINE
  8
0
  6
CENTER
 10
-98.000061
 20
-65.000038
 11
-28.000076
 21
-65.000038
  0
LINE
  8
0
  6
PHANTOM
 10
-93.000061
 20
-95.000084
 11
-33.000061
 21
-95.000084
  0
LINE
  8
0
  6
PHANTOM
 10
-94.333588
 20
-61.300041
 11
-34.333588
 21
-61.300041
  0
LINE
  8
0
  6
PHANTOM
 10
-90.696533
 20
-70.000038
 11
-70.500061
 21
-70.000038
  0
LINE
  8
0
  6
PHANTOM
 10
-89.586945
 20
-74.000038
 11
-70.500061
 21
-74.000038
  0
LINE
  8
0
  6
PHANTOM
 10
-89.586914
 20
-86.000038
 11
-29.586914
 21
-86.000038
  0
LINE
  8
0
  6
PHANTOM
 10
-90.878296
 20
-90.500038
 11
-30.878296
 21
-90.500038
  0
LINE
  8
0
  6
PHANTOM
 10
-94.791962
 20
-46.500038
 11
-34.791962
 21
-46.500038
  0
LINE
  8
0
  6
PHANTOM
 10
-95.403687
 20
-50.541496
 11
-35.403687
 21
-50.541496
  0
LINE
  8
0
  6
PHANTOM
 10
-95.236755
 20
-57.000038
 11
-35.236755
 21
-57.000038
  0
LINE
  8
0
  6
PHANTOM
 10
-93.000061
 20
-41.000084
 11
-33.000061
 21
-41.000084
  0
LINE
  8
0
  6
CENTER
 10
-98.000061
 20
30.510746
 11
-28.000061
 21
30.510746
  0
LINE
  8
0
  6
PHANTOM
 10
-30.041534
 20
22.010746
 11
-90.041534
 21
22.010746
  0
LINE
  8
0
  6
PHANTOM
 10
-93.000061
 20
2.510746
 11
-33.000061
 21
2.510746
  0
LINE
  8
0
  6
PHANTOM
 10
42.499962
 20
-42.999992
 11
42.499962
 21
-46.499992
  0
LINE
  8
0
  6
PHANTOM
 10
42.499962
 20
-94.999992
 11
55.499962
 21
-94.999992
  0
LINE
  8
0
  6
PHANTOM
 10
60.118767
 20
-90.999992
 11
70.499962
 21
-90.999992
  0
LINE
  8
0
  6
PHANTOM
 10
44.499962
 20
-40.999992
 11
70.499962
 21
-40.999992
  0
LINE
  8
0
  6
PHANTOM
 10
55.499962
 20
-94.999992
 11
56.654663
 21
-92.999992
  0
LINE
  8
0
  6
PHANTOM
 10
42.499962
 20
-90.770996
 11
42.499962
 21
-94.999992
  0
LINE
  8
0
  6
PHANTOM
 10
45.499962
 20
-88.999992
 11
45.499962
 21
-91.299973
  0
LINE
  8
0
  6
PHANTOM
 10
42.499966
 20
-90.770981
 11
45.499966
 21
-91.299965
  0
LINE
  8
0
  6
PHANTOM
 10
45.799965
 20
-85.199997
 11
45.799965
 21
-88.699997
  0
LINE
  8
0
  6
PHANTOM
 10
42.499962
 20
-74.999985
 11
42.499962
 21
-76.199989
  0
LINE
  8
0
  6
PHANTOM
 10
44.099960
 20
-74.999985
 11
44.099960
 21
-75.630928
  0
LINE
  8
0
  6
PHANTOM
 10
45.799957
 20
-70.199989
 11
46.816299
 21
-70.199989
  0
LINE
  8
0
  6
PHANTOM
 10
42.499962
 20
-57.850235
 11
42.499962
 21
-61.499992
  0
LINE
  8
0
  6
PHANTOM
 10
45.299957
 20
-61.499992
 11
45.799957
 21
-61.499992
  0
LINE
  8
0
  6
PHANTOM
 10
42.499969
 20
-46.499985
 11
48.851166
 21
-50.166851
  0
LINE
  8
0
  6
PHANTOM
 10
45.799957
 20
-61.499992
 11
45.799957
 21
-61.999992
  0
LINE
  8
0
  6
PHANTOM
 10
49.030216
 20
-77.030594
 11
47.299263
 21
-70.570580
  0
LINE
  8
0
  6
PHANTOM
 10
44.780140
 20
-78.169395
 11
44.099960
 21
-75.630928
  0
LINE
  8
0
  6
CENTER
 10
70.499962
 20
-35.999992
 11
70.499962
 21
-99.999992
  0
LINE
  8
0
  6
CENTER
 10
32.299957
 20
-64.999992
 11
103.499962
 21
-64.999992
  0
LINE
  8
0
  6
PHANTOM
 10
45.799957
 20
-62.999992
 11
45.799957
 21
-66.999992
  0
LINE
  8
0
  6
PHANTOM
 10
45.799957
 20
-67.999992
 11
45.799957
 21
-70.199989
  0
LINE
  8
0
  6
PHANTOM
 10
-55.500061
 20
-70.000038
 11
-30.696533
 21
-70.000038
  0
LINE
  8
0
  6
PHANTOM
 10
-55.500061
 20
-74.000038
 11
-29.586945
 21
-74.000038
  0
LINE
  8
0
  6
PHANTOM
 10
42.499962
 20
-78.199989
 11
42.499962
 21
-85.199997
  0
LINE
  8
0
 10
-49.500061
 20
-61.499992
 11
-49.500061
 21
-68.499992
  0
LINE
  8
0
 10
-55.500061
 20
-68.499992
 11
-49.500061
 21
-68.499992
  0
LINE
  8
0
 10
-83.500061
 20
-66.700035
 11
-73.500061
 21
-66.700035
  0
LINE
  8
0
 10
-73.500061
 20
-62.500038
 11
-73.500061
 21
-67.500038
  0
LINE
  8
0
 10
-70.500061
 20
-63.499989
 11
-55.500061
 21
-63.499989
  0
LINE
  8
0
 10
-70.500061
 20
-79.699989
 11
-55.500061
 21
-79.699989
  0
LINE
  8
0
 10
-70.500061
 20
-63.499989
 11
-70.500061
 21
-79.699989
  0
LINE
  8
0
 10
-73.500061
 20
-67.500038
 11
-71.500061
 21
-67.500038
  0
LINE
  8
0
 10
-63.750065
 20
-77.633011
 11
-63.000069
 21
-78.066025
  0
LINE
  8
0
 10
-63.000061
 20
-78.066017
 11
-62.250072
 21
-77.633011
  0
LINE
  8
0
 10
-62.250053
 20
-77.633003
 11
-62.250053
 21
-76.766983
  0
LINE
  8
0
 10
-62.250061
 20
-76.766975
 11
-63.000057
 21
-76.333961
  0
LINE
  8
0
 10
-63.000053
 20
-76.333969
 11
-63.750053
 21
-76.766983
  0
LINE
  8
0
 10
-63.750046
 20
-76.766975
 11
-63.750046
 21
-77.632996
  0
LINE
  8
0
 10
-71.500061
 20
-68.499992
 11
-70.500061
 21
-68.499992
  0
LINE
  8
0
 10
-83.500061
 20
-63.300037
 11
-73.500061
 21
-63.300037
  0
LINE
  8
0
 10
-73.500061
 20
-62.500038
 11
-71.500061
 21
-62.500038
  0
LINE
  8
0
 10
-55.500061
 20
-61.499992
 11
-55.500061
 21
-79.699989
  0
LINE
  8
0
 10
-71.500061
 20
-61.499992
 11
-49.500061
 21
-61.499992
  0
LINE
  8
0
 10
-65.500061
 20
-61.499992
 11
-65.500061
 21
-63.499989
  0
LINE
  8
0
 10
-71.500061
 20
-61.499992
 11
-71.500061
 21
-68.499992
  0
LINE
  8
0
  6
CENTER
 10
-52.500061
 20
-62.000038
 11
-52.500061
 21
-68.000038
  0
LINE
  8
0
  6
CENTER
 10
-63.000061
 20
-74.699989
 11
-63.000061
 21
-79.699989
  0
LINE
  8
0
  6
CENTER
 10
-66.000061
 20
-77.199989
 11
-60.000061
 21
-77.199989
  0
LINE
  8
0
 10
-55.500076
 20
5.810755
 11
-55.500076
 21
-1.489244
  0
LINE
  8
0
 10
-49.500076
 20
5.810755
 11
-49.500076
 21
-1.489244
  0
LINE
  8
0
 10
-71.500076
 20
5.510756
 11
-71.500076
 21
-1.489244
  0
LINE
  8
0
 10
-73.500076
 20
4.660711
 11
-73.500076
 21
-0.339291
  0
LINE
  8
0
 10
-71.500076
 20
-1.489244
 11
-49.500076
 21
-1.489244
  0
LINE
  8
0
 10
-65.500076
 20
5.510756
 11
-65.500076
 21
-1.489244
  0
LINE
  8
0
  6
CENTER
 10
-52.500076
 20
1.510756
 11
-52.500076
 21
-5.689245
  0
LINE
  8
0
 10
-73.500076
 20
4.660711
 11
-71.500076
 21
4.660711
  0
LINE
  8
0
 10
-73.500076
 20
-0.339291
 11
-71.500076
 21
-0.339291
  0
LINE
  8
0
 10
-83.500076
 20
3.860712
 11
-73.500076
 21
3.860712
  0
LINE
  8
0
 10
-83.500076
 20
0.460712
 11
-73.500076
 21
0.460712
  0
LINE
  8
0
 10
-70.500076
 20
-4.489248
 11
-55.500076
 21
-4.489248
  0
LINE
  8
0
 10
-71.500076
 20
5.810755
 11
-49.500076
 21
5.810755
  0
LINE
  8
0
 10
-70.500076
 20
-1.489244
 11
-70.500076
 21
-4.489248
  0
LINE
  8
0
 10
-55.500076
 20
-1.489244
 11
-55.500076
 21
-4.489248
  0
LINE
  8
0
 10
42.499950
 20
-76.199989
 11
41.999950
 21
-75.699989
  0
LINE
  8
0
 10
42.499958
 20
-78.200012
 11
41.999958
 21
-78.700012
  0
LINE
  8
0
 10
41.999947
 20
-75.699989
 11
41.999947
 21
-78.699989
  0
LINE
  8
0
 10
37.364822
 20
-79.699989
 11
39.999947
 21
-79.699989
  0
LINE
  8
0
 10
37.499947
 20
-63.499989
 11
37.867271
 21
-63.499989
  0
LINE
  8
0
 10
38.499947
 20
-68.499992
 11
45.299942
 21
-68.499992
  0
LINE
  8
0
 10
38.499947
 20
-61.499992
 11
45.299942
 21
-61.499992
  0
LINE
  8
0
 10
38.499947
 20
-61.499992
 11
38.499947
 21
-68.499992
  0
LINE
  8
0
 10
45.299942
 20
-68.499977
 11
45.799938
 21
-67.999985
  0
LINE
  8
0
 10
45.299942
 20
-61.499981
 11
45.799946
 21
-61.999981
  0
LINE
  8
0
 10
45.799942
 20
-61.999992
 11
45.799942
 21
-62.999992
  0
LINE
  8
0
 10
45.799942
 20
-66.999992
 11
45.799942
 21
-67.999992
  0
LINE
  8
0
 10
42.499947
 20
-76.199989
 11
42.499947
 21
-78.199989
  0
LINE
  8
0
 10
38.199944
 20
-66.808304
 11
38.199944
 21
-68.799995
  0
LINE
  8
0
 10
38.199944
 20
-68.799995
 11
40.499947
 21
-68.799995
  0
LINE
  8
0
 10
40.499973
 20
-68.800018
 11
40.799980
 21
-68.500015
  0
LINE
  8
0
 10
40.999947
 20
-75.404129
 11
40.999947
 21
-78.699989
  0
LINE
  8
0
 10
42.799950
 20
-68.499992
 11
42.799950
 21
-69.104546
  0
LINE
  8
0
 10
40.999954
 20
-75.404137
 11
42.899948
 21
-74.307175
  0
LINE
  8
0
 10
40.999947
 20
-78.699989
 11
41.999947
 21
-78.699989
  0
LINE
  8
0
 10
40.999947
 20
-75.699989
 11
41.999947
 21
-75.699989
  0
LINE
  8
0
 10
40.999947
 20
-78.429489
 11
42.270447
 21
-78.429489
  0
LINE
  8
0
 10
40.999947
 20
-75.970490
 11
42.270447
 21
-75.970490
  0
LINE
  8
0
  6
CENTER
 10
33.874786
 20
-77.199989
 11
45.499947
 21
-77.199989
  0
ARC
  8
0
 62
     5
 10
136.517700
 20
-117.522827
 40
1.105942
 50
0.000000
 51
90.000000
  0
ARC
  8
0
 62
     5
 10
145.641785
 20
-123.467316
 40
1.105949
 50
270.000000
 51
0.000000
  0
ARC
  8
0
 62
     5
 10
145.088776
 20
-118.075790
 40
1.658920
 50
0.000000
 51
90.000000
  0
ARC
  8
0
 62
     5
 10
155.180557
 20
-117.522827
 40
1.105942
 50
0.000000
 51
90.000000
  0
ARC
  8
0
 62
     5
 10
155.180557
 20
-118.406387
 40
1.105945
 50
294.999969
 51
0.000000
  0
ARC
  8
0
 62
     5
 10
163.751663
 20
-116.416870
 40
1.658920
 50
291.688385
 51
0.000000
  0
ARC
  8
0
 62
     5
 10
163.198654
 20
-116.041687
 40
0.552973
 50
291.688965
 51
0.000000
  0
ARC
  8
0
  6
PHANTOM
 10
-5.504608
 20
-53.000061
 40
29.999998
 50
156.421875
 51
203.578094
  0
ARC
  8
0
  6
PHANTOM
 10
-58.980804
 20
-80.000061
 40
29.999998
 50
329.999939
 51
30.000051
  0
ARC
  8
0
  6
PHANTOM
 10
-118.980804
 20
-80.000061
 40
30.000002
 50
329.999939
 51
30.000048
  0
ARC
  8
0
  6
PHANTOM
 10
-65.504608
 20
-53.000061
 40
30.000002
 50
156.421875
 51
203.578094
  0
ARC
  8
0
  6
PHANTOM
 10
-59.533051
 20
16.510746
 40
30.000000
 50
332.181854
 51
27.818148
  0
ARC
  8
0
  6
PHANTOM
 10
-119.533051
 20
16.510746
 40
30.000000
 50
332.181854
 51
27.818148
  0
ARC
  8
0
  6
PHANTOM
 10
60.118767
 20
-94.999992
 40
4.000000
 50
90.000000
 51
150.000015
  0
ARC
  8
0
  6
PHANTOM
 10
43.299961
 20
-85.199997
 40
0.799999
 50
180.000000
 51
0.000000
  0
ARC
  8
0
  6
PHANTOM
 10
44.949966
 20
-85.199997
 40
0.849998
 50
0.000000
 51
180.000000
  0
ARC
  8
0
  6
PHANTOM
 10
45.499962
 20
-88.699997
 40
0.300003
 50
270.000000
 51
0.000000
  0
ARC
  8
0
  6
PHANTOM
 10
44.499962
 20
-42.999992
 40
2.000000
 50
90.000000
 51
180.000000
  0
ARC
  8
0
  6
PHANTOM
 10
41.617966
 20
-49.021355
 40
8.027238
 50
282.033264
 51
343.366608
  0
ARC
  8
0
  6
PHANTOM
 10
46.905174
 20
-77.599991
 40
2.200002
 50
195.000061
 51
15.000059
  0
ARC
  8
0
  6
PHANTOM
 10
46.816299
 20
-70.699989
 40
0.500001
 50
15.000010
 51
90.000000
  0
ARC
  8
0
  6
PHANTOM
 10
43.499962
 20
-57.850235
 40
1.000001
 50
102.033333
 51
180.000000
  0
ARC
  8
0
  6
PHANTOM
 10
48.351158
 20
-51.032883
 40
1.000001
 50
343.366608
 51
59.999962
  0
ARC
  8
0
  6
PHANTOM
 10
43.299961
 20
-74.999985
 40
0.799997
 50
119.999954
 51
180.000000
  0
ARC
  8
0
 10
-81.689674
 20
-64.150040
 40
2.000001
 50
154.849274
 51
205.150620
  0
ARC
  8
0
 10
-85.310448
 20
-65.850037
 40
1.999999
 50
334.849365
 51
25.150625
  0
CIRCLE
  8
0
 10
-52.500061
 20
-65.000038
 40
2.000000
  0
CIRCLE
  8
0
 10
-63.000061
 20
-77.199989
 40
1.500000
  0
ARC
  8
0
 10
-81.689690
 20
3.010710
 40
2.000000
 50
154.849304
 51
205.150604
  0
ARC
  8
0
 10
-85.310463
 20
1.310711
 40
1.999999
 50
334.849365
 51
25.150631
  0
ARC
  8
0
 10
-52.500076
 20
-0.422579
 40
2.266666
 50
208.072449
 51
331.927551
  0
ARC
  8
0
 10
43.299950
 20
-74.999985
 40
0.799999
 50
0.000000
 51
119.999954
  0
ARC
  8
0
 10
49.549942
 20
-64.999992
 40
4.250000
 50
151.927505
 51
208.072495
  0
ARC
  8
0
 10
39.566612
 20
-64.999992
 40
2.266666
 50
118.072464
 51
241.927536
  0
ARC
  8
0
 10
37.499947
 20
-65.499985
 40
2.000000
 50
90.000000
 51
180.000000
  0
ARC
  8
0
 10
39.999947
 20
-78.699989
 40
1.000000
 50
270.000000
 51
0.000000
  0
ARC
  8
0
 10
44.099945
 20
-70.199989
 40
1.699998
 50
139.880859
 51
250.146103
  0
ARC
  8
0
 10
44.899948
 20
-74.999985
 40
0.799999
 50
180.000000
 51
357.772247
  0
ARC
  8
0
 10
42.401840
 20
-74.902802
 40
3.299999
 50
357.772186
 51
70.146217
  0
ARC
  8
0
 10
125.496330
 20
-66.296921
 40
90.000000
 50
179.481125
 51
188.010788
  0
ARC
  8
0
 10
37.364822
 20
-78.699989
 40
1.000000
 50
188.010727
 51
270.000000
  0
TEXT
  8
0
 10
113.360985
 20
117.310349
 40
4.242641
  1
DATE : JUN ,1991
 50
0.000000
 41
1.052631
 51
0.000000
  7
STANDARD
  0
TEXT
  8
0
 10
-182.764969
 20
116.628723
 40
5.000000
  1
ORGA SENSOR SW
 50
0.000000
 41
1.052632
 51
0.000000
  7
STANDARD
  0
TEXT
  8
0
 10
11.598932
 20
68.478195
 40
5.000000
  1
     CS5M
 50
0.000000
 41
1.052632
 51
0.000000
  7
STANDARD
  0
TEXT
  8
0
 10
11.598932
 20
104.478195
 40
5.000000
  1
SW : ZG530
 50
0.000000
 41
1.052632
 51
0.000000
  7
STANDARD
  0
TEXT
  8
0
 10
11.598932
 20
95.478195
 40
5.000000
  1
     ZG553
 50
0.000000
 41
1.052632
 51
0.000000
  7
STANDARD
  0
TEXT
  8
0
 10
-78.401070
 20
104.478195
 40
5.000000
  1
MODEL : CS3M
 50
0.000000
 41
1.052632
 51
0.000000
  7
STANDARD
  0
TEXT
  8
0
 10
-78.401070
 20
95.478195
 40
5.000000
  1
        CS4M
 50
0.000000
 41
1.052632
 51
0.000000
  7
STANDARD
  0
TEXT
  8
0
 10
-78.401070
 20
86.478195
 40
5.000000
  1
        CS5M
 50
0.000000
 41
1.052632
 51
0.000000
  7
STANDARD
  0
TEXT
  8
0
 10
11.598932
 20
86.478195
 40
5.000000
  1
     CS3M
 50
0.000000
 41
1.052632
 51
0.000000
  7
STANDARD
  0
TEXT
  8
0
 10
11.598932
 20
77.478195
 40
5.000000
  1
     CS4M
 50
0.000000
 41
1.052632
 51
0.000000
  7
STANDARD
  0
ENDSEC
  0
EOF
