  0
SECTION
  2
HEADER
  0
ENDSEC
  0
SECTION
  2
TABLES
  0
TABLE
  2
LTYPE
 70
     4
  0
LTYPE
  2
CONTINUOUS
 70
    64
  3
Solid line
 72
    65
 73
     0
 40
0.000000
  0
LTYPE
  2
DASHED
 70
    64
  3
__ __ __ __ __ __ __ __ __ __ __ __ __ __ __
 72
    65
 73
     2
 40
3.500000
 49
2.000000
 49
-1.500000
  0
LTYPE
  2
CENTER
 70
    64
  3
____ _ ____ _ ____ _ ____ _ ____ _ ____ _ ____
 72
    65
 73
     4
 40
17.500000
 49
13.000000
 49
-1.500000
 49
1.500000
 49
-1.500000
  0
LTYPE
  2
PHANTOM
 70
    64
  3
_____ _ _ _____ _ _ _____ _ _ _____ _ _ ____  
 72
    65
 73
     6
 40
15.500000
 49
8.000000
 49
-1.500000
 49
1.500000
 49
-1.500000
 49
1.500000
 49
-1.500000
  0
LTYPE
  2
DASHED1
 70
    64
  3
__ __ __ __ __ __ __ __ __ __ __ __ __ __ __
 72
    65
 73
     2
 40
1.500000
 49
1.000000
 49
-0.500000
  0
LTYPE
  2
DASHED2
 70
    64
  3
__ __ __ __ __ __ __ __ __ __ __ __ __ __ __
 72
    65
 73
     2
 40
3.500000
 49
2.500000
 49
-1.000000
  0
LTYPE
  2
DASHED3
 70
    64
  3
__ __ __ __ __ __ __ __ __ __ __ __ __ __ __
 72
    65
 73
     2
 40
6.000000
 49
4.000000
 49
-2.000000
  0
LTYPE
  2
DASHED4
 70
    64
  3
__ __ __ __ __ __ __ __ __ __ __ __ __ __ __
 72
    65
 73
     2
 40
12.000000
 49
10.000000
 49
-2.000000
  0
LTYPE
  2
DASHED5
 70
    64
  3
__ __ __ __ __ __ __ __ __ __ __ __ __ __ __
 72
    65
 73
     2
 40
17.000000
 49
15.000000
 49
-2.000000
  0
LTYPE
  2
DASHED6
 70
    64
  3
__ __ __ __ __ __ __ __ __ __ __ __ __ __ __
 72
    65
 73
     2
 40
29.000000
 49
27.000000
 49
-2.000000
  0
LTYPE
  2
PHANTOM1
 70
    64
  3
_____ _ _ _____ _ _ _____ _ _ _____ _ _ ____  
 72
    65
 73
     6
 40
31.000000
 49
25.000000
 49
-1.500000
 49
1.000000
 49
-1.000000
 49
1.000000
 49
-1.500000
  0
LTYPE
  2
PHANTOM2
 70
    64
  3
_____ _ _ _____ _ _ _____ _ _ _____ _ _ ____  
 72
    65
 73
     6
 40
36.000000
 49
27.000000
 49
-1.500000
 49
2.500000
 49
-1.000000
 49
2.500000
 49
-1.500000
  0
LTYPE
  2
PHANTOM3
 70
    64
  3
_____ _ _ _____ _ _ _____ _ _ _____ _ _ ____  
 72
    65
 73
     6
 40
78.000000
 49
64.000000
 49
-2.000000
 49
4.000000
 49
-2.000000
 49
4.000000
 49
-2.000000
  0
LTYPE
  2
CENTER1
 70
    64
  3
____ _ ____ _ ____ _ ____ _ ____ _ ____ _ ____
 72
    65
 73
     4
 40
19.000000
 49
14.000000
 49
-1.000000
 49
3.000000
 49
-1.000000
  0
LTYPE
  2
CENTER2
 70
    64
  3
____ _ ____ _ ____ _ ____ _ ____ _ ____ _ ____
 72
    65
 73
     4
 40
28.500000
 49
25.000000
 49
-1.000000
 49
1.500000
 49
-1.000000
  0
LTYPE
  2
CENTER3
 70
    64
  3
____ _ ____ _ ____ _ ____ _ ____ _ ____ _ ____
 72
    65
 73
     4
 40
31.500000
 49
27.000000
 49
-1.000000
 49
2.500000
 49
-1.000000
  0
LTYPE
  2
CENTER4
 70
    64
  3
____ _ ____ _ ____ _ ____ _ ____ _ ____ _ ____
 72
    65
 73
     4
 40
50.000000
 49
45.000000
 49
-1.000000
 49
3.000000
 49
-1.000000
  0
LTYPE
  2
CENTER5
 70
    64
  3
____ _ ____ _ ____ _ ____ _ ____ _ ____ _ ____
 72
    65
 73
     4
 40
100.000000
 49
92.000000
 49
-2.000000
 49
4.000000
 49
-2.000000
  0
LTYPE
  2
SBK1
 70
    64
  3
______ _ _ _ ______ _ _ _ ______ _ _ _ _____  
 72
    65
 73
     8
 40
60.500000
 49
45.000000
 49
-2.000000
 49
2.500000
 49
-2.000000
 49
2.500000
 49
-2.000000
 49
2.500000
 49
-2.000000
  0
LTYPE
  2
SBK2
 70
    64
  3
______ _ _ _ ______ _ _ _ ______ _ _ _ _____  
 72
    65
 73
     8
 40
84.000000
 49
64.000000
 49
-2.000000
 49
4.000000
 49
-2.000000
 49
4.000000
 49
-2.000000
 49
4.000000
 49
-2.000000
  0
LTYPE
  2
STCH
 70
    64
  3
__ __ __ __ __ __ __ __ __ __ __ __ __ __ __
 72
    65
 73
     2
 40
3.000000
 49
1.000000
 49
-2.000000
  0
LTYPE
  2
MTCH
 70
    64
  3
_____ _ _ _____ _ _ _____ _ _ _____ _ _ ____  
 72
    65
 73
     6
 40
80.000000
 49
66.000000
 49
-2.000000
 49
4.000000
 49
-2.000000
 49
4.000000
 49
-2.000000
  0
ENDTAB
  0
TABLE
  2
LAYER
 70
     1
  0
LAYER
  2
0
 70
     0
 62
     7
  6
CONTINUOUS
  0
ENDTAB
  0
TABLE
  2
STYLE
 70
     1
  0
STYLE
  2
STANDARD
 70
     0
 40
0.000000
 41
1.000000
 50
0.000000
 71
     0
 42
0.200000
  3
txt
  4
BIGFONT
  0
ENDTAB
  0
TABLE
  2
VIEW
 70
     0
  0
ENDTAB
  0
ENDSEC
  0
SECTION
  2
BLOCKS
  0
ENDSEC
  0
SECTION
  2
ENTITIES
  0
POINT
  8
0
 10
-157.247177
 20
39.999992
  0
POINT
  8
0
 10
-157.247238
 20
119.999947
  0
POINT
  8
0
 10
-67.247276
 20
39.999924
  0
POINT
  8
0
 10
-143.247177
 20
39.999992
  0
POINT
  8
0
 10
-143.247223
 20
119.999947
  0
POINT
  8
0
 10
-53.747276
 20
39.999924
  0
POINT
  8
0
 10
103.999916
 20
39.999924
  0
POINT
  8
0
 10
103.999870
 20
124.999886
  0
POINT
  8
0
 10
198.999954
 20
39.999939
  0
POINT
  8
0
 10
121.999916
 20
39.999924
  0
POINT
  8
0
 10
121.999901
 20
124.999886
  0
POINT
  8
0
 10
215.999954
 20
39.999939
  0
POINT
  8
0
 10
-44.247169
 20
-50.000053
  0
POINT
  8
0
 10
-44.247200
 20
-135.000000
  0
POINT
  8
0
 10
70.752747
 20
-135.000061
  0
POINT
  8
0
 10
-22.247200
 20
-135.000000
  0
POINT
  8
0
 10
-22.247231
 20
-50.000053
  0
POINT
  8
0
 10
90.752747
 20
-135.000061
  0
LINE
  8
0
 62
     3
 10
-262.247223
 20
-180.000046
 11
-262.247223
 21
180.000046
  0
LINE
  8
0
 62
     3
 10
262.247223
 20
180.000046
 11
262.247223
 21
-180.000046
  0
LINE
  8
0
 62
     3
 10
-262.247223
 20
-180.000046
 11
262.247223
 21
-180.000046
  0
LINE
  8
0
 62
     3
 10
-262.247223
 20
180.000046
 11
262.247223
 21
180.000046
  0
LINE
  8
0
 62
     3
 10
-262.247223
 20
159.775299
 11
-154.382050
 21
159.775299
  0
LINE
  8
0
 62
     3
 10
-154.382050
 20
159.775299
 11
-154.382050
 21
180.000046
  0
LINE
  8
0
 62
     3
 10
154.382034
 20
-159.775345
 11
262.247223
 21
-159.775345
  0
LINE
  8
0
 62
     5
 10
182.703415
 20
-164.638336
 11
193.065201
 21
-164.638336
  0
LINE
  8
0
 62
     5
 10
182.703415
 20
-173.827118
 11
191.501175
 21
-173.827118
  0
LINE
  8
0
 62
     5
 10
182.703415
 20
-176.173172
 11
194.629272
 21
-176.173172
  0
LINE
  8
0
 62
     5
 10
182.703415
 20
-166.984390
 11
191.501175
 21
-166.984390
  0
LINE
  8
0
 62
     5
 10
182.703415
 20
-164.638336
 11
182.703415
 21
-166.984390
  0
LINE
  8
0
 62
     5
 10
194.629272
 20
-166.202393
 11
194.629272
 21
-176.173172
  0
LINE
  8
0
 62
     5
 10
191.501175
 20
-166.984390
 11
191.501175
 21
-173.827118
  0
LINE
  8
0
 62
     5
 10
196.388779
 20
-164.638336
 11
196.388779
 21
-166.984390
  0
LINE
  8
0
 62
     5
 10
207.532593
 20
-166.984390
 11
207.532593
 21
-174.609177
  0
LINE
  8
0
 62
     5
 10
204.404526
 20
-166.984390
 11
204.404526
 21
-173.827118
  0
LINE
  8
0
 62
     5
 10
182.703415
 20
-173.827118
 11
182.703415
 21
-176.173172
  0
LINE
  8
0
 62
     5
 10
196.388779
 20
-164.638336
 11
199.479568
 21
-164.638336
  0
LINE
  8
0
 62
     5
 10
196.388779
 20
-176.173172
 11
198.817642
 21
-176.173172
  0
LINE
  8
0
 62
     5
 10
196.388718
 20
-176.173080
 11
198.850922
 21
-166.984344
  0
LINE
  8
0
 62
     5
 10
196.388779
 20
-166.984390
 11
198.850937
 21
-166.984390
  0
LINE
  8
0
 62
     5
 10
198.817780
 20
-176.173279
 11
201.279861
 21
-166.984528
  0
LINE
  8
0
 62
     5
 10
202.058426
 20
-173.827118
 11
204.404526
 21
-173.827118
  0
LINE
  8
0
 62
     5
 10
202.058365
 20
-173.827072
 11
202.686935
 21
-176.173096
  0
LINE
  8
0
 62
     5
 10
202.687119
 20
-176.173172
 11
205.968597
 21
-176.173172
  0
LINE
  8
0
 62
     5
 10
201.279770
 20
-166.984390
 11
204.404526
 21
-166.984390
  0
LINE
  8
0
 62
     5
 10
201.908386
 20
-164.638336
 11
205.186523
 21
-164.638336
  0
LINE
  8
0
 62
     5
 10
199.479599
 20
-164.638351
 11
199.945786
 21
-162.898392
  0
LINE
  8
0
 62
     5
 10
201.908234
 20
-164.638229
 11
202.374420
 21
-162.898209
  0
LINE
  8
0
 62
     5
 10
209.487671
 20
-164.638336
 11
213.202286
 21
-164.638336
  0
LINE
  8
0
 62
     5
 10
209.487671
 20
-166.984390
 11
218.610596
 21
-166.984390
  0
LINE
  8
0
 62
     5
 10
213.202286
 20
-176.173172
 11
216.330322
 21
-176.173172
  0
LINE
  8
0
 62
     5
 10
209.487671
 20
-164.638336
 11
209.487671
 21
-166.984390
  0
LINE
  8
0
 62
     5
 10
221.022522
 20
-171.238510
 11
221.022522
 21
-173.827118
  0
LINE
  8
0
 62
     5
 10
209.487518
 20
-173.827026
 11
213.202194
 21
-172.094818
  0
LINE
  8
0
 62
     5
 10
209.487885
 20
-171.238678
 11
218.610779
 21
-166.984558
  0
LINE
  8
0
 62
     5
 10
209.487671
 20
-171.238510
 11
209.487671
 21
-173.827118
  0
LINE
  8
0
 62
     5
 10
216.330246
 20
-171.639053
 11
221.022491
 21
-173.827042
  0
LINE
  8
0
 62
     5
 10
218.031052
 20
-169.843643
 11
221.022827
 21
-171.238724
  0
LINE
  8
0
 62
     5
 10
221.022522
 20
-166.202393
 11
221.022522
 21
-167.451935
  0
LINE
  8
0
 62
     5
 10
213.202286
 20
-162.898361
 11
213.202286
 21
-164.638336
  0
LINE
  8
0
 62
     5
 10
216.330322
 20
-162.898361
 11
216.330322
 21
-164.638336
  0
LINE
  8
0
 62
     5
 10
216.330322
 20
-164.638336
 11
219.458466
 21
-164.638336
  0
LINE
  8
0
 62
     5
 10
213.202286
 20
-172.094986
 11
213.202286
 21
-176.173172
  0
LINE
  8
0
 62
     5
 10
216.330322
 20
-171.639160
 11
216.330322
 21
-176.173172
  0
LINE
  8
0
 62
     5
 10
218.030975
 20
-169.843597
 11
220.119705
 21
-168.869614
  0
LINE
  8
0
 62
     5
 10
231.579834
 20
-163.602188
 11
233.925842
 21
-163.602188
  0
LINE
  8
0
 62
     5
 10
222.000061
 20
-168.448334
 11
222.000061
 21
-170.973129
  0
LINE
  8
0
 62
     5
 10
233.925842
 20
-163.602188
 11
233.925842
 21
-164.638336
  0
LINE
  8
0
 62
     5
 10
231.579834
 20
-163.602188
 11
231.579834
 21
-164.107742
  0
LINE
  8
0
 62
     5
 10
228.451721
 20
-168.407227
 11
228.451721
 21
-176.173172
  0
LINE
  8
0
 62
     5
 10
222.000137
 20
-168.448441
 11
231.086914
 21
-164.834534
  0
LINE
  8
0
 62
     5
 10
222.000092
 20
-170.973236
 11
228.451752
 21
-168.407303
  0
LINE
  8
0
 62
     5
 10
228.451721
 20
-176.173172
 11
231.579834
 21
-176.173172
  0
LINE
  8
0
 62
     5
 10
231.579834
 20
-167.163162
 11
231.579834
 21
-176.173172
  0
LINE
  8
0
 62
     5
 10
231.580063
 20
-167.163315
 11
232.447128
 21
-166.818451
  0
LINE
  8
0
 62
     5
 10
199.945801
 20
-162.898361
 11
202.374603
 21
-162.898361
  0
LINE
  8
0
 62
     5
 10
206.261841
 20
-162.898361
 11
207.258865
 21
-162.898361
  0
LINE
  8
0
 62
     5
 10
213.202286
 20
-162.898361
 11
216.330322
 21
-162.898361
  0
LINE
  8
0
 62
     5
 10
206.261841
 20
-164.462418
 11
207.258865
 21
-164.462418
  0
LINE
  8
0
 62
     5
 10
206.261841
 20
-162.898361
 11
206.261841
 21
-164.462418
  0
LINE
  8
0
 62
     5
 10
207.258865
 20
-162.898361
 11
207.258865
 21
-164.462418
  0
LINE
  8
0
 62
     5
 10
207.845444
 20
-162.898361
 11
207.845444
 21
-164.462418
  0
LINE
  8
0
 62
     5
 10
208.959839
 20
-162.898361
 11
208.959839
 21
-164.462418
  0
LINE
  8
0
 62
     5
 10
207.845444
 20
-162.898361
 11
208.959839
 21
-162.898361
  0
LINE
  8
0
 62
     5
 10
207.845444
 20
-164.462418
 11
208.959839
 21
-164.462418
  0
LINE
  8
0
 62
     3
 10
154.382034
 20
159.775299
 11
262.247223
 21
159.775299
  0
LINE
  8
0
 62
     3
 10
154.382034
 20
180.000046
 11
154.382034
 21
159.775299
  0
LINE
  8
0
 62
     3
 10
154.382034
 20
-159.775345
 11
154.382034
 21
-180.000046
  0
LINE
  8
0
 10
-262.247223
 20
-0.000023
 11
262.247223
 21
-0.000023
  0
LINE
  8
0
 10
0.000000
 20
180.000046
 11
0.000000
 21
-0.000023
  0
LINE
  8
0
  6
PHANTOM
 10
-212.247223
 20
24.999977
 11
-172.247223
 21
24.999977
  0
LINE
  8
0
  6
CENTER
 10
-217.247223
 20
39.999977
 11
-152.247223
 21
39.999977
  0
LINE
  8
0
  6
PHANTOM
 10
-157.247223
 20
26.499977
 11
-157.247223
 21
28.599937
  0
LINE
  8
0
  6
PHANTOM
 10
-172.247223
 20
53.499977
 11
-157.247223
 21
53.499977
  0
LINE
  8
0
  6
PHANTOM
 10
-172.247223
 20
26.499977
 11
-157.247223
 21
26.499977
  0
LINE
  8
0
  6
PHANTOM
 10
-172.247223
 20
25.000008
 11
-172.247223
 21
53.500008
  0
LINE
  8
0
  6
PHANTOM
 10
-212.247223
 20
51.999977
 11
-172.247223
 21
51.999977
  0
LINE
  8
0
  6
PHANTOM
 10
-213.085434
 20
42.499939
 11
-172.247223
 21
42.499939
  0
LINE
  8
0
  6
PHANTOM
 10
-210.345993
 20
34.299934
 11
-172.247223
 21
34.299934
  0
LINE
  8
0
  6
PHANTOM
 10
-210.358429
 20
30.599937
 11
-172.247223
 21
30.599937
  0
LINE
  8
0
  6
PHANTOM
 10
-210.731262
 20
28.683418
 11
-172.247223
 21
28.683418
  0
LINE
  8
0
  6
PHANTOM
 10
-210.960358
 20
27.899940
 11
-172.247223
 21
27.899940
  0
LINE
  8
0
  6
PHANTOM
 10
-212.956345
 20
49.999939
 11
-172.247223
 21
49.999939
  0
LINE
  8
0
  6
PHANTOM
 10
-213.365555
 20
43.999939
 11
-172.247223
 21
43.999939
  0
LINE
  8
0
  6
CENTER
 10
-217.247223
 20
119.999947
 11
-138.247223
 21
119.999947
  0
LINE
  8
0
  6
PHANTOM
 10
-157.247238
 20
106.499939
 11
-157.247238
 21
106.999939
  0
LINE
  8
0
  6
PHANTOM
 10
-172.247238
 20
106.499939
 11
-172.247238
 21
133.499939
  0
LINE
  8
0
  6
PHANTOM
 10
-172.247238
 20
133.499939
 11
-157.247238
 21
133.499939
  0
LINE
  8
0
  6
PHANTOM
 10
-172.247238
 20
106.499939
 11
-157.247238
 21
106.499939
  0
LINE
  8
0
  6
PHANTOM
 10
-213.443054
 20
124.699944
 11
-172.247238
 21
124.699944
  0
LINE
  8
0
  6
PHANTOM
 10
-211.051392
 20
115.299942
 11
-172.247238
 21
115.299942
  0
LINE
  8
0
  6
PHANTOM
 10
-212.247223
 20
131.999939
 11
-172.247238
 21
131.999939
  0
LINE
  8
0
  6
PHANTOM
 10
-212.247223
 20
107.999939
 11
-172.247238
 21
107.999939
  0
LINE
  8
0
  6
CENTER
 10
-67.247314
 20
19.999939
 11
-67.247314
 21
58.499939
  0
LINE
  8
0
  6
CENTER
 10
-85.747314
 20
39.999939
 11
-48.747314
 21
39.999939
  0
LINE
  8
0
  6
PHANTOM
 10
-53.747314
 20
30.999924
 11
-53.747314
 21
48.999924
  0
LINE
  8
0
  6
PHANTOM
 10
-80.747314
 20
30.999954
 11
-80.747314
 21
48.999954
  0
LINE
  8
0
  6
PHANTOM
 10
-76.247299
 20
53.499939
 11
-58.247299
 21
53.499939
  0
LINE
  8
0
  6
PHANTOM
 10
-82.747314
 20
24.999939
 11
-80.247314
 21
24.999939
  0
LINE
  8
0
  6
PHANTOM
 10
-82.747314
 20
43.999954
 11
-82.747314
 21
42.499954
  0
LINE
  8
0
  6
PHANTOM
 10
-82.747314
 20
42.499939
 11
-80.747314
 21
42.499939
  0
LINE
  8
0
  6
PHANTOM
 10
-82.747314
 20
33.899956
 11
-82.747314
 21
30.599953
  0
LINE
  8
0
  6
PHANTOM
 10
-81.447327
 20
33.099937
 11
-80.747330
 21
33.099937
  0
LINE
  8
0
  6
PHANTOM
 10
-81.947311
 20
33.899956
 11
-81.947311
 21
33.599953
  0
LINE
  8
0
  6
PHANTOM
 10
-82.747330
 20
30.599937
 11
-81.147324
 21
30.599937
  0
LINE
  8
0
  6
PHANTOM
 10
-80.747314
 20
28.683434
 11
-80.747314
 21
27.547302
  0
LINE
  8
0
  6
PHANTOM
 10
-82.747314
 20
27.899956
 11
-82.747314
 21
24.999954
  0
LINE
  8
0
  6
PHANTOM
 10
-82.747360
 20
27.899878
 11
-80.747360
 21
27.547224
  0
LINE
  8
0
  6
PHANTOM
 10
-51.747314
 20
43.999924
 11
-51.747314
 21
42.499924
  0
LINE
  8
0
  6
PHANTOM
 10
-51.747314
 20
42.499939
 11
-53.747314
 21
42.499939
  0
LINE
  8
0
  6
PHANTOM
 10
-51.747314
 20
33.899925
 11
-51.747314
 21
30.599922
  0
LINE
  8
0
  6
PHANTOM
 10
-53.047333
 20
33.099937
 11
-53.747330
 21
33.099937
  0
LINE
  8
0
  6
PHANTOM
 10
-52.547318
 20
33.899925
 11
-52.547318
 21
33.599922
  0
LINE
  8
0
  6
PHANTOM
 10
-51.747330
 20
30.599937
 11
-53.347336
 21
30.599937
  0
LINE
  8
0
  6
PHANTOM
 10
-53.747314
 20
28.683403
 11
-53.747314
 21
27.547272
  0
LINE
  8
0
  6
PHANTOM
 10
-51.747314
 20
27.899925
 11
-51.747314
 21
24.999924
  0
LINE
  8
0
  6
PHANTOM
 10
-51.747330
 20
27.899817
 11
-53.747330
 21
27.547163
  0
LINE
  8
0
  6
PHANTOM
 10
-81.747314
 20
51.999939
 11
-79.601410
 21
51.999939
  0
LINE
  8
0
  6
PHANTOM
 10
-82.747314
 20
50.999939
 11
-82.747314
 21
49.999931
  0
LINE
  8
0
  6
PHANTOM
 10
-82.747330
 20
49.999931
 11
-80.747314
 21
48.845222
  0
LINE
  8
0
  6
PHANTOM
 10
-52.747314
 20
51.999939
 11
-54.893219
 21
51.999939
  0
LINE
  8
0
  6
PHANTOM
 10
-51.747314
 20
50.999939
 11
-51.747314
 21
49.999931
  0
LINE
  8
0
  6
PHANTOM
 10
-51.747307
 20
49.999935
 11
-53.747326
 21
48.845230
  0
LINE
  8
0
  6
PHANTOM
 10
-54.247314
 20
24.999939
 11
-51.747330
 21
24.999939
  0
LINE
  8
0
  6
PHANTOM
 10
-157.247223
 20
34.999939
 11
-157.247223
 21
53.500008
  0
LINE
  8
0
  6
PHANTOM
 10
-157.247238
 20
132.999939
 11
-157.247238
 21
133.499939
  0
LINE
  8
0
  6
PHANTOM
 10
-213.352005
 20
48.098274
 11
-172.247223
 21
48.098274
  0
LINE
  8
0
  6
CENTER
 10
30.000000
 20
124.999985
 11
127.000000
 21
124.999985
  0
LINE
  8
0
  6
PHANTOM
 10
103.999969
 20
107.999985
 11
103.999969
 21
108.499985
  0
LINE
  8
0
  6
PHANTOM
 10
84.999969
 20
107.999985
 11
84.999969
 21
141.999985
  0
LINE
  8
0
  6
PHANTOM
 10
84.999969
 20
141.999985
 11
103.999969
 21
141.999985
  0
LINE
  8
0
  6
PHANTOM
 10
84.999969
 20
107.999985
 11
103.999969
 21
107.999985
  0
LINE
  8
0
  6
PHANTOM
 10
33.444958
 20
132.199982
 11
84.999969
 21
132.199982
  0
LINE
  8
0
  6
PHANTOM
 10
36.555042
 20
117.799988
 11
84.999969
 21
117.799988
  0
LINE
  8
0
  6
CENTER
 10
177.000000
 20
39.999947
 11
221.000000
 21
39.999947
  0
LINE
  8
0
  6
CENTER
 10
199.000000
 20
15.999954
 11
199.000000
 21
61.999947
  0
LINE
  8
0
  6
PHANTOM
 10
216.000000
 20
27.999947
 11
216.000000
 21
51.999947
  0
LINE
  8
0
  6
PHANTOM
 10
182.000000
 20
27.999947
 11
182.000000
 21
51.999947
  0
LINE
  8
0
  6
PHANTOM
 10
187.000000
 20
56.999947
 11
211.000000
 21
56.999947
  0
LINE
  8
0
  6
PHANTOM
 10
180.500000
 20
55.499947
 11
183.429291
 21
55.499947
  0
LINE
  8
0
  6
PHANTOM
 10
179.500000
 20
20.999947
 11
182.500000
 21
20.999947
  0
LINE
  8
0
  6
PHANTOM
 10
179.500000
 20
54.499947
 11
179.500000
 21
52.499947
  0
LINE
  8
0
  6
PHANTOM
 10
179.500000
 20
45.749947
 11
179.500000
 21
43.499947
  0
LINE
  8
0
  6
PHANTOM
 10
179.499985
 20
52.499969
 11
182.000015
 21
51.056580
  0
LINE
  8
0
  6
PHANTOM
 10
179.500000
 20
43.499947
 11
182.000000
 21
43.499947
  0
LINE
  8
0
  6
PHANTOM
 10
179.500000
 20
24.599945
 11
179.500000
 21
20.999947
  0
LINE
  8
0
  6
PHANTOM
 10
180.500000
 20
32.499947
 11
180.500000
 21
27.999947
  0
LINE
  8
0
  6
PHANTOM
 10
182.000000
 20
25.668579
 11
182.000000
 21
24.159134
  0
LINE
  8
0
  6
PHANTOM
 10
180.500000
 20
27.999947
 11
181.600006
 21
27.999947
  0
LINE
  8
0
  6
PHANTOM
 10
179.500015
 20
24.599966
 11
182.000031
 21
24.159151
  0
LINE
  8
0
  6
PHANTOM
 10
215.500000
 20
20.999947
 11
218.500000
 21
20.999947
  0
LINE
  8
0
  6
PHANTOM
 10
218.500000
 20
54.499947
 11
218.500000
 21
52.499947
  0
LINE
  8
0
  6
PHANTOM
 10
218.500000
 20
45.749947
 11
218.500000
 21
43.499947
  0
LINE
  8
0
  6
PHANTOM
 10
218.500015
 20
52.499878
 11
216.000000
 21
51.056488
  0
LINE
  8
0
  6
PHANTOM
 10
218.500000
 20
43.499947
 11
216.000000
 21
43.499947
  0
LINE
  8
0
  6
PHANTOM
 10
218.500000
 20
24.599945
 11
218.500000
 21
20.999947
  0
LINE
  8
0
  6
PHANTOM
 10
217.500000
 20
32.499947
 11
217.500000
 21
27.999947
  0
LINE
  8
0
  6
PHANTOM
 10
216.000000
 20
25.668579
 11
216.000000
 21
24.159134
  0
LINE
  8
0
  6
PHANTOM
 10
217.500000
 20
27.999947
 11
216.399994
 21
27.999947
  0
LINE
  8
0
  6
PHANTOM
 10
218.499969
 20
24.600048
 11
215.999985
 21
24.159237
  0
LINE
  8
0
  6
PHANTOM
 10
214.570709
 20
55.499947
 11
217.500000
 21
55.499947
  0
LINE
  8
0
  6
PHANTOM
 10
35.000000
 20
140.499985
 11
84.999969
 21
140.499985
  0
LINE
  8
0
  6
PHANTOM
 10
35.000000
 20
109.499985
 11
84.999969
 21
109.499985
  0
LINE
  8
0
  6
CENTER
 10
30.000000
 20
39.999977
 11
109.000000
 21
39.999977
  0
LINE
  8
0
  6
PHANTOM
 10
104.000000
 20
22.999977
 11
104.000000
 21
23.999947
  0
LINE
  8
0
  6
PHANTOM
 10
85.000000
 20
20.999977
 11
85.000000
 21
56.999977
  0
LINE
  8
0
  6
PHANTOM
 10
85.000000
 20
56.999977
 11
104.000000
 21
56.999977
  0
LINE
  8
0
  6
PHANTOM
 10
85.000000
 20
22.999977
 11
104.000000
 21
22.999977
  0
LINE
  8
0
  6
PHANTOM
 10
35.000000
 20
20.999977
 11
85.000000
 21
20.999977
  0
LINE
  8
0
  6
PHANTOM
 10
35.000000
 20
55.499977
 11
85.000000
 21
55.499977
  0
LINE
  8
0
  6
PHANTOM
 10
33.894180
 20
43.499947
 11
85.000000
 21
43.499947
  0
LINE
  8
0
  6
PHANTOM
 10
37.203320
 20
33.299942
 11
85.000000
 21
33.299942
  0
LINE
  8
0
  6
PHANTOM
 10
37.243416
 20
27.999947
 11
85.000000
 21
27.999947
  0
LINE
  8
0
  6
PHANTOM
 10
36.807953
 20
25.668579
 11
85.000000
 21
25.668579
  0
LINE
  8
0
  6
PHANTOM
 10
36.510220
 20
24.599945
 11
85.000000
 21
24.599945
  0
LINE
  8
0
  6
PHANTOM
 10
34.009636
 20
52.499947
 11
85.000000
 21
52.499947
  0
LINE
  8
0
  6
PHANTOM
 10
33.537647
 20
45.749947
 11
85.000000
 21
45.749947
  0
LINE
  8
0
  6
PHANTOM
 10
104.000000
 20
33.999947
 11
104.000000
 21
56.999977
  0
LINE
  8
0
  6
PHANTOM
 10
103.999969
 20
141.499985
 11
103.999969
 21
141.999985
  0
LINE
  8
0
  6
PHANTOM
 10
33.586609
 20
50.188477
 11
85.000000
 21
50.188477
  0
LINE
  8
0
  6
CENTER
 10
-142.247223
 20
-135.000046
 11
-39.247223
 21
-135.000046
  0
LINE
  8
0
  6
PHANTOM
 10
-44.247223
 20
-115.000046
 11
-44.247223
 21
-141.000061
  0
LINE
  8
0
  6
PHANTOM
 10
-67.247223
 20
-115.000046
 11
-67.247223
 21
-157.000046
  0
LINE
  8
0
  6
PHANTOM
 10
-67.247223
 20
-115.000046
 11
-44.247223
 21
-115.000046
  0
LINE
  8
0
  6
PHANTOM
 10
-67.247223
 20
-155.000046
 11
-44.247223
 21
-155.000046
  0
LINE
  8
0
  6
PHANTOM
 10
-137.247223
 20
-157.000046
 11
-67.247223
 21
-157.000046
  0
LINE
  8
0
  6
CENTER
 10
-142.247223
 20
-50.000053
 11
-17.247223
 21
-50.000053
  0
LINE
  8
0
  6
PHANTOM
 10
-67.247162
 20
-30.000061
 11
-67.247162
 21
-70.000061
  0
LINE
  8
0
  6
PHANTOM
 10
-44.247162
 20
-30.000061
 11
-44.247162
 21
-30.500053
  0
LINE
  8
0
  6
PHANTOM
 10
-67.247162
 20
-30.000061
 11
-44.247162
 21
-30.000061
  0
LINE
  8
0
  6
PHANTOM
 10
-67.247162
 20
-70.000061
 11
-44.247162
 21
-70.000061
  0
LINE
  8
0
  6
CENTER
 10
70.752747
 20
-110.000061
 11
70.752747
 21
-162.000061
  0
LINE
  8
0
  6
CENTER
 10
45.752747
 20
-135.000061
 11
95.752747
 21
-135.000061
  0
LINE
  8
0
  6
PHANTOM
 10
50.752747
 20
-121.500061
 11
50.752747
 21
-148.500061
  0
LINE
  8
0
  6
PHANTOM
 10
90.752747
 20
-121.500061
 11
90.752747
 21
-148.500061
  0
LINE
  8
0
  6
PHANTOM
 10
57.252747
 20
-115.000061
 11
84.252747
 21
-115.000061
  0
LINE
  8
0
  6
PHANTOM
 10
-137.247223
 20
-117.000046
 11
-67.247223
 21
-117.000046
  0
LINE
  8
0
  6
PHANTOM
 10
-137.247223
 20
-68.000053
 11
-67.247162
 21
-68.000053
  0
LINE
  8
0
  6
PHANTOM
 10
-137.247223
 20
-32.000053
 11
-67.247162
 21
-32.000053
  0
LINE
  8
0
  6
PHANTOM
 10
-138.858536
 20
-42.800056
 11
-67.247162
 21
-42.800056
  0
LINE
  8
0
  6
PHANTOM
 10
-135.635910
 20
-57.200058
 11
-67.247162
 21
-57.200058
  0
LINE
  8
0
  6
PHANTOM
 10
48.752747
 20
-157.000061
 11
51.252747
 21
-157.000061
  0
LINE
  8
0
  6
PHANTOM
 10
50.752747
 20
-117.000061
 11
52.562332
 21
-117.000061
  0
LINE
  8
0
  6
PHANTOM
 10
48.752747
 20
-119.000061
 11
48.752747
 21
-121.000061
  0
LINE
  8
0
  6
PHANTOM
 10
48.752747
 20
-130.228271
 11
48.752747
 21
-132.500061
  0
LINE
  8
0
  6
PHANTOM
 10
48.752769
 20
-121.000076
 11
50.752758
 21
-122.154770
  0
LINE
  8
0
  6
PHANTOM
 10
48.752747
 20
-132.500061
 11
50.752747
 21
-132.500061
  0
LINE
  8
0
  6
PHANTOM
 10
48.752747
 20
-143.500061
 11
48.752747
 21
-147.600067
  0
LINE
  8
0
  6
PHANTOM
 10
48.752747
 20
-152.700073
 11
48.752747
 21
-157.000061
  0
LINE
  8
0
  6
PHANTOM
 10
48.752743
 20
-152.700043
 11
51.252735
 21
-153.140869
  0
LINE
  8
0
  6
PHANTOM
 10
92.752747
 20
-119.000061
 11
92.752747
 21
-121.000061
  0
LINE
  8
0
  6
PHANTOM
 10
92.752747
 20
-130.228271
 11
92.752747
 21
-132.500061
  0
LINE
  8
0
  6
PHANTOM
 10
92.752762
 20
-121.000076
 11
90.752769
 21
-122.154770
  0
LINE
  8
0
  6
PHANTOM
 10
92.752747
 20
-132.500061
 11
90.752747
 21
-132.500061
  0
LINE
  8
0
  6
PHANTOM
 10
92.752747
 20
-143.500061
 11
92.752747
 21
-147.600067
  0
LINE
  8
0
  6
PHANTOM
 10
92.752747
 20
-152.700073
 11
92.752747
 21
-157.000061
  0
LINE
  8
0
  6
PHANTOM
 10
92.752731
 20
-152.700012
 11
90.252724
 21
-153.140839
  0
LINE
  8
0
  6
PHANTOM
 10
90.252747
 20
-157.000061
 11
92.752747
 21
-157.000061
  0
LINE
  8
0
  6
PHANTOM
 10
88.943176
 20
-117.000061
 11
90.752747
 21
-117.000061
  0
LINE
  8
0
  6
PHANTOM
 10
-138.063629
 20
-132.500061
 11
-67.247223
 21
-132.500061
  0
LINE
  8
0
  6
PHANTOM
 10
-134.915924
 20
-142.700073
 11
-67.247223
 21
-142.700073
  0
LINE
  8
0
  6
PHANTOM
 10
-134.812637
 20
-148.400055
 11
-67.247223
 21
-148.400055
  0
LINE
  8
0
  6
PHANTOM
 10
-135.611694
 20
-152.700073
 11
-67.247223
 21
-152.700073
  0
LINE
  8
0
  6
PHANTOM
 10
-138.418320
 20
-121.000061
 11
-67.247223
 21
-121.000061
  0
LINE
  8
0
  6
PHANTOM
 10
-138.832352
 20
-123.868111
 11
-67.247223
 21
-123.868111
  0
LINE
  8
0
  6
PHANTOM
 10
-138.704651
 20
-129.300049
 11
-67.247223
 21
-129.300049
  0
LINE
  8
0
  6
PHANTOM
 10
-44.247223
 20
-152.900055
 11
-44.247223
 21
-155.000046
  0
LINE
  8
0
  6
PHANTOM
 10
-44.247162
 20
-69.500053
 11
-44.247162
 21
-70.000061
  0
LINE
  8
0
 10
-155.647171
 20
33.749954
 11
-152.947174
 21
33.749954
  0
LINE
  8
0
 10
-152.647171
 20
28.549957
 11
-152.647171
 21
33.449959
  0
LINE
  8
0
 10
-152.947205
 20
28.249975
 11
-152.647202
 21
28.549976
  0
LINE
  8
0
 10
-153.647171
 20
24.999954
 11
-143.247177
 21
24.999954
  0
LINE
  8
0
 10
-157.247177
 20
34.999954
 11
-155.647171
 21
34.999954
  0
LINE
  8
0
 10
-143.247177
 20
24.999954
 11
-143.247177
 21
26.599953
  0
LINE
  8
0
 10
-153.647171
 20
26.599953
 11
-143.247177
 21
26.599953
  0
LINE
  8
0
 10
-155.647171
 20
28.599953
 11
-155.647171
 21
34.999954
  0
LINE
  8
0
 10
-152.947205
 20
33.749939
 11
-152.647217
 21
33.449947
  0
LINE
  8
0
 10
-157.247177
 20
28.599953
 11
-157.247177
 21
34.999954
  0
LINE
  8
0
 10
-152.947174
 20
28.249954
 11
-152.947174
 21
33.749954
  0
LINE
  8
0
 10
-155.616318
 20
28.249954
 11
-152.947174
 21
28.249954
  0
LINE
  8
0
  6
CENTER
 10
-147.247177
 20
21.999954
 11
-147.247177
 21
29.599953
  0
LINE
  8
0
  6
CENTER
 10
-160.247177
 20
30.999992
 11
-149.647171
 21
30.999992
  0
LINE
  8
0
  6
DASHED
 10
-149.047180
 20
24.999954
 11
-149.047180
 21
26.599953
  0
LINE
  8
0
  6
DASHED
 10
-145.447174
 20
24.999954
 11
-145.447174
 21
26.599953
  0
LINE
  8
0
 10
-152.947235
 20
108.249908
 11
-152.947235
 21
113.749908
  0
LINE
  8
0
 10
-152.947235
 20
113.749924
 11
-152.647247
 21
113.449928
  0
LINE
  8
0
 10
-152.947281
 20
108.249947
 11
-152.647293
 21
108.549950
  0
LINE
  8
0
 10
-152.647247
 20
126.549904
 11
-152.647247
 21
131.449921
  0
LINE
  8
0
 10
-155.647247
 20
131.749908
 11
-152.947235
 21
131.749908
  0
LINE
  8
0
 10
-155.616379
 20
126.249901
 11
-152.947235
 21
126.249901
  0
LINE
  8
0
 10
-152.947235
 20
126.249901
 11
-152.947235
 21
131.749908
  0
LINE
  8
0
 10
-152.947250
 20
131.749924
 11
-152.647247
 21
131.449921
  0
LINE
  8
0
 10
-152.947235
 20
126.249916
 11
-152.647247
 21
126.549911
  0
LINE
  8
0
 10
-155.647217
 20
132.999939
 11
-155.647217
 21
106.999939
  0
LINE
  8
0
 10
-143.247223
 20
130.999939
 11
-143.247223
 21
108.999939
  0
LINE
  8
0
 10
-157.247238
 20
106.999939
 11
-145.247223
 21
106.999939
  0
LINE
  8
0
 10
-157.247238
 20
132.999939
 11
-145.247223
 21
132.999939
  0
LINE
  8
0
 10
-157.247238
 20
106.999939
 11
-157.247238
 21
132.999939
  0
LINE
  8
0
 10
-157.247238
 20
114.999947
 11
-155.647217
 21
114.999947
  0
LINE
  8
0
 10
-157.247238
 20
124.999947
 11
-155.647217
 21
124.999947
  0
LINE
  8
0
 10
-152.647247
 20
108.549911
 11
-152.647247
 21
113.449913
  0
LINE
  8
0
 10
-155.647247
 20
113.749908
 11
-152.947235
 21
113.749908
  0
LINE
  8
0
 10
-155.616379
 20
108.249908
 11
-152.947235
 21
108.249908
  0
LINE
  8
0
  6
CENTER
 10
-147.247223
 20
131.999939
 11
-147.247223
 21
125.999947
  0
LINE
  8
0
  6
CENTER
 10
-147.247223
 20
113.999939
 11
-147.247223
 21
107.999939
  0
LINE
  8
0
  6
CENTER
 10
-160.247238
 20
110.999947
 11
-144.247223
 21
110.999947
  0
LINE
  8
0
  6
CENTER
 10
-160.247238
 20
128.999939
 11
-144.247223
 21
128.999939
  0
LINE
  8
0
 10
-76.247276
 20
29.556532
 11
-74.997269
 21
30.278223
  0
LINE
  8
0
 10
-74.997269
 20
30.278236
 11
-74.997269
 21
31.721611
  0
LINE
  8
0
 10
-74.997292
 20
31.721617
 11
-76.247292
 21
32.443306
  0
LINE
  8
0
 10
-76.247292
 20
32.443283
 11
-77.497292
 21
31.721598
  0
LINE
  8
0
 10
-77.497276
 20
31.721596
 11
-77.497276
 21
30.278221
  0
LINE
  8
0
 10
-58.247272
 20
29.556540
 11
-59.497272
 21
30.278225
  0
LINE
  8
0
 10
-56.997276
 20
31.721596
 11
-56.997276
 21
30.278221
  0
LINE
  8
0
 10
-58.247261
 20
32.443283
 11
-56.997261
 21
31.721596
  0
LINE
  8
0
 10
-59.497261
 20
31.721630
 11
-58.247261
 21
32.443317
  0
LINE
  8
0
  6
DASHED
 10
-56.447273
 20
26.599922
 11
-56.447273
 21
24.999924
  0
LINE
  8
0
 10
-77.497284
 20
30.278234
 11
-76.247284
 21
29.556547
  0
LINE
  8
0
 10
-80.247276
 20
24.999924
 11
-80.247276
 21
32.999924
  0
LINE
  8
0
 10
-54.247276
 20
24.999924
 11
-54.247276
 21
32.999924
  0
LINE
  8
0
 10
-78.247276
 20
34.999924
 11
-73.747276
 21
34.999924
  0
LINE
  8
0
 10
-80.247276
 20
26.599922
 11
-54.247276
 21
26.599922
  0
LINE
  8
0
 10
-62.247276
 20
32.999924
 11
-62.247276
 21
33.499924
  0
LINE
  8
0
 10
-72.247276
 20
32.999924
 11
-72.247276
 21
33.499924
  0
LINE
  8
0
 10
-60.747276
 20
34.999924
 11
-56.247276
 21
34.999924
  0
LINE
  8
0
 10
-56.997288
 20
30.278246
 11
-58.247288
 21
29.556559
  0
LINE
  8
0
 10
-80.247276
 20
24.999924
 11
-54.247276
 21
24.999924
  0
LINE
  8
0
  6
CENTER
 10
-76.247276
 20
35.499924
 11
-76.247276
 21
21.999924
  0
LINE
  8
0
  6
CENTER
 10
-80.747276
 20
30.999924
 11
-71.747276
 21
30.999924
  0
LINE
  8
0
  6
DASHED
 10
-74.447273
 20
26.599922
 11
-74.447273
 21
24.999924
  0
LINE
  8
0
  6
DASHED
 10
-78.047279
 20
26.599922
 11
-78.047279
 21
24.999924
  0
LINE
  8
0
  6
CENTER
 10
-58.247276
 20
35.499924
 11
-58.247276
 21
21.999924
  0
LINE
  8
0
  6
DASHED
 10
-60.047279
 20
26.599922
 11
-60.047279
 21
24.999924
  0
LINE
  8
0
  6
CENTER
 10
-53.747276
 20
30.999924
 11
-62.747276
 21
30.999924
  0
LINE
  8
0
 10
-59.497284
 20
30.278236
 11
-59.497284
 21
31.721611
  0
LINE
  8
0
 10
103.999916
 20
33.999893
 11
105.999916
 21
33.999893
  0
LINE
  8
0
 10
106.999916
 20
20.999893
 11
121.999916
 21
20.999893
  0
LINE
  8
0
 10
105.999916
 20
23.999893
 11
105.999916
 21
33.999893
  0
LINE
  8
0
 10
105.999916
 20
24.499924
 11
109.599915
 21
24.499924
  0
LINE
  8
0
 10
121.999916
 20
20.999893
 11
121.999916
 21
22.999893
  0
LINE
  8
0
 10
106.999916
 20
22.999893
 11
121.999916
 21
22.999893
  0
LINE
  8
0
 10
103.999916
 20
23.999893
 11
103.999916
 21
33.999893
  0
LINE
  8
0
 10
109.599907
 20
24.499924
 11
109.999908
 21
24.899925
  0
LINE
  8
0
 10
109.599915
 20
31.499924
 11
109.999916
 21
31.099920
  0
LINE
  8
0
 10
109.599915
 20
24.499924
 11
109.599915
 21
31.499924
  0
LINE
  8
0
 10
105.999916
 20
31.499924
 11
109.599915
 21
31.499924
  0
LINE
  8
0
 10
109.999916
 20
24.899918
 11
109.999916
 21
31.099922
  0
LINE
  8
0
  6
CENTER
 10
100.999916
 20
27.999924
 11
112.999916
 21
27.999924
  0
LINE
  8
0
  6
DASHED
 10
114.699913
 20
20.999893
 11
114.699913
 21
22.999893
  0
LINE
  8
0
  6
CENTER
 10
116.999916
 20
17.999893
 11
116.999916
 21
25.999893
  0
LINE
  8
0
  6
DASHED
 10
119.299919
 20
20.999893
 11
119.299919
 21
22.999893
  0
LINE
  8
0
 10
103.999870
 20
108.499886
 11
118.999901
 21
108.499886
  0
LINE
  8
0
 10
103.999870
 20
131.324493
 11
105.999901
 21
131.324493
  0
LINE
  8
0
 10
103.999870
 20
108.499886
 11
103.999870
 21
141.499878
  0
LINE
  8
0
 10
109.999870
 20
109.899879
 11
109.999870
 21
116.099876
  0
LINE
  8
0
 10
105.999870
 20
109.499886
 11
109.599869
 21
109.499886
  0
LINE
  8
0
 10
105.999870
 20
116.499886
 11
109.599869
 21
116.499886
  0
LINE
  8
0
 10
109.599869
 20
109.499886
 11
109.599869
 21
116.499886
  0
LINE
  8
0
 10
109.599854
 20
116.499863
 11
109.999855
 21
116.099861
  0
LINE
  8
0
 10
109.599854
 20
109.499878
 11
109.999870
 21
109.899895
  0
LINE
  8
0
 10
103.999870
 20
118.675285
 11
105.999901
 21
118.675285
  0
LINE
  8
0
 10
109.999870
 20
133.899872
 11
109.999870
 21
140.099884
  0
LINE
  8
0
 10
105.999870
 20
133.499878
 11
109.599869
 21
133.499878
  0
LINE
  8
0
 10
105.999870
 20
140.499878
 11
109.599869
 21
140.499878
  0
LINE
  8
0
 10
109.599869
 20
133.499878
 11
109.599869
 21
140.499878
  0
LINE
  8
0
 10
109.599815
 20
140.499847
 11
109.999825
 21
140.099838
  0
LINE
  8
0
 10
109.599869
 20
133.499893
 11
109.999863
 21
133.899887
  0
LINE
  8
0
 10
105.999901
 20
141.499878
 11
105.999901
 21
108.499886
  0
LINE
  8
0
  6
CENTER
 10
116.999901
 20
140.999878
 11
116.999901
 21
132.999878
  0
LINE
  8
0
 10
103.999870
 20
141.499878
 11
118.999901
 21
141.499878
  0
LINE
  8
0
 10
121.999901
 20
138.499878
 11
121.999901
 21
111.499886
  0
LINE
  8
0
  6
CENTER
 10
100.999870
 20
136.999878
 11
120.999901
 21
136.999878
  0
LINE
  8
0
  6
CENTER
 10
116.999901
 20
116.999886
 11
116.999901
 21
108.999886
  0
LINE
  8
0
  6
CENTER
 10
100.999870
 20
112.999886
 11
120.999901
 21
112.999886
  0
LINE
  8
0
 10
188.499954
 20
27.133919
 11
188.499954
 21
28.865967
  0
LINE
  8
0
 10
188.499939
 20
28.865997
 11
186.999954
 21
29.732018
  0
LINE
  8
0
 10
187.000000
 20
29.731937
 11
185.500000
 21
28.865917
  0
LINE
  8
0
 10
185.499954
 20
28.865959
 11
185.499954
 21
27.133919
  0
LINE
  8
0
 10
212.499908
 20
27.133934
 11
210.999924
 21
26.267920
  0
LINE
  8
0
 10
209.499939
 20
28.865978
 11
210.999924
 21
29.732002
  0
LINE
  8
0
 10
182.499954
 20
22.999939
 11
215.499954
 21
22.999939
  0
LINE
  8
0
 10
210.999939
 20
29.731976
 11
212.499924
 21
28.865953
  0
LINE
  8
0
 10
186.999969
 20
26.267866
 11
188.499969
 21
27.133894
  0
LINE
  8
0
 10
212.499954
 20
28.865959
 11
212.499954
 21
27.133919
  0
LINE
  8
0
 10
182.499954
 20
20.999939
 11
182.499954
 21
31.999939
  0
LINE
  8
0
 10
215.499954
 20
20.999939
 11
215.499954
 21
31.999939
  0
LINE
  8
0
 10
182.499954
 20
20.999939
 11
215.499954
 21
20.999939
  0
LINE
  8
0
 10
184.499954
 20
33.999939
 11
192.675400
 21
33.999939
  0
LINE
  8
0
 10
209.499954
 20
27.133919
 11
209.499954
 21
28.865967
  0
LINE
  8
0
 10
210.999985
 20
26.267962
 11
209.499985
 21
27.133978
  0
LINE
  8
0
 10
185.499954
 20
27.133921
 11
186.999939
 21
26.267900
  0
LINE
  8
0
 10
205.324509
 20
33.999939
 11
213.499954
 21
33.999939
  0
LINE
  8
0
  6
CENTER
 10
210.999954
 20
32.999939
 11
210.999954
 21
17.999939
  0
LINE
  8
0
  6
CENTER
 10
215.999954
 20
27.999939
 11
205.999954
 21
27.999939
  0
LINE
  8
0
  6
DASHED
 10
208.699951
 20
22.999939
 11
208.699951
 21
20.999939
  0
LINE
  8
0
  6
DASHED
 10
213.299957
 20
22.999939
 11
213.299957
 21
20.999939
  0
LINE
  8
0
  6
DASHED
 10
189.299957
 20
22.999939
 11
189.299957
 21
20.999939
  0
LINE
  8
0
  6
DASHED
 10
184.699951
 20
22.999939
 11
184.699951
 21
20.999939
  0
LINE
  8
0
  6
CENTER
 10
181.999954
 20
27.999939
 11
191.999954
 21
27.999939
  0
LINE
  8
0
  6
CENTER
 10
186.999954
 20
32.999939
 11
186.999954
 21
17.999939
  0
LINE
  8
0
 10
-44.247200
 20
-141.000015
 11
-41.647194
 21
-141.000015
  0
LINE
  8
0
 10
-40.147194
 20
-157.000015
 11
-22.247200
 21
-157.000015
  0
LINE
  8
0
 10
-41.647194
 20
-141.000015
 11
-41.647194
 21
-152.900009
  0
LINE
  8
0
 10
-40.147194
 20
-154.400009
 11
-22.247200
 21
-154.400009
  0
LINE
  8
0
 10
-22.247200
 20
-154.400009
 11
-22.247200
 21
-157.000015
  0
LINE
  8
0
 10
-44.247200
 20
-141.000015
 11
-44.247200
 21
-152.900009
  0
LINE
  8
0
 10
-41.647194
 20
-144.250015
 11
-37.147194
 21
-144.250015
  0
LINE
  8
0
 10
-37.147247
 20
-152.749954
 11
-36.647251
 21
-152.249969
  0
LINE
  8
0
 10
-41.647194
 20
-152.750015
 11
-37.147194
 21
-152.750015
  0
LINE
  8
0
 10
-36.647194
 20
-144.750015
 11
-36.647194
 21
-152.250015
  0
LINE
  8
0
 10
-37.147209
 20
-144.250015
 11
-36.647209
 21
-144.750015
  0
LINE
  8
0
 10
-37.147194
 20
-144.250015
 11
-37.147194
 21
-152.750015
  0
LINE
  8
0
  6
CENTER
 10
-47.247200
 20
-148.500000
 11
-33.647194
 21
-148.500000
  0
LINE
  8
0
  6
CENTER
 10
-28.247200
 20
-151.400009
 11
-28.247200
 21
-160.000015
  0
LINE
  8
0
  6
DASHED
 10
-31.147194
 20
-154.400009
 11
-31.147194
 21
-157.000015
  0
LINE
  8
0
  6
DASHED
 10
-25.347206
 20
-154.400009
 11
-25.347206
 21
-157.000015
  0
LINE
  8
0
 10
-44.247169
 20
-40.000053
 11
-41.647224
 21
-40.000053
  0
LINE
  8
0
 10
-44.247169
 20
-60.000053
 11
-41.647224
 21
-60.000053
  0
LINE
  8
0
 10
-44.247169
 20
-30.500053
 11
-24.747231
 21
-30.500053
  0
LINE
  8
0
 10
-36.647163
 20
-32.750076
 11
-36.647163
 21
-40.250084
  0
LINE
  8
0
 10
-41.647163
 20
-32.250076
 11
-37.147163
 21
-32.250076
  0
LINE
  8
0
 10
-41.647163
 20
-40.750076
 11
-37.147163
 21
-40.750076
  0
LINE
  8
0
 10
-37.147163
 20
-32.250076
 11
-37.147163
 21
-40.750076
  0
LINE
  8
0
 10
-37.147205
 20
-40.750027
 11
-36.647202
 21
-40.250031
  0
LINE
  8
0
 10
-37.147186
 20
-32.250095
 11
-36.647186
 21
-32.750095
  0
LINE
  8
0
 10
-37.147175
 20
-59.250050
 11
-36.647175
 21
-59.750050
  0
LINE
  8
0
 10
-37.147163
 20
-59.250061
 11
-37.147163
 21
-67.750061
  0
LINE
  8
0
 10
-41.647163
 20
-59.250061
 11
-37.147163
 21
-59.250061
  0
LINE
  8
0
 10
-36.647163
 20
-59.750061
 11
-36.647163
 21
-67.250069
  0
LINE
  8
0
 10
-44.247169
 20
-69.500053
 11
-24.747231
 21
-69.500053
  0
LINE
  8
0
 10
-41.647163
 20
-67.750061
 11
-37.147163
 21
-67.750061
  0
LINE
  8
0
 10
-37.147202
 20
-67.750008
 11
-36.647198
 21
-67.250015
  0
LINE
  8
0
 10
-41.647224
 20
-30.500053
 11
-41.647224
 21
-69.500053
  0
LINE
  8
0
 10
-22.247231
 20
-33.000053
 11
-22.247231
 21
-67.000053
  0
LINE
  8
0
 10
-44.247169
 20
-30.500053
 11
-44.247169
 21
-69.500053
  0
LINE
  8
0
  6
CENTER
 10
-47.247169
 20
-36.500061
 11
-22.247231
 21
-36.500061
  0
LINE
  8
0
  6
CENTER
 10
-47.247169
 20
-63.500046
 11
-22.247231
 21
-63.500046
  0
LINE
  8
0
  6
CENTER
 10
-28.247231
 20
-57.500046
 11
-28.247231
 21
-69.500046
  0
LINE
  8
0
  6
CENTER
 10
-28.247231
 20
-30.500061
 11
-28.247231
 21
-42.500061
  0
LINE
  8
0
 10
55.252747
 20
-147.345383
 11
55.252747
 21
-149.654800
  0
LINE
  8
0
 10
57.252777
 20
-146.190750
 11
55.252762
 21
-147.345459
  0
LINE
  8
0
 10
82.252754
 20
-147.345383
 11
84.252769
 21
-146.190674
  0
LINE
  8
0
 10
84.252731
 20
-146.190689
 11
86.252747
 21
-147.345398
  0
LINE
  8
0
 10
86.252747
 20
-147.345383
 11
86.252747
 21
-149.654800
  0
LINE
  8
0
 10
86.252747
 20
-149.654816
 11
84.252731
 21
-150.809525
  0
LINE
  8
0
 10
51.252747
 20
-157.000061
 11
90.252747
 21
-157.000061
  0
LINE
  8
0
 10
90.252747
 20
-143.500061
 11
90.252747
 21
-157.000061
  0
LINE
  8
0
 10
51.252747
 20
-143.500061
 11
51.252747
 21
-157.000061
  0
LINE
  8
0
 10
53.752747
 20
-141.000061
 11
60.752747
 21
-141.000061
  0
LINE
  8
0
 10
51.252747
 20
-154.400055
 11
90.252747
 21
-154.400055
  0
LINE
  8
0
 10
80.752747
 20
-141.000061
 11
87.752747
 21
-141.000061
  0
LINE
  8
0
 10
84.252724
 20
-150.809464
 11
82.252731
 21
-149.654770
  0
LINE
  8
0
 10
82.252747
 20
-149.654755
 11
82.252747
 21
-147.345352
  0
LINE
  8
0
 10
55.252758
 20
-149.654785
 11
57.252773
 21
-150.809494
  0
LINE
  8
0
 10
57.252747
 20
-150.809479
 11
59.252747
 21
-149.654785
  0
LINE
  8
0
 10
59.252747
 20
-149.654755
 11
59.252747
 21
-147.345352
  0
LINE
  8
0
 10
59.252743
 20
-147.345383
 11
57.252731
 21
-146.190674
  0
LINE
  8
0
  6
CENTER
 10
57.252747
 20
-142.000061
 11
57.252747
 21
-160.000061
  0
LINE
  8
0
  6
CENTER
 10
50.752747
 20
-148.500061
 11
63.752747
 21
-148.500061
  0
LINE
  8
0
  6
DASHED
 10
60.152740
 20
-154.400055
 11
60.152740
 21
-157.000061
  0
LINE
  8
0
  6
DASHED
 10
54.352753
 20
-154.400055
 11
54.352753
 21
-157.000061
  0
LINE
  8
0
  6
DASHED
 10
81.352753
 20
-154.400055
 11
81.352753
 21
-157.000061
  0
LINE
  8
0
  6
DASHED
 10
87.152740
 20
-154.400055
 11
87.152740
 21
-157.000061
  0
LINE
  8
0
  6
CENTER
 10
84.252747
 20
-142.000061
 11
84.252747
 21
-160.000061
  0
LINE
  8
0
  6
CENTER
 10
90.752747
 20
-148.500061
 11
77.752747
 21
-148.500061
  0
ARC
  8
0
 62
     5
 10
193.065201
 20
-166.202393
 40
1.564041
 50
0.000000
 51
90.000000
  0
ARC
  8
0
 62
     5
 10
205.968597
 20
-174.609177
 40
1.564041
 50
270.000000
 51
0.000000
  0
ARC
  8
0
 62
     5
 10
205.186523
 20
-166.984390
 40
2.346069
 50
0.000000
 51
90.000000
  0
ARC
  8
0
 62
     5
 10
219.458466
 20
-166.202393
 40
1.564041
 50
0.000000
 51
90.000000
  0
ARC
  8
0
 62
     5
 10
219.458466
 20
-167.451935
 40
1.564050
 50
294.999969
 51
0.000000
  0
ARC
  8
0
 62
     5
 10
231.579834
 20
-164.638336
 40
2.346074
 50
291.688202
 51
0.000000
  0
ARC
  8
0
 62
     5
 10
230.797760
 20
-164.107742
 40
0.782030
 50
291.688049
 51
0.000000
  0
ARC
  8
0
  6
PHANTOM
 10
-76.247299
 20
48.999947
 40
4.500000
 50
90.000000
 51
179.999954
  0
ARC
  8
0
  6
PHANTOM
 10
-58.247299
 20
48.999931
 40
4.500000
 50
0.000000
 51
90.000000
  0
ARC
  8
0
  6
PHANTOM
 10
-76.247330
 20
30.999947
 40
4.500000
 50
179.999969
 51
207.266464
  0
ARC
  8
0
  6
PHANTOM
 10
-58.247330
 20
30.999931
 40
4.500000
 50
332.734375
 51
0.000000
  0
ARC
  8
0
  6
PHANTOM
 10
-82.747299
 20
48.299957
 40
4.299999
 50
270.000000
 51
297.717743
  0
ARC
  8
0
  6
PHANTOM
 10
-82.347321
 20
33.899956
 40
0.399994
 50
0.000000
 51
180.000000
  0
ARC
  8
0
  6
PHANTOM
 10
-81.447327
 20
33.599953
 40
0.500000
 50
180.000000
 51
270.000000
  0
ARC
  8
0
  6
PHANTOM
 10
-81.147324
 20
29.599953
 40
1.000000
 50
293.577820
 51
327.193848
  0
ARC
  8
0
  6
PHANTOM
 10
-53.347336
 20
29.599922
 40
1.000000
 50
90.000000
 51
115.302612
  0
ARC
  8
0
  6
PHANTOM
 10
-53.047333
 20
33.599922
 40
0.500000
 50
270.000000
 51
0.000000
  0
ARC
  8
0
  6
PHANTOM
 10
-51.747299
 20
48.299927
 40
4.300001
 50
242.282196
 51
269.999939
  0
ARC
  8
0
  6
PHANTOM
 10
-52.147308
 20
33.899925
 40
0.399994
 50
0.000000
 51
180.000000
  0
ARC
  8
0
  6
PHANTOM
 10
-81.147324
 20
29.599953
 40
0.999999
 50
64.697388
 51
90.000000
  0
ARC
  8
0
  6
PHANTOM
 10
-53.347336
 20
29.599922
 40
0.999999
 50
212.806137
 51
246.422195
  0
ARC
  8
0
  6
PHANTOM
 10
-198.499496
 20
125.999947
 40
14.999996
 50
156.421844
 51
203.578156
  0
ARC
  8
0
  6
PHANTOM
 10
-225.994949
 20
113.999939
 40
14.999999
 50
336.421814
 51
23.578180
  0
ARC
  8
0
  6
PHANTOM
 10
-198.499496
 20
45.999977
 40
14.999998
 50
156.421829
 51
203.578156
  0
ARC
  8
0
  6
PHANTOM
 10
-225.237610
 20
32.499977
 40
15.000005
 50
330.000000
 51
29.999989
  0
ARC
  8
0
  6
PHANTOM
 10
-81.747314
 20
50.999939
 40
1.000000
 50
90.000000
 51
180.000000
  0
ARC
  8
0
  6
PHANTOM
 10
-52.747314
 20
50.999939
 40
1.000000
 50
0.000000
 51
90.000000
  0
ARC
  8
0
  6
PHANTOM
 10
187.000000
 20
27.999947
 40
5.000000
 50
179.999985
 51
205.841934
  0
ARC
  8
0
  6
PHANTOM
 10
211.000000
 20
27.999947
 40
5.000000
 50
334.158051
 51
0.000000
  0
ARC
  8
0
  6
PHANTOM
 10
187.000000
 20
51.999947
 40
5.000000
 50
90.000000
 51
179.999954
  0
ARC
  8
0
  6
PHANTOM
 10
211.000000
 20
51.999947
 40
5.000000
 50
0.000000
 51
90.000000
  0
ARC
  8
0
  6
PHANTOM
 10
180.500000
 20
54.499947
 40
1.000000
 50
90.000000
 51
180.000000
  0
ARC
  8
0
  6
PHANTOM
 10
179.500000
 20
50.799942
 40
5.049999
 50
270.000000
 51
299.673004
  0
ARC
  8
0
  6
PHANTOM
 10
181.300003
 20
32.499947
 40
0.799997
 50
28.955145
 51
180.000000
  0
ARC
  8
0
  6
PHANTOM
 10
181.600006
 20
26.799942
 40
1.199998
 50
289.470947
 51
314.552460
  0
ARC
  8
0
  6
PHANTOM
 10
216.399994
 20
26.799942
 40
1.200001
 50
90.000000
 51
109.494888
  0
ARC
  8
0
  6
PHANTOM
 10
217.500000
 20
54.499947
 40
1.000000
 50
0.000000
 51
90.000000
  0
ARC
  8
0
  6
PHANTOM
 10
218.500000
 20
50.799942
 40
5.049997
 50
240.326965
 51
270.000000
  0
ARC
  8
0
  6
PHANTOM
 10
216.699997
 20
32.499947
 40
0.800003
 50
0.000000
 51
151.044861
  0
ARC
  8
0
  6
PHANTOM
 10
181.600006
 20
26.799942
 40
1.199999
 50
70.505112
 51
90.000000
  0
ARC
  8
0
  6
PHANTOM
 10
216.399994
 20
26.799942
 40
1.199997
 50
225.447495
 51
250.528366
  0
ARC
  8
0
  6
PHANTOM
 10
53.437393
 20
132.749985
 40
20.000002
 50
157.200974
 51
202.799011
  0
ARC
  8
0
  6
PHANTOM
 10
16.562607
 20
117.249985
 40
20.000000
 50
337.200958
 51
22.799032
  0
ARC
  8
0
  6
PHANTOM
 10
53.437393
 20
47.749977
 40
20.000002
 50
157.200989
 51
202.798996
  0
ARC
  8
0
  6
PHANTOM
 10
17.400284
 20
30.499977
 40
20.000000
 50
331.640656
 51
28.359350
  0
ARC
  8
0
  6
PHANTOM
 10
57.252747
 20
-121.500061
 40
6.500000
 50
89.999969
 51
179.999939
  0
ARC
  8
0
  6
PHANTOM
 10
57.252747
 20
-148.500061
 40
6.500000
 50
180.000000
 51
202.619858
  0
ARC
  8
0
  6
PHANTOM
 10
84.252747
 20
-148.500061
 40
6.500000
 50
337.380127
 51
0.000000
  0
ARC
  8
0
  6
PHANTOM
 10
84.252747
 20
-121.500061
 40
6.500000
 50
0.000000
 51
90.000000
  0
ARC
  8
0
  6
PHANTOM
 10
50.752747
 20
-119.000061
 40
2.000000
 50
90.000000
 51
180.000000
  0
ARC
  8
0
  6
PHANTOM
 10
48.752747
 20
-123.300056
 40
5.999994
 50
278.213226
 51
289.471222
  0
ARC
  8
0
  6
PHANTOM
 10
49.752747
 20
-130.228271
 40
1.000003
 50
98.213158
 51
180.000000
  0
ARC
  8
0
  6
PHANTOM
 10
49.552750
 20
-143.500061
 40
0.799999
 50
0.000000
 51
180.000000
  0
ARC
  8
0
  6
PHANTOM
 10
51.202744
 20
-143.500061
 40
0.849998
 50
180.000000
 51
238.034622
  0
ARC
  8
0
  6
PHANTOM
 10
49.552750
 20
-147.600067
 40
0.799999
 50
180.000000
 51
0.000000
  0
ARC
  8
0
  6
PHANTOM
 10
51.202744
 20
-147.600067
 40
0.850003
 50
121.965370
 51
180.000000
  0
ARC
  8
0
  6
PHANTOM
 10
90.302734
 20
-147.600067
 40
0.849998
 50
0.000000
 51
58.033211
  0
ARC
  8
0
  6
PHANTOM
 10
90.752747
 20
-119.000061
 40
2.000000
 50
0.000000
 51
90.000000
  0
ARC
  8
0
  6
PHANTOM
 10
92.752747
 20
-123.300056
 40
5.999999
 50
250.528778
 51
261.786743
  0
ARC
  8
0
  6
PHANTOM
 10
91.752747
 20
-130.228271
 40
1.000000
 50
0.000000
 51
81.786629
  0
ARC
  8
0
  6
PHANTOM
 10
91.952759
 20
-143.500061
 40
0.800003
 50
0.000000
 51
180.000000
  0
ARC
  8
0
  6
PHANTOM
 10
90.302734
 20
-143.500061
 40
0.849998
 50
301.966797
 51
0.000000
  0
ARC
  8
0
  6
PHANTOM
 10
91.952759
 20
-147.600067
 40
0.800003
 50
180.000000
 51
0.000000
  0
ARC
  8
0
  6
PHANTOM
 10
-113.923416
 20
-41.000053
 40
24.999998
 50
158.899811
 51
201.100174
  0
ARC
  8
0
  6
PHANTOM
 10
-160.571030
 20
-59.000053
 40
25.000000
 50
338.899811
 51
21.100197
  0
ARC
  8
0
  6
PHANTOM
 10
-113.923416
 20
-126.000046
 40
24.999996
 50
158.899826
 51
201.100159
  0
ARC
  8
0
  6
PHANTOM
 10
-159.697174
 20
-146.000046
 40
25.000006
 50
333.896118
 51
26.103874
  0
ARC
  8
0
 10
-153.647171
 20
28.599953
 40
3.600006
 50
179.999969
 51
270.000000
  0
ARC
  8
0
 10
-153.647171
 20
28.599953
 40
2.000000
 50
180.000000
 51
270.000000
  0
CIRCLE
  8
0
 10
-147.247223
 20
110.999939
 40
1.800000
  0
CIRCLE
  8
0
 10
-147.247223
 20
128.999939
 40
1.800000
  0
ARC
  8
0
 10
-145.247223
 20
108.999939
 40
2.000000
 50
270.000000
 51
0.000000
  0
ARC
  8
0
 10
-145.247223
 20
130.999939
 40
2.000000
 50
0.000000
 51
90.000000
  0
CIRCLE
  8
0
 10
-58.247276
 20
30.999924
 40
2.750000
  0
CIRCLE
  8
0
 10
-76.247276
 20
30.999924
 40
2.750000
  0
ARC
  8
0
 10
-60.747276
 20
33.499924
 40
1.500000
 50
90.000000
 51
180.000000
  0
ARC
  8
0
 10
-73.747276
 20
33.499924
 40
1.500000
 50
0.000000
 51
90.000000
  0
ARC
  8
0
 10
-67.247276
 20
32.999924
 40
5.000000
 50
180.000000
 51
0.000000
  0
ARC
  8
0
 10
-56.247276
 20
32.999924
 40
2.000000
 50
0.000000
 51
90.000000
  0
ARC
  8
0
 10
-78.247276
 20
32.999924
 40
2.000000
 50
90.000000
 51
180.000000
  0
ARC
  8
0
 10
106.999916
 20
23.999893
 40
1.000000
 50
180.000000
 51
270.000000
  0
ARC
  8
0
 10
106.999916
 20
23.999893
 40
3.000000
 50
179.999969
 51
270.000000
  0
ARC
  8
0
 10
118.999901
 20
111.499886
 40
3.000000
 50
270.000000
 51
0.000000
  0
ARC
  8
0
 10
118.999901
 20
138.499878
 40
3.000000
 50
0.000000
 51
90.000000
  0
CIRCLE
  8
0
 10
116.999901
 20
112.999886
 40
2.300000
  0
CIRCLE
  8
0
 10
116.999901
 20
136.999878
 40
2.300000
  0
ARC
  8
0
 10
198.999954
 20
35.499939
 40
6.499998
 50
193.342331
 51
346.657623
  0
CIRCLE
  8
0
 10
210.999954
 20
27.999939
 40
3.500000
  0
CIRCLE
  8
0
 10
186.999954
 20
27.999939
 40
3.500000
  0
ARC
  8
0
 10
184.499954
 20
31.999939
 40
2.000000
 50
90.000000
 51
179.999939
  0
ARC
  8
0
 10
213.499954
 20
31.999939
 40
2.000000
 50
0.000000
 51
90.000000
  0
ARC
  8
0
 10
-40.147194
 20
-152.900009
 40
4.099998
 50
180.000000
 51
270.000000
  0
ARC
  8
0
 10
-40.147194
 20
-152.900009
 40
1.500000
 50
180.000000
 51
270.000000
  0
ARC
  8
0
 10
-24.747231
 20
-67.000053
 40
2.500000
 50
270.000000
 51
0.000000
  0
ARC
  8
0
 10
-24.747231
 20
-33.000053
 40
2.500000
 50
0.000000
 51
90.000000
  0
CIRCLE
  8
0
 10
-28.247231
 20
-63.500046
 40
2.900000
  0
CIRCLE
  8
0
 10
-28.247231
 20
-36.500061
 40
2.900000
  0
CIRCLE
  8
0
 10
84.252747
 20
-148.500061
 40
4.250000
  0
CIRCLE
  8
0
 10
57.252747
 20
-148.500061
 40
4.250000
  0
ARC
  8
0
 10
70.752747
 20
-141.000061
 40
10.000000
 50
180.000000
 51
0.000000
  0
ARC
  8
0
 10
87.752747
 20
-143.500061
 40
2.500000
 50
0.000000
 51
90.000000
  0
ARC
  8
0
 10
53.752747
 20
-143.500061
 40
2.500000
 50
90.000000
 51
180.000000
  0
TEXT
  8
0
 10
160.213089
 20
165.487701
 40
6.000000
  1
DATE : OCT ,1991
 50
0.000000
 41
1.052631
 51
0.000000
  7
STANDARD
  0
TEXT
  8
0
 10
-258.064636
 20
164.587692
 40
7.000000
  1
ORGA L SUPPORT
 50
0.000000
 41
1.052632
 51
0.000000
  7
STANDARD
  0
TEXT
  8
0
 10
-136.497223
 20
159.475296
 40
7.000000
  1
BORE : 16
 50
0.000000
 41
1.052632
 51
0.000000
  7
STANDARD
  0
TEXT
  8
0
 10
80.750000
 20
159.475296
 40
7.000000
  1
BORE : 20
 50
0.000000
 41
1.052632
 51
0.000000
  7
STANDARD
  0
TEXT
  8
0
 10
-246.497223
 20
-25.525023
 40
7.000000
  1
BORE : 25
 50
0.000000
 41
1.052632
 51
0.000000
  7
STANDARD
  0
ENDSEC
  0
EOF
