  0
SECTION
  2
HEADER
  0
ENDSEC
  0
SECTION
  2
TABLES
  0
TABLE
  2
LTYPE
 70
     4
  0
LTYPE
  2
CONTINUOUS
 70
    64
  3
Solid line
 72
    65
 73
     0
 40
0.000000
  0
LTYPE
  2
DASHED
 70
    64
  3
__ __ __ __ __ __ __ __ __ __ __ __ __ __ __
 72
    65
 73
     2
 40
3.500000
 49
2.000000
 49
-1.500000
  0
LTYPE
  2
CENTER
 70
    64
  3
____ _ ____ _ ____ _ ____ _ ____ _ ____ _ ____
 72
    65
 73
     4
 40
17.500000
 49
13.000000
 49
-1.500000
 49
1.500000
 49
-1.500000
  0
LTYPE
  2
PHANTOM
 70
    64
  3
_____ _ _ _____ _ _ _____ _ _ _____ _ _ ____  
 72
    65
 73
     6
 40
15.500000
 49
8.000000
 49
-1.500000
 49
1.500000
 49
-1.500000
 49
1.500000
 49
-1.500000
  0
LTYPE
  2
DASHED1
 70
    64
  3
__ __ __ __ __ __ __ __ __ __ __ __ __ __ __
 72
    65
 73
     2
 40
1.500000
 49
1.000000
 49
-0.500000
  0
LTYPE
  2
DASHED2
 70
    64
  3
__ __ __ __ __ __ __ __ __ __ __ __ __ __ __
 72
    65
 73
     2
 40
3.500000
 49
2.500000
 49
-1.000000
  0
LTYPE
  2
DASHED3
 70
    64
  3
__ __ __ __ __ __ __ __ __ __ __ __ __ __ __
 72
    65
 73
     2
 40
6.000000
 49
4.000000
 49
-2.000000
  0
LTYPE
  2
DASHED4
 70
    64
  3
__ __ __ __ __ __ __ __ __ __ __ __ __ __ __
 72
    65
 73
     2
 40
12.000000
 49
10.000000
 49
-2.000000
  0
LTYPE
  2
DASHED5
 70
    64
  3
__ __ __ __ __ __ __ __ __ __ __ __ __ __ __
 72
    65
 73
     2
 40
17.000000
 49
15.000000
 49
-2.000000
  0
LTYPE
  2
DASHED6
 70
    64
  3
__ __ __ __ __ __ __ __ __ __ __ __ __ __ __
 72
    65
 73
     2
 40
29.000000
 49
27.000000
 49
-2.000000
  0
LTYPE
  2
PHANTOM1
 70
    64
  3
_____ _ _ _____ _ _ _____ _ _ _____ _ _ ____  
 72
    65
 73
     6
 40
31.000000
 49
25.000000
 49
-1.500000
 49
1.000000
 49
-1.000000
 49
1.000000
 49
-1.500000
  0
LTYPE
  2
PHANTOM2
 70
    64
  3
_____ _ _ _____ _ _ _____ _ _ _____ _ _ ____  
 72
    65
 73
     6
 40
36.000000
 49
27.000000
 49
-1.500000
 49
2.500000
 49
-1.000000
 49
2.500000
 49
-1.500000
  0
LTYPE
  2
PHANTOM3
 70
    64
  3
_____ _ _ _____ _ _ _____ _ _ _____ _ _ ____  
 72
    65
 73
     6
 40
78.000000
 49
64.000000
 49
-2.000000
 49
4.000000
 49
-2.000000
 49
4.000000
 49
-2.000000
  0
LTYPE
  2
CENTER1
 70
    64
  3
____ _ ____ _ ____ _ ____ _ ____ _ ____ _ ____
 72
    65
 73
     4
 40
19.000000
 49
14.000000
 49
-1.000000
 49
3.000000
 49
-1.000000
  0
LTYPE
  2
CENTER2
 70
    64
  3
____ _ ____ _ ____ _ ____ _ ____ _ ____ _ ____
 72
    65
 73
     4
 40
28.500000
 49
25.000000
 49
-1.000000
 49
1.500000
 49
-1.000000
  0
LTYPE
  2
CENTER3
 70
    64
  3
____ _ ____ _ ____ _ ____ _ ____ _ ____ _ ____
 72
    65
 73
     4
 40
31.500000
 49
27.000000
 49
-1.000000
 49
2.500000
 49
-1.000000
  0
LTYPE
  2
CENTER4
 70
    64
  3
____ _ ____ _ ____ _ ____ _ ____ _ ____ _ ____
 72
    65
 73
     4
 40
50.000000
 49
45.000000
 49
-1.000000
 49
3.000000
 49
-1.000000
  0
LTYPE
  2
CENTER5
 70
    64
  3
____ _ ____ _ ____ _ ____ _ ____ _ ____ _ ____
 72
    65
 73
     4
 40
100.000000
 49
92.000000
 49
-2.000000
 49
4.000000
 49
-2.000000
  0
LTYPE
  2
SBK1
 70
    64
  3
______ _ _ _ ______ _ _ _ ______ _ _ _ _____  
 72
    65
 73
     8
 40
60.500000
 49
45.000000
 49
-2.000000
 49
2.500000
 49
-2.000000
 49
2.500000
 49
-2.000000
 49
2.500000
 49
-2.000000
  0
LTYPE
  2
SBK2
 70
    64
  3
______ _ _ _ ______ _ _ _ ______ _ _ _ _____  
 72
    65
 73
     8
 40
84.000000
 49
64.000000
 49
-2.000000
 49
4.000000
 49
-2.000000
 49
4.000000
 49
-2.000000
 49
4.000000
 49
-2.000000
  0
LTYPE
  2
STCH
 70
    64
  3
__ __ __ __ __ __ __ __ __ __ __ __ __ __ __
 72
    65
 73
     2
 40
3.000000
 49
1.000000
 49
-2.000000
  0
LTYPE
  2
MTCH
 70
    64
  3
_____ _ _ _____ _ _ _____ _ _ _____ _ _ ____  
 72
    65
 73
     6
 40
80.000000
 49
66.000000
 49
-2.000000
 49
4.000000
 49
-2.000000
 49
4.000000
 49
-2.000000
  0
ENDTAB
  0
TABLE
  2
LAYER
 70
     1
  0
LAYER
  2
0
 70
     0
 62
     7
  6
CONTINUOUS
  0
ENDTAB
  0
TABLE
  2
STYLE
 70
     1
  0
STYLE
  2
STANDARD
 70
     0
 40
0.000000
 41
1.000000
 50
0.000000
 71
     0
 42
0.200000
  3
txt
  4
BIGFONT
  0
ENDTAB
  0
TABLE
  2
VIEW
 70
     0
  0
ENDTAB
  0
ENDSEC
  0
SECTION
  2
BLOCKS
  0
ENDSEC
  0
SECTION
  2
ENTITIES
  0
POINT
  8
0
 10
-250.873505
 20
159.999924
  0
POINT
  8
0
 10
-250.873535
 20
49.999996
  0
POINT
  8
0
 10
-105.873627
 20
50.000004
  0
POINT
  8
0
 10
-210.873520
 20
49.999996
  0
POINT
  8
0
 10
-210.873596
 20
159.999924
  0
POINT
  8
0
 10
-92.373642
 20
50.000004
  0
POINT
  8
0
 10
119.999939
 20
154.999939
  0
POINT
  8
0
 10
120.000015
 20
50.000008
  0
POINT
  8
0
 10
270.000000
 20
49.999958
  0
POINT
  8
0
 10
160.000015
 20
50.000008
  0
POINT
  8
0
 10
159.999969
 20
154.999939
  0
POINT
  8
0
 10
287.000000
 20
49.999958
  0
POINT
  8
0
 10
-90.873474
 20
-74.558479
  0
POINT
  8
0
 10
-90.873642
 20
-194.558563
  0
POINT
  8
0
 10
89.126411
 20
-194.558533
  0
POINT
  8
0
 10
-40.873642
 20
-194.558563
  0
POINT
  8
0
 10
-40.873535
 20
-74.558479
  0
POINT
  8
0
 10
109.126411
 20
-194.558533
  0
LINE
  8
0
 62
     3
 10
218.329163
 20
-225.956436
 11
370.873566
 21
-225.956436
  0
LINE
  8
0
 62
     3
 10
-218.329163
 20
225.956390
 11
-218.329163
 21
254.558487
  0
LINE
  8
0
 62
     3
 10
-370.873566
 20
225.956390
 11
-218.329163
 21
225.956390
  0
LINE
  8
0
 62
     3
 10
-370.873566
 20
254.558487
 11
370.873566
 21
254.558487
  0
LINE
  8
0
 62
     3
 10
-370.873566
 20
-254.558487
 11
370.873566
 21
-254.558487
  0
LINE
  8
0
 62
     3
 10
370.873566
 20
254.558487
 11
370.873566
 21
-254.558487
  0
LINE
  8
0
 62
     3
 10
-370.873566
 20
-254.558487
 11
-370.873566
 21
254.558487
  0
LINE
  8
0
 62
     3
 10
218.329163
 20
-225.956436
 11
218.329163
 21
-254.558487
  0
LINE
  8
0
 62
     3
 10
218.329163
 20
254.558487
 11
218.329163
 21
225.956390
  0
LINE
  8
0
 62
     3
 10
218.329163
 20
225.956390
 11
370.873566
 21
225.956390
  0
LINE
  8
0
 62
     5
 10
258.381622
 20
-232.833740
 11
258.381622
 21
-236.151566
  0
LINE
  8
0
 62
     5
 10
258.381622
 20
-236.151566
 11
270.823547
 21
-236.151566
  0
LINE
  8
0
 62
     5
 10
258.381622
 20
-249.146469
 11
275.247345
 21
-249.146469
  0
LINE
  8
0
 62
     5
 10
258.381622
 20
-245.828644
 11
270.823547
 21
-245.828644
  0
LINE
  8
0
 62
     5
 10
258.381622
 20
-232.833740
 11
273.035400
 21
-232.833740
  0
LINE
  8
0
 62
     5
 10
270.823547
 20
-236.151566
 11
270.823547
 21
-245.828644
  0
LINE
  8
0
 62
     5
 10
275.247345
 20
-235.045654
 11
275.247345
 21
-249.146469
  0
LINE
  8
0
 62
     5
 10
258.381622
 20
-245.828644
 11
258.381622
 21
-249.146469
  0
LINE
  8
0
 62
     5
 10
293.495392
 20
-236.151566
 11
293.495392
 21
-246.934647
  0
LINE
  8
0
 62
     5
 10
277.735657
 20
-232.833740
 11
277.735657
 21
-236.151566
  0
LINE
  8
0
 62
     5
 10
293.937836
 20
-232.584961
 11
295.513824
 21
-232.584961
  0
LINE
  8
0
 62
     5
 10
293.937836
 20
-230.373016
 11
295.513824
 21
-230.373016
  0
LINE
  8
0
 62
     5
 10
295.513824
 20
-230.373016
 11
295.513824
 21
-232.584961
  0
LINE
  8
0
 62
     5
 10
293.937836
 20
-230.373016
 11
293.937836
 21
-232.584961
  0
LINE
  8
0
 62
     5
 10
293.108276
 20
-230.373016
 11
293.108276
 21
-232.584961
  0
LINE
  8
0
 62
     5
 10
282.766052
 20
-230.373016
 11
286.200897
 21
-230.373016
  0
LINE
  8
0
 62
     5
 10
285.541260
 20
-232.833466
 11
286.200562
 21
-230.372711
  0
LINE
  8
0
 62
     5
 10
282.106689
 20
-232.833710
 11
282.766022
 21
-230.372986
  0
LINE
  8
0
 62
     5
 10
285.541565
 20
-232.833740
 11
290.177551
 21
-232.833740
  0
LINE
  8
0
 62
     5
 10
284.652557
 20
-236.151566
 11
289.071625
 21
-236.151566
  0
LINE
  8
0
 62
     5
 10
286.642853
 20
-249.146469
 11
291.283569
 21
-249.146469
  0
LINE
  8
0
 62
     5
 10
285.753693
 20
-245.828583
 11
286.642731
 21
-249.146347
  0
LINE
  8
0
 62
     5
 10
285.753754
 20
-245.828644
 11
289.071625
 21
-245.828644
  0
LINE
  8
0
 62
     5
 10
281.170746
 20
-249.146637
 11
284.652679
 21
-236.151733
  0
LINE
  8
0
 62
     5
 10
277.735657
 20
-236.151566
 11
281.217682
 21
-236.151566
  0
LINE
  8
0
 62
     5
 10
277.735413
 20
-249.146210
 11
281.217468
 21
-236.151337
  0
LINE
  8
0
 62
     5
 10
277.735657
 20
-249.146469
 11
281.170593
 21
-249.146469
  0
LINE
  8
0
 62
     5
 10
277.735657
 20
-232.833740
 11
282.106689
 21
-232.833740
  0
LINE
  8
0
 62
     5
 10
289.071625
 20
-236.151566
 11
289.071625
 21
-245.828644
  0
LINE
  8
0
 62
     5
 10
291.532288
 20
-230.373016
 11
293.108276
 21
-230.373016
  0
LINE
  8
0
 62
     5
 10
291.532288
 20
-232.584961
 11
293.108276
 21
-232.584961
  0
LINE
  8
0
 62
     5
 10
291.532288
 20
-230.373016
 11
291.532288
 21
-232.584961
  0
LINE
  8
0
 62
     5
 10
301.513550
 20
-230.373016
 11
305.937286
 21
-230.373016
  0
LINE
  8
0
 62
     5
 10
308.342316
 20
-240.195053
 11
311.296204
 21
-238.817642
  0
LINE
  8
0
 62
     5
 10
305.937286
 20
-242.734406
 11
305.937286
 21
-249.146469
  0
LINE
  8
0
 62
     5
 10
301.513550
 20
-243.379044
 11
301.513550
 21
-249.146469
  0
LINE
  8
0
 62
     5
 10
305.937286
 20
-232.833740
 11
310.361115
 21
-232.833740
  0
LINE
  8
0
 62
     5
 10
305.937286
 20
-230.373016
 11
305.937286
 21
-232.833740
  0
LINE
  8
0
 62
     5
 10
301.513550
 20
-230.373016
 11
301.513550
 21
-232.833740
  0
LINE
  8
0
 62
     5
 10
312.572998
 20
-235.045654
 11
312.572998
 21
-236.812775
  0
LINE
  8
0
 62
     5
 10
308.342377
 20
-240.195038
 11
312.573395
 21
-242.168030
  0
LINE
  8
0
 62
     5
 10
305.937256
 20
-242.734329
 11
312.573059
 21
-245.828613
  0
LINE
  8
0
 62
     5
 10
296.260284
 20
-242.167801
 11
296.260284
 21
-245.828644
  0
LINE
  8
0
 62
     5
 10
296.260742
 20
-242.168167
 11
309.162567
 21
-236.151932
  0
LINE
  8
0
 62
     5
 10
296.260254
 20
-245.828598
 11
301.513580
 21
-243.378937
  0
LINE
  8
0
 62
     5
 10
312.572998
 20
-242.167801
 11
312.572998
 21
-245.828644
  0
LINE
  8
0
 62
     5
 10
296.260284
 20
-232.833740
 11
296.260284
 21
-236.151566
  0
LINE
  8
0
 62
     5
 10
301.513550
 20
-249.146469
 11
305.937286
 21
-249.146469
  0
LINE
  8
0
 62
     5
 10
296.260284
 20
-236.151566
 11
309.162079
 21
-236.151566
  0
LINE
  8
0
 62
     5
 10
296.260284
 20
-232.833740
 11
301.513550
 21
-232.833740
  0
LINE
  8
0
 62
     5
 10
327.503998
 20
-236.404739
 11
328.730042
 21
-235.917068
  0
LINE
  8
0
 62
     5
 10
327.503357
 20
-236.404404
 11
327.503357
 21
-249.146469
  0
LINE
  8
0
 62
     5
 10
323.079498
 20
-249.146469
 11
327.503357
 21
-249.146469
  0
LINE
  8
0
 62
     5
 10
313.955292
 20
-241.792511
 11
323.079376
 21
-238.163742
  0
LINE
  8
0
 62
     5
 10
313.955536
 20
-238.221954
 11
326.806152
 21
-233.111084
  0
LINE
  8
0
 62
     5
 10
323.079498
 20
-238.163773
 11
323.079498
 21
-249.146469
  0
LINE
  8
0
 62
     5
 10
327.503357
 20
-231.368408
 11
327.503357
 21
-232.083389
  0
LINE
  8
0
 62
     5
 10
330.821106
 20
-231.368408
 11
330.821106
 21
-232.833755
  0
LINE
  8
0
 62
     5
 10
313.955444
 20
-238.221893
 11
313.955444
 21
-241.792496
  0
LINE
  8
0
 62
     5
 10
327.503357
 20
-231.368408
 11
330.821106
 21
-231.368408
  0
LINE
  8
0
 10
-370.873566
 20
0.000000
 11
370.873566
 21
0.000000
  0
LINE
  8
0
 10
0.000000
 20
0.000000
 11
0.000000
 21
254.558487
  0
LINE
  8
0
  6
PHANTOM
 10
-290.873566
 20
35.000000
 11
-210.873566
 21
35.000000
  0
LINE
  8
0
  6
CENTER
 10
-295.873566
 20
50.000000
 11
-205.873566
 21
50.000000
  0
LINE
  8
0
  6
CENTER
 10
-250.873566
 20
30.000023
 11
-250.873566
 21
67.000023
  0
LINE
  8
0
  6
PHANTOM
 10
-290.873566
 20
62.000000
 11
-210.873566
 21
62.000000
  0
LINE
  8
0
  6
PHANTOM
 10
-291.711792
 20
52.499962
 11
-211.711792
 21
52.499962
  0
LINE
  8
0
  6
PHANTOM
 10
-288.972321
 20
44.299957
 11
-208.972336
 21
44.299957
  0
LINE
  8
0
  6
PHANTOM
 10
-288.984772
 20
40.599960
 11
-270.873566
 21
40.599960
  0
LINE
  8
0
  6
PHANTOM
 10
-289.357605
 20
38.683441
 11
-270.873566
 21
38.683441
  0
LINE
  8
0
  6
PHANTOM
 10
-289.586700
 20
37.899963
 11
-270.873566
 21
37.899963
  0
LINE
  8
0
  6
PHANTOM
 10
-291.582672
 20
59.999962
 11
-211.582672
 21
59.999962
  0
LINE
  8
0
  6
PHANTOM
 10
-291.991913
 20
53.999962
 11
-211.991913
 21
53.999962
  0
LINE
  8
0
  6
CENTER
 10
-295.873566
 20
159.999969
 11
-205.873566
 21
159.999969
  0
LINE
  8
0
  6
CENTER
 10
-250.873596
 20
181.999969
 11
-250.873596
 21
137.999969
  0
LINE
  8
0
  6
PHANTOM
 10
-292.069397
 20
164.699966
 11
-212.069397
 21
164.699966
  0
LINE
  8
0
  6
PHANTOM
 10
-289.677734
 20
155.299957
 11
-209.677734
 21
155.299957
  0
LINE
  8
0
  6
CENTER
 10
-105.873672
 20
67.000000
 11
-105.873672
 21
30.000000
  0
LINE
  8
0
  6
PHANTOM
 10
-121.373672
 20
35.000000
 11
-113.373672
 21
35.000000
  0
LINE
  8
0
  6
PHANTOM
 10
-120.373672
 20
62.000000
 11
-91.373672
 21
62.000000
  0
LINE
  8
0
  6
PHANTOM
 10
-111.252335
 20
36.500000
 11
-100.494980
 21
36.500000
  0
LINE
  8
0
  6
PHANTOM
 10
-98.373672
 20
35.000000
 11
-90.373672
 21
35.000000
  0
LINE
  8
0
  6
PHANTOM
 10
-113.373619
 20
34.999947
 11
-112.312958
 21
36.060604
  0
LINE
  8
0
  6
PHANTOM
 10
-98.373688
 20
35.000011
 11
-99.434349
 21
36.060673
  0
LINE
  8
0
  6
PHANTOM
 10
-121.373672
 20
61.000000
 11
-121.373672
 21
60.000000
  0
LINE
  8
0
  6
PHANTOM
 10
-121.373672
 20
54.000000
 11
-121.373672
 21
52.500000
  0
LINE
  8
0
  6
PHANTOM
 10
-121.373627
 20
59.999981
 11
-117.138672
 21
57.554928
  0
LINE
  8
0
  6
PHANTOM
 10
-121.373672
 20
52.500000
 11
-117.873672
 21
52.500000
  0
LINE
  8
0
  6
PHANTOM
 10
-121.373672
 20
43.900002
 11
-121.373672
 21
40.599998
  0
LINE
  8
0
  6
PHANTOM
 10
-117.873672
 20
52.500000
 11
-117.873672
 21
44.099998
  0
LINE
  8
0
  6
PHANTOM
 10
-120.073669
 20
43.099998
 11
-118.873672
 21
43.099998
  0
LINE
  8
0
  6
PHANTOM
 10
-120.573669
 20
43.900002
 11
-120.573669
 21
43.599998
  0
LINE
  8
0
  6
PHANTOM
 10
-90.373672
 20
61.000000
 11
-90.373672
 21
60.000000
  0
LINE
  8
0
  6
PHANTOM
 10
-90.373672
 20
54.000000
 11
-90.373672
 21
52.500000
  0
LINE
  8
0
  6
PHANTOM
 10
-90.373672
 20
60.000038
 11
-94.608627
 21
57.554985
  0
LINE
  8
0
  6
PHANTOM
 10
-90.373672
 20
52.500000
 11
-93.873672
 21
52.500000
  0
LINE
  8
0
  6
PHANTOM
 10
-90.373672
 20
43.900002
 11
-90.373672
 21
40.599998
  0
LINE
  8
0
  6
PHANTOM
 10
-93.873672
 20
52.500000
 11
-93.873672
 21
44.099998
  0
LINE
  8
0
  6
PHANTOM
 10
-91.673676
 20
43.099998
 11
-92.873672
 21
43.099998
  0
LINE
  8
0
  6
PHANTOM
 10
-91.173676
 20
43.900002
 11
-91.173676
 21
43.599998
  0
LINE
  8
0
  6
CENTER
 10
-126.373672
 20
50.000000
 11
-85.373672
 21
50.000000
  0
LINE
  8
0
  6
PHANTOM
 10
-90.373672
 20
35.599998
 11
-90.373672
 21
35.000000
  0
LINE
  8
0
  6
PHANTOM
 10
-91.373672
 20
40.599998
 11
-91.973679
 21
40.599998
  0
LINE
  8
0
  6
PHANTOM
 10
-121.373672
 20
35.599998
 11
-121.373672
 21
35.000000
  0
LINE
  8
0
  6
PHANTOM
 10
-120.373672
 20
40.599998
 11
-119.773666
 21
40.599998
  0
LINE
  8
0
  6
PHANTOM
 10
-230.873566
 20
40.599960
 11
-208.984772
 21
40.599960
  0
LINE
  8
0
  6
PHANTOM
 10
-230.873566
 20
38.683441
 11
-209.357605
 21
38.683441
  0
LINE
  8
0
  6
PHANTOM
 10
-230.873566
 20
37.899963
 11
-209.586700
 21
37.899963
  0
LINE
  8
0
  6
PHANTOM
 10
-290.873566
 20
147.999969
 11
-210.873566
 21
147.999969
  0
LINE
  8
0
  6
PHANTOM
 10
-290.873566
 20
171.999969
 11
-210.873566
 21
171.999969
  0
LINE
  8
0
  6
PHANTOM
 10
-291.978363
 20
58.098297
 11
-211.978348
 21
58.098297
  0
LINE
  8
0
  6
CENTER
 10
75.000000
 20
155.000000
 11
165.000000
 21
155.000000
  0
LINE
  8
0
  6
CENTER
 10
119.999969
 20
184.500000
 11
119.999969
 21
125.500000
  0
LINE
  8
0
  6
PHANTOM
 10
78.444962
 20
162.200012
 11
158.444962
 21
162.200012
  0
LINE
  8
0
  6
PHANTOM
 10
81.555038
 20
147.800018
 11
161.555038
 21
147.800018
  0
LINE
  8
0
  6
CENTER
 10
248.000000
 20
49.999969
 11
292.000000
 21
49.999969
  0
LINE
  8
0
  6
CENTER
 10
270.000000
 20
25.999977
 11
270.000000
 21
70.500000
  0
LINE
  8
0
  6
PHANTOM
 10
80.000000
 20
170.500000
 11
160.000000
 21
170.500000
  0
LINE
  8
0
  6
PHANTOM
 10
80.000000
 20
139.500000
 11
160.000000
 21
139.500000
  0
LINE
  8
0
  6
CENTER
 10
75.000000
 20
50.000000
 11
165.000000
 21
50.000000
  0
LINE
  8
0
  6
PHANTOM
 10
80.000000
 20
31.000000
 11
160.000000
 21
31.000000
  0
LINE
  8
0
  6
CENTER
 10
120.000000
 20
26.000008
 11
120.000000
 21
70.500000
  0
LINE
  8
0
  6
PHANTOM
 10
80.000000
 20
65.500000
 11
160.000000
 21
65.500000
  0
LINE
  8
0
  6
PHANTOM
 10
78.894180
 20
53.499969
 11
158.894180
 21
53.499969
  0
LINE
  8
0
  6
PHANTOM
 10
82.203323
 20
43.299965
 11
162.203323
 21
43.299965
  0
LINE
  8
0
  6
PHANTOM
 10
82.243416
 20
37.999969
 11
162.243408
 21
37.999969
  0
LINE
  8
0
  6
PHANTOM
 10
81.807953
 20
35.668602
 11
95.000000
 21
35.668602
  0
LINE
  8
0
  6
PHANTOM
 10
81.510223
 20
34.599968
 11
95.000000
 21
34.599968
  0
LINE
  8
0
  6
PHANTOM
 10
79.009636
 20
62.499969
 11
159.009644
 21
62.499969
  0
LINE
  8
0
  6
PHANTOM
 10
78.537643
 20
55.749969
 11
158.537643
 21
55.749969
  0
LINE
  8
0
  6
PHANTOM
 10
251.500000
 20
65.500000
 11
288.500000
 21
65.500000
  0
LINE
  8
0
  6
PHANTOM
 10
250.500000
 20
31.000000
 11
260.000000
 21
31.000000
  0
LINE
  8
0
  6
PHANTOM
 10
250.500000
 20
64.500000
 11
250.500000
 21
62.500000
  0
LINE
  8
0
  6
PHANTOM
 10
250.500000
 20
55.750000
 11
250.500000
 21
53.500000
  0
LINE
  8
0
  6
PHANTOM
 10
250.500000
 20
62.500015
 11
255.419571
 21
59.659698
  0
LINE
  8
0
  6
PHANTOM
 10
250.500000
 20
53.500000
 11
254.800003
 21
53.500000
  0
LINE
  8
0
  6
PHANTOM
 10
254.800003
 20
53.500000
 11
254.800003
 21
42.500000
  0
LINE
  8
0
  6
PHANTOM
 10
251.500000
 20
42.500000
 11
251.500000
 21
38.000000
  0
LINE
  8
0
  6
PHANTOM
 10
251.500000
 20
38.000000
 11
252.600006
 21
38.000000
  0
LINE
  8
0
  6
PHANTOM
 10
280.000000
 20
31.000000
 11
289.500000
 21
31.000000
  0
LINE
  8
0
  6
PHANTOM
 10
262.000000
 20
33.000000
 11
278.000000
 21
33.000000
  0
LINE
  8
0
  6
PHANTOM
 10
289.500000
 20
64.500000
 11
289.500000
 21
62.500000
  0
LINE
  8
0
  6
PHANTOM
 10
289.500000
 20
55.750000
 11
289.500000
 21
53.500000
  0
LINE
  8
0
  6
PHANTOM
 10
289.500000
 20
62.500000
 11
284.580444
 21
59.659679
  0
LINE
  8
0
  6
PHANTOM
 10
289.500000
 20
53.500000
 11
285.200012
 21
53.500000
  0
LINE
  8
0
  6
PHANTOM
 10
285.200012
 20
53.500000
 11
285.200012
 21
42.500000
  0
LINE
  8
0
  6
PHANTOM
 10
288.500000
 20
42.500000
 11
288.500000
 21
38.000000
  0
LINE
  8
0
  6
PHANTOM
 10
288.500000
 20
38.000000
 11
287.399994
 21
38.000000
  0
LINE
  8
0
  6
PHANTOM
 10
289.500000
 20
31.259186
 11
289.500000
 21
31.000000
  0
LINE
  8
0
  6
PHANTOM
 10
250.500000
 20
31.259186
 11
250.500000
 21
31.000000
  0
LINE
  8
0
  6
PHANTOM
 10
145.000000
 20
35.668602
 11
161.807953
 21
35.668602
  0
LINE
  8
0
  6
PHANTOM
 10
145.000000
 20
34.599968
 11
161.510223
 21
34.599968
  0
LINE
  8
0
  6
PHANTOM
 10
78.586609
 20
60.188499
 11
158.586609
 21
60.188499
  0
LINE
  8
0
  6
CENTER
 10
-145.873566
 20
-194.558487
 11
-35.873566
 21
-194.558487
  0
LINE
  8
0
  6
PHANTOM
 10
-140.873566
 20
-216.558487
 11
-40.873566
 21
-216.558487
  0
LINE
  8
0
  6
CENTER
 10
-90.873566
 20
-171.558487
 11
-90.873566
 21
-221.558472
  0
LINE
  8
0
  6
CENTER
 10
-145.873566
 20
-74.558495
 11
-35.873566
 21
-74.558495
  0
LINE
  8
0
  6
CENTER
 10
-90.873505
 20
-38.558495
 11
-90.873505
 21
-110.558502
  0
LINE
  8
0
  6
CENTER
 10
89.126404
 20
-171.558487
 11
89.126404
 21
-221.558502
  0
LINE
  8
0
  6
CENTER
 10
64.126404
 20
-194.558502
 11
114.126404
 21
-194.558502
  0
LINE
  8
0
  6
PHANTOM
 10
-140.873566
 20
-176.558487
 11
-40.873566
 21
-176.558487
  0
LINE
  8
0
  6
PHANTOM
 10
-140.873566
 20
-92.558502
 11
-40.873566
 21
-92.558502
  0
LINE
  8
0
  6
PHANTOM
 10
-140.873566
 20
-56.558495
 11
-40.873566
 21
-56.558495
  0
LINE
  8
0
  6
PHANTOM
 10
-142.484863
 20
-67.358498
 11
-42.484879
 21
-67.358498
  0
LINE
  8
0
  6
PHANTOM
 10
-139.262268
 20
-81.758499
 11
-39.262253
 21
-81.758499
  0
LINE
  8
0
  6
PHANTOM
 10
-141.689972
 20
-192.058502
 11
-41.689972
 21
-192.058502
  0
LINE
  8
0
  6
PHANTOM
 10
-138.542267
 20
-202.258514
 11
-38.542267
 21
-202.258514
  0
LINE
  8
0
  6
PHANTOM
 10
-138.438965
 20
-207.958496
 11
-38.438980
 21
-207.958496
  0
LINE
  8
0
  6
PHANTOM
 10
-139.238037
 20
-212.258514
 11
-115.873566
 21
-212.258514
  0
LINE
  8
0
  6
PHANTOM
 10
-142.044647
 20
-180.558502
 11
-42.044662
 21
-180.558502
  0
LINE
  8
0
  6
PHANTOM
 10
-142.458679
 20
-183.426544
 11
-42.458694
 21
-183.426544
  0
LINE
  8
0
  6
PHANTOM
 10
-142.330994
 20
-188.858490
 11
-42.330994
 21
-188.858490
  0
LINE
  8
0
  6
PHANTOM
 10
67.126404
 20
-216.558487
 11
77.126404
 21
-216.558487
  0
LINE
  8
0
  6
PHANTOM
 10
69.126404
 20
-176.558487
 11
109.126404
 21
-176.558487
  0
LINE
  8
0
  6
PHANTOM
 10
67.126404
 20
-178.558487
 11
67.126404
 21
-180.558487
  0
LINE
  8
0
  6
PHANTOM
 10
67.126404
 20
-189.786682
 11
67.126404
 21
-192.058487
  0
LINE
  8
0
  6
PHANTOM
 10
67.126373
 20
-180.558517
 11
72.366402
 21
-183.583847
  0
LINE
  8
0
  6
PHANTOM
 10
67.126404
 20
-192.058487
 11
70.426407
 21
-192.058487
  0
LINE
  8
0
  6
PHANTOM
 10
67.126404
 20
-203.058487
 11
67.126404
 21
-207.158478
  0
LINE
  8
0
  6
PHANTOM
 10
70.426407
 20
-192.058487
 11
70.426407
 21
-203.058487
  0
LINE
  8
0
  6
PHANTOM
 10
70.126404
 20
-210.458496
 11
70.426407
 21
-210.458496
  0
LINE
  8
0
  6
PHANTOM
 10
70.426407
 20
-207.158478
 11
70.426407
 21
-210.458496
  0
LINE
  8
0
  6
PHANTOM
 10
111.126404
 20
-178.558487
 11
111.126404
 21
-180.558487
  0
LINE
  8
0
  6
PHANTOM
 10
111.126404
 20
-189.786682
 11
111.126404
 21
-192.058487
  0
LINE
  8
0
  6
PHANTOM
 10
111.126442
 20
-180.558548
 11
105.886414
 21
-183.583878
  0
LINE
  8
0
  6
PHANTOM
 10
111.126404
 20
-192.058487
 11
107.826401
 21
-192.058487
  0
LINE
  8
0
  6
PHANTOM
 10
111.126404
 20
-203.058487
 11
111.126404
 21
-207.158478
  0
LINE
  8
0
  6
PHANTOM
 10
107.826401
 20
-192.058487
 11
107.826401
 21
-203.058487
  0
LINE
  8
0
  6
PHANTOM
 10
108.126404
 20
-210.458496
 11
107.826401
 21
-210.458496
  0
LINE
  8
0
  6
PHANTOM
 10
107.826401
 20
-207.158478
 11
107.826401
 21
-210.458496
  0
LINE
  8
0
  6
PHANTOM
 10
101.126404
 20
-216.558487
 11
111.126404
 21
-216.558487
  0
LINE
  8
0
  6
PHANTOM
 10
79.126404
 20
-214.558487
 11
99.126404
 21
-214.558487
  0
LINE
  8
0
  6
PHANTOM
 10
111.126404
 20
-216.487457
 11
111.126404
 21
-216.558487
  0
LINE
  8
0
  6
PHANTOM
 10
67.126404
 20
-216.487457
 11
67.126404
 21
-216.558487
  0
LINE
  8
0
  6
PHANTOM
 10
-65.873566
 20
-212.258514
 11
-39.238037
 21
-212.258514
  0
LINE
  8
0
 10
-270.873566
 20
40.599998
 11
-230.873566
 21
40.599998
  0
LINE
  8
0
 10
-270.873566
 20
35.599998
 11
-230.873566
 21
35.599998
  0
LINE
  8
0
 10
-230.873566
 20
35.599998
 11
-230.873566
 21
40.599998
  0
LINE
  8
0
 10
-270.873566
 20
35.599998
 11
-270.873566
 21
40.599998
  0
LINE
  8
0
  6
CENTER
 10
-264.873566
 20
32.599998
 11
-264.873566
 21
43.599998
  0
LINE
  8
0
  6
DASHED
 10
-266.573578
 20
35.599998
 11
-266.573578
 21
40.599998
  0
LINE
  8
0
  6
DASHED
 10
-263.173553
 20
35.599998
 11
-263.173553
 21
40.599998
  0
LINE
  8
0
  6
DASHED
 10
-238.573578
 20
35.599998
 11
-238.573578
 21
40.599998
  0
LINE
  8
0
  6
CENTER
 10
-236.873566
 20
32.599998
 11
-236.873566
 21
43.599998
  0
LINE
  8
0
  6
DASHED
 10
-235.173553
 20
35.599998
 11
-235.173553
 21
40.599998
  0
LINE
  8
0
 10
-270.873535
 20
169.999969
 11
-230.873535
 21
169.999969
  0
LINE
  8
0
 10
-270.873566
 20
150.000015
 11
-270.873566
 21
141.000015
  0
LINE
  8
0
 10
-230.873566
 20
149.999939
 11
-230.873566
 21
140.999939
  0
LINE
  8
0
 10
-270.873596
 20
140.999969
 11
-230.873596
 21
140.999969
  0
LINE
  8
0
 10
-270.873596
 20
149.999969
 11
-230.873596
 21
149.999969
  0
LINE
  8
0
 10
-230.873566
 20
169.999939
 11
-230.873566
 21
178.999939
  0
LINE
  8
0
 10
-270.873566
 20
170.000015
 11
-270.873566
 21
179.000015
  0
LINE
  8
0
 10
-270.873535
 20
178.999969
 11
-230.873535
 21
178.999969
  0
LINE
  8
0
  6
CENTER
 10
-268.373627
 20
144.499969
 11
-261.373627
 21
144.499969
  0
LINE
  8
0
  6
CENTER
 10
-264.873596
 20
148.000000
 11
-264.873596
 21
141.000000
  0
LINE
  8
0
  6
CENTER
 10
-233.373627
 20
144.499969
 11
-240.373627
 21
144.499969
  0
LINE
  8
0
  6
CENTER
 10
-236.873596
 20
147.999939
 11
-236.873596
 21
140.999939
  0
LINE
  8
0
  6
CENTER
 10
-268.373566
 20
175.499969
 11
-261.373566
 21
175.499969
  0
LINE
  8
0
  6
CENTER
 10
-264.873596
 20
172.000000
 11
-264.873596
 21
179.000000
  0
LINE
  8
0
  6
CENTER
 10
-233.373566
 20
175.499969
 11
-240.373566
 21
175.499969
  0
LINE
  8
0
  6
CENTER
 10
-236.873596
 20
171.999939
 11
-236.873596
 21
178.999939
  0
LINE
  8
0
 10
-92.373672
 20
39.600002
 11
-92.373672
 21
37.547352
  0
LINE
  8
0
 10
-90.373672
 20
37.900005
 11
-90.373672
 21
35.600002
  0
LINE
  8
0
 10
-90.373688
 20
37.899933
 11
-92.373688
 21
37.547279
  0
LINE
  8
0
 10
-90.373665
 20
35.599998
 11
-83.373665
 21
35.599998
  0
LINE
  8
0
 10
-83.373672
 20
40.600006
 11
-83.373672
 21
35.600006
  0
LINE
  8
0
 10
-121.373703
 20
37.899910
 11
-119.373703
 21
37.547256
  0
LINE
  8
0
 10
-119.373672
 20
39.599995
 11
-119.373672
 21
37.547344
  0
LINE
  8
0
 10
-121.373665
 20
35.599998
 11
-128.373657
 21
35.599998
  0
LINE
  8
0
 10
-121.373672
 20
37.899998
 11
-121.373672
 21
35.599995
  0
LINE
  8
0
 10
-128.373672
 20
40.599991
 11
-128.373672
 21
35.599991
  0
LINE
  8
0
 10
-83.373672
 20
40.599998
 11
-91.373672
 21
40.599998
  0
LINE
  8
0
 10
-128.373672
 20
40.599998
 11
-120.373672
 21
40.599998
  0
LINE
  8
0
  6
CENTER
 10
-124.873672
 20
43.599995
 11
-124.873672
 21
32.599995
  0
LINE
  8
0
  6
DASHED
 10
-126.573669
 20
40.599991
 11
-126.573669
 21
35.599991
  0
LINE
  8
0
  6
DASHED
 10
-123.173676
 20
40.599995
 11
-123.173676
 21
35.599995
  0
LINE
  8
0
  6
CENTER
 10
-86.873672
 20
43.600002
 11
-86.873672
 21
32.600002
  0
LINE
  8
0
  6
DASHED
 10
-88.573669
 20
40.600002
 11
-88.573669
 21
35.600002
  0
LINE
  8
0
  6
DASHED
 10
-85.173676
 20
40.600006
 11
-85.173676
 21
35.600006
  0
LINE
  8
0
 10
95.000015
 20
37.559196
 11
145.000015
 21
37.559196
  0
LINE
  8
0
 10
95.000015
 20
31.259193
 11
145.000015
 21
31.259193
  0
LINE
  8
0
 10
145.000015
 20
31.259193
 11
145.000015
 21
37.559196
  0
LINE
  8
0
 10
95.000015
 20
31.259193
 11
95.000015
 21
37.559196
  0
LINE
  8
0
  6
CENTER
 10
102.500015
 20
28.259193
 11
102.500015
 21
40.559196
  0
LINE
  8
0
  6
DASHED
 10
100.250015
 20
31.259193
 11
100.250015
 21
37.559196
  0
LINE
  8
0
  6
DASHED
 10
104.750015
 20
31.259193
 11
104.750015
 21
37.559196
  0
LINE
  8
0
  6
DASHED
 10
135.250015
 20
31.259193
 11
135.250015
 21
37.559196
  0
LINE
  8
0
  6
CENTER
 10
137.500015
 20
28.259193
 11
137.500015
 21
40.559196
  0
LINE
  8
0
  6
DASHED
 10
139.750015
 20
31.259193
 11
139.750015
 21
37.559196
  0
LINE
  8
0
 10
94.999969
 20
167.999939
 11
94.999969
 21
179.499939
  0
LINE
  8
0
 10
144.999969
 20
167.999939
 11
144.999969
 21
179.499939
  0
LINE
  8
0
 10
94.999969
 20
167.999939
 11
144.999969
 21
167.999939
  0
LINE
  8
0
 10
94.999969
 20
141.999939
 11
94.999969
 21
130.499939
  0
LINE
  8
0
 10
144.999969
 20
141.999939
 11
144.999969
 21
130.499939
  0
LINE
  8
0
 10
94.999969
 20
130.499939
 11
144.999969
 21
130.499939
  0
LINE
  8
0
 10
94.999969
 20
141.999939
 11
144.999969
 21
141.999939
  0
LINE
  8
0
 10
94.999969
 20
179.499939
 11
144.999969
 21
179.499939
  0
LINE
  8
0
  6
CENTER
 10
97.999969
 20
134.999939
 11
106.999969
 21
134.999939
  0
LINE
  8
0
  6
CENTER
 10
102.499969
 20
139.499939
 11
102.499969
 21
130.499939
  0
LINE
  8
0
  6
CENTER
 10
141.999908
 20
134.999939
 11
132.999908
 21
134.999939
  0
LINE
  8
0
  6
CENTER
 10
137.499908
 20
139.499939
 11
137.499908
 21
130.499939
  0
LINE
  8
0
  6
CENTER
 10
137.499908
 20
170.499939
 11
137.499908
 21
179.499939
  0
LINE
  8
0
  6
CENTER
 10
141.999908
 20
174.999939
 11
132.999908
 21
174.999939
  0
LINE
  8
0
  6
CENTER
 10
102.499969
 20
170.499939
 11
102.499969
 21
179.499939
  0
LINE
  8
0
  6
CENTER
 10
97.999969
 20
174.999939
 11
106.999969
 21
174.999939
  0
LINE
  8
0
 10
298.500000
 20
37.559177
 11
298.500000
 21
31.259174
  0
LINE
  8
0
 10
289.500000
 20
31.259174
 11
298.500000
 21
31.259174
  0
LINE
  8
0
 10
241.500000
 20
37.559177
 11
241.500000
 21
31.259174
  0
LINE
  8
0
 10
250.500000
 20
31.259174
 11
241.500000
 21
31.259174
  0
LINE
  8
0
 10
252.000000
 20
37.559177
 11
241.500000
 21
37.559177
  0
LINE
  8
0
 10
289.500000
 20
34.599987
 11
289.500000
 21
31.259174
  0
LINE
  8
0
 10
253.000000
 20
36.559177
 11
253.000000
 21
34.159176
  0
LINE
  8
0
 10
250.500046
 20
34.600014
 11
253.000031
 21
34.159206
  0
LINE
  8
0
 10
287.000000
 20
36.559177
 11
287.000000
 21
34.159176
  0
LINE
  8
0
 10
250.500000
 20
34.599987
 11
250.500000
 21
31.259174
  0
LINE
  8
0
 10
289.499969
 20
34.600033
 11
286.999969
 21
34.159225
  0
LINE
  8
0
  6
CENTER
 10
294.000000
 20
40.559177
 11
294.000000
 21
28.259174
  0
LINE
  8
0
  6
DASHED
 10
243.750000
 20
37.559177
 11
243.750000
 21
31.259174
  0
LINE
  8
0
  6
CENTER
 10
246.000000
 20
40.559177
 11
246.000000
 21
28.259174
  0
LINE
  8
0
  6
DASHED
 10
248.250000
 20
37.559177
 11
248.250000
 21
31.259174
  0
LINE
  8
0
  6
DASHED
 10
296.250000
 20
37.559177
 11
296.250000
 21
31.259174
  0
LINE
  8
0
  6
DASHED
 10
291.750000
 20
37.559177
 11
291.750000
 21
31.259174
  0
LINE
  8
0
 10
288.000000
 20
37.559177
 11
298.500000
 21
37.559177
  0
LINE
  8
0
 10
-115.873642
 20
-216.487534
 11
-65.873642
 21
-216.487534
  0
LINE
  8
0
 10
-115.873642
 20
-208.487534
 11
-65.873642
 21
-208.487534
  0
LINE
  8
0
 10
-115.873642
 20
-208.487534
 11
-115.873642
 21
-216.487534
  0
LINE
  8
0
 10
-65.873642
 20
-208.487534
 11
-65.873642
 21
-216.487534
  0
LINE
  8
0
  6
CENTER
 10
-108.373642
 20
-205.487534
 11
-108.373642
 21
-219.487534
  0
LINE
  8
0
  6
DASHED
 10
-111.123642
 20
-208.487534
 11
-111.123642
 21
-216.487534
  0
LINE
  8
0
  6
DASHED
 10
-105.623642
 20
-208.487534
 11
-105.623642
 21
-216.487534
  0
LINE
  8
0
  6
DASHED
 10
-76.123642
 20
-208.487534
 11
-76.123642
 21
-216.487534
  0
LINE
  8
0
  6
CENTER
 10
-73.373642
 20
-205.487534
 11
-73.373642
 21
-219.487534
  0
LINE
  8
0
  6
DASHED
 10
-70.623642
 20
-208.487534
 11
-70.623642
 21
-216.487534
  0
LINE
  8
0
 10
-115.873535
 20
-43.558479
 11
-65.873535
 21
-43.558479
  0
LINE
  8
0
 10
-65.873535
 20
-59.558479
 11
-65.873535
 21
-43.558479
  0
LINE
  8
0
 10
-115.873535
 20
-59.558479
 11
-115.873535
 21
-43.558479
  0
LINE
  8
0
 10
-115.873535
 20
-89.558487
 11
-115.873535
 21
-105.558487
  0
LINE
  8
0
 10
-65.873535
 20
-89.558487
 11
-65.873535
 21
-105.558487
  0
LINE
  8
0
 10
-115.873535
 20
-105.558487
 11
-65.873535
 21
-105.558487
  0
LINE
  8
0
 10
-115.873535
 20
-89.558487
 11
-65.873535
 21
-89.558487
  0
LINE
  8
0
 10
-115.873535
 20
-59.558479
 11
-65.873535
 21
-59.558479
  0
LINE
  8
0
  6
CENTER
 10
-108.373535
 20
-94.058487
 11
-108.373535
 21
-105.058487
  0
LINE
  8
0
  6
CENTER
 10
-113.873535
 20
-99.558487
 11
-102.873535
 21
-99.558487
  0
LINE
  8
0
  6
CENTER
 10
-78.873535
 20
-99.558487
 11
-67.873535
 21
-99.558487
  0
LINE
  8
0
  6
CENTER
 10
-73.373535
 20
-94.058487
 11
-73.373535
 21
-105.058487
  0
LINE
  8
0
  6
CENTER
 10
-113.873535
 20
-49.558479
 11
-102.873535
 21
-49.558479
  0
LINE
  8
0
  6
CENTER
 10
-108.373535
 20
-55.058479
 11
-108.373535
 21
-44.058479
  0
LINE
  8
0
  6
CENTER
 10
-78.873535
 20
-49.558479
 11
-67.873535
 21
-49.558479
  0
LINE
  8
0
  6
CENTER
 10
-73.373535
 20
-55.058479
 11
-73.373535
 21
-44.058479
  0
LINE
  8
0
 10
124.126411
 20
-209.487488
 11
124.126411
 21
-216.487488
  0
LINE
  8
0
 10
54.126411
 20
-209.487488
 11
54.126411
 21
-216.487488
  0
LINE
  8
0
 10
67.126411
 20
-216.487488
 11
54.126411
 21
-216.487488
  0
LINE
  8
0
 10
111.126411
 20
-216.487488
 11
124.126411
 21
-216.487488
  0
LINE
  8
0
 10
111.126411
 20
-212.258514
 11
111.126411
 21
-216.487488
  0
LINE
  8
0
 10
108.126411
 20
-209.487488
 11
108.126411
 21
-212.787506
  0
LINE
  8
0
 10
111.126427
 20
-212.258469
 11
108.126434
 21
-212.787445
  0
LINE
  8
0
 10
69.126411
 20
-208.487488
 11
55.126411
 21
-208.487488
  0
LINE
  8
0
 10
67.126411
 20
-212.258514
 11
67.126411
 21
-216.487488
  0
LINE
  8
0
 10
70.126411
 20
-209.487488
 11
70.126411
 21
-212.787506
  0
LINE
  8
0
 10
67.126411
 20
-212.258453
 11
70.126411
 21
-212.787430
  0
LINE
  8
0
 10
109.126411
 20
-208.487488
 11
123.126411
 21
-208.487488
  0
LINE
  8
0
  6
DASHED
 10
57.376411
 20
-208.487488
 11
57.376411
 21
-216.487488
  0
LINE
  8
0
  6
CENTER
 10
60.126411
 20
-205.487488
 11
60.126411
 21
-219.487488
  0
LINE
  8
0
  6
DASHED
 10
62.876411
 20
-208.487488
 11
62.876411
 21
-216.487488
  0
LINE
  8
0
  6
DASHED
 10
115.376411
 20
-208.487488
 11
115.376411
 21
-216.487488
  0
LINE
  8
0
  6
CENTER
 10
118.126411
 20
-205.487488
 11
118.126411
 21
-219.487488
  0
LINE
  8
0
  6
DASHED
 10
120.876411
 20
-208.487488
 11
120.876411
 21
-216.487488
  0
ARC
  8
0
 62
     5
 10
273.035400
 20
-235.045654
 40
2.211884
 50
0.000000
 51
90.000000
  0
ARC
  8
0
 62
     5
 10
291.283569
 20
-246.934647
 40
2.211899
 50
270.000000
 51
0.000000
  0
ARC
  8
0
 62
     5
 10
290.177551
 20
-236.151566
 40
3.317841
 50
0.000000
 51
90.000000
  0
ARC
  8
0
 62
     5
 10
310.361115
 20
-236.812775
 40
2.211890
 50
294.999969
 51
0.000000
  0
ARC
  8
0
 62
     5
 10
310.361115
 20
-235.045654
 40
2.211884
 50
0.000000
 51
90.000000
  0
ARC
  8
0
 62
     5
 10
327.503357
 20
-232.833755
 40
3.317840
 50
291.688385
 51
0.000000
  0
ARC
  8
0
 62
     5
 10
326.397308
 20
-232.083389
 40
1.105946
 50
291.688965
 51
0.000000
  0
ARC
  8
0
  6
PHANTOM
 10
-111.252335
 20
35.000000
 40
1.500000
 50
90.000000
 51
135.000107
  0
ARC
  8
0
  6
PHANTOM
 10
-100.494980
 20
35.000000
 40
1.500002
 50
45.000000
 51
90.000000
  0
ARC
  8
0
  6
PHANTOM
 10
-120.373672
 20
61.000000
 40
1.000000
 50
90.000000
 51
180.000000
  0
ARC
  8
0
  6
PHANTOM
 10
-121.373672
 20
58.300003
 40
4.299999
 50
270.000000
 51
350.021973
  0
ARC
  8
0
  6
PHANTOM
 10
-120.973679
 20
43.900002
 40
0.399994
 50
0.000000
 51
180.000000
  0
ARC
  8
0
  6
PHANTOM
 10
-120.073669
 20
43.599998
 40
0.500000
 50
180.000000
 51
270.000000
  0
ARC
  8
0
  6
PHANTOM
 10
-118.873672
 20
44.099998
 40
1.000000
 50
270.000000
 51
0.000000
  0
ARC
  8
0
  6
PHANTOM
 10
-119.773666
 20
39.599998
 40
1.000001
 50
293.577759
 51
90.000000
  0
ARC
  8
0
  6
PHANTOM
 10
-91.973679
 20
39.599998
 40
1.000000
 50
90.000000
 51
246.422241
  0
ARC
  8
0
  6
PHANTOM
 10
-91.673676
 20
43.599998
 40
0.500000
 50
270.000000
 51
0.000000
  0
ARC
  8
0
  6
PHANTOM
 10
-92.873672
 20
44.099998
 40
1.000000
 50
180.000000
 51
270.000000
  0
ARC
  8
0
  6
PHANTOM
 10
-91.373672
 20
61.000000
 40
1.000000
 50
0.000000
 51
90.000000
  0
ARC
  8
0
  6
PHANTOM
 10
-90.373672
 20
58.300003
 40
4.300003
 50
189.978027
 51
270.000000
  0
ARC
  8
0
  6
PHANTOM
 10
-90.773666
 20
43.900002
 40
0.399994
 50
0.000000
 51
180.000000
  0
ARC
  8
0
  6
PHANTOM
 10
-197.125839
 20
165.999969
 40
14.999999
 50
156.421814
 51
203.578125
  0
ARC
  8
0
  6
PHANTOM
 10
-224.621292
 20
153.999969
 40
14.999999
 50
336.421814
 51
23.578180
  0
ARC
  8
0
  6
PHANTOM
 10
-197.125839
 20
56.000000
 40
14.999998
 50
156.421829
 51
203.578156
  0
ARC
  8
0
  6
PHANTOM
 10
-223.863953
 20
42.500000
 40
15.000005
 50
330.000000
 51
29.999989
  0
ARC
  8
0
  6
PHANTOM
 10
-277.125854
 20
165.999969
 40
15.000013
 50
156.421844
 51
203.578110
  0
ARC
  8
0
  6
PHANTOM
 10
-304.621277
 20
153.999969
 40
15.000013
 50
336.421844
 51
23.578156
  0
ARC
  8
0
  6
PHANTOM
 10
-277.125854
 20
56.000000
 40
15.000011
 50
156.421860
 51
203.578125
  0
ARC
  8
0
  6
PHANTOM
 10
-303.863953
 20
42.500000
 40
15.000005
 50
330.000000
 51
29.999989
  0
ARC
  8
0
  6
PHANTOM
 10
178.437393
 20
162.750000
 40
20.000000
 50
157.200974
 51
202.798996
  0
ARC
  8
0
  6
PHANTOM
 10
141.562607
 20
147.250000
 40
20.000000
 50
337.200958
 51
22.799032
  0
ARC
  8
0
  6
PHANTOM
 10
61.562607
 20
147.250000
 40
20.000000
 50
337.200958
 51
22.799032
  0
ARC
  8
0
  6
PHANTOM
 10
98.437393
 20
162.750000
 40
20.000000
 50
157.200974
 51
202.798981
  0
ARC
  8
0
  6
PHANTOM
 10
178.437393
 20
57.750000
 40
19.999996
 50
157.200989
 51
202.798996
  0
ARC
  8
0
  6
PHANTOM
 10
142.400284
 20
40.500000
 40
20.000000
 50
331.640656
 51
28.359350
  0
ARC
  8
0
  6
PHANTOM
 10
98.437393
 20
57.750000
 40
19.999996
 50
157.200989
 51
202.798996
  0
ARC
  8
0
  6
PHANTOM
 10
62.400284
 20
40.500000
 40
20.000000
 50
331.640656
 51
28.359350
  0
ARC
  8
0
  6
PHANTOM
 10
251.500000
 20
64.500000
 40
1.000000
 50
90.000000
 51
180.000000
  0
ARC
  8
0
  6
PHANTOM
 10
250.500000
 20
60.799995
 40
5.049999
 50
270.000000
 51
346.949768
  0
ARC
  8
0
  6
PHANTOM
 10
252.300003
 20
42.500000
 40
0.800003
 50
0.000000
 51
180.000000
  0
ARC
  8
0
  6
PHANTOM
 10
253.949997
 20
42.500000
 40
0.850006
 50
180.000000
 51
0.000000
  0
ARC
  8
0
  6
PHANTOM
 10
252.600006
 20
36.799995
 40
1.199998
 50
289.470947
 51
90.000000
  0
ARC
  8
0
  6
PHANTOM
 10
278.000000
 20
31.000000
 40
2.000000
 50
0.000000
 51
90.000000
  0
ARC
  8
0
  6
PHANTOM
 10
262.000000
 20
31.000000
 40
2.000000
 50
90.000000
 51
179.999939
  0
ARC
  8
0
  6
PHANTOM
 10
287.399994
 20
36.799995
 40
1.200001
 50
90.000000
 51
250.529053
  0
ARC
  8
0
  6
PHANTOM
 10
288.500000
 20
64.500000
 40
1.000000
 50
0.000000
 51
90.000000
  0
ARC
  8
0
  6
PHANTOM
 10
289.500000
 20
60.799995
 40
5.050014
 50
193.050140
 51
270.000000
  0
ARC
  8
0
  6
PHANTOM
 10
287.700012
 20
42.500000
 40
0.799988
 50
0.000000
 51
180.000000
  0
ARC
  8
0
  6
PHANTOM
 10
286.049988
 20
42.500000
 40
0.850006
 50
180.000000
 51
0.000000
  0
ARC
  8
0
  6
PHANTOM
 10
69.126404
 20
-178.558487
 40
2.000000
 50
90.000000
 51
180.000000
  0
ARC
  8
0
  6
PHANTOM
 10
67.126404
 20
-182.858490
 40
6.000002
 50
278.213257
 51
341.441803
  0
ARC
  8
0
  6
PHANTOM
 10
68.126404
 20
-189.786682
 40
1.000003
 50
98.213371
 51
180.000000
  0
ARC
  8
0
  6
PHANTOM
 10
71.866409
 20
-184.449829
 40
0.999997
 50
341.441742
 51
60.000069
  0
ARC
  8
0
  6
PHANTOM
 10
67.926407
 20
-203.058487
 40
0.800003
 50
0.000000
 51
180.000000
  0
ARC
  8
0
  6
PHANTOM
 10
69.576401
 20
-203.058487
 40
0.849998
 50
180.000000
 51
0.000000
  0
ARC
  8
0
  6
PHANTOM
 10
67.926407
 20
-207.158478
 40
0.800003
 50
180.000000
 51
0.000000
  0
ARC
  8
0
  6
PHANTOM
 10
69.576401
 20
-207.158478
 40
0.849998
 50
0.000000
 51
180.000000
  0
ARC
  8
0
  6
PHANTOM
 10
108.676407
 20
-207.158478
 40
0.849998
 50
0.000000
 51
180.000000
  0
ARC
  8
0
  6
PHANTOM
 10
109.126404
 20
-178.558487
 40
2.000000
 50
0.000000
 51
90.000000
  0
ARC
  8
0
  6
PHANTOM
 10
111.126404
 20
-182.858490
 40
5.999999
 50
198.558212
 51
261.786743
  0
ARC
  8
0
  6
PHANTOM
 10
110.126404
 20
-189.786682
 40
1.000000
 50
0.000000
 51
81.786629
  0
ARC
  8
0
  6
PHANTOM
 10
106.386398
 20
-184.449829
 40
1.000002
 50
119.999931
 51
198.558258
  0
ARC
  8
0
  6
PHANTOM
 10
110.326401
 20
-203.058487
 40
0.800003
 50
0.000000
 51
180.000000
  0
ARC
  8
0
  6
PHANTOM
 10
108.676407
 20
-203.058487
 40
0.849998
 50
180.000000
 51
0.000000
  0
ARC
  8
0
  6
PHANTOM
 10
110.326401
 20
-207.158478
 40
0.800003
 50
180.000000
 51
0.000000
  0
ARC
  8
0
  6
PHANTOM
 10
79.126404
 20
-216.558487
 40
2.000000
 50
90.000000
 51
180.000000
  0
ARC
  8
0
  6
PHANTOM
 10
99.126404
 20
-216.558487
 40
2.000000
 50
0.000000
 51
90.000000
  0
ARC
  8
0
  6
PHANTOM
 10
-17.549759
 20
-185.558487
 40
25.000002
 50
158.899811
 51
201.100159
  0
ARC
  8
0
  6
PHANTOM
 10
-63.323517
 20
-205.558487
 40
25.000000
 50
333.896118
 51
26.103882
  0
ARC
  8
0
  6
PHANTOM
 10
-17.549759
 20
-65.558495
 40
25.000002
 50
158.899811
 51
201.100159
  0
ARC
  8
0
  6
PHANTOM
 10
-64.197372
 20
-83.558502
 40
25.000000
 50
338.899811
 51
21.100197
  0
ARC
  8
0
  6
PHANTOM
 10
-163.323517
 20
-205.558487
 40
25.000006
 50
333.896118
 51
21.100164
  0
ARC
  8
0
  6
PHANTOM
 10
-117.549744
 20
-185.558487
 40
25.000000
 50
158.899811
 51
201.100159
  0
ARC
  8
0
  6
PHANTOM
 10
-164.197388
 20
-83.558502
 40
25.000000
 50
338.899811
 51
21.100197
  0
ARC
  8
0
  6
PHANTOM
 10
-117.549744
 20
-65.558495
 40
24.999998
 50
158.899811
 51
201.100159
  0
CIRCLE
  8
0
 10
-236.873566
 20
175.499939
 40
1.700000
  0
CIRCLE
  8
0
 10
-264.873566
 20
175.500000
 40
1.700000
  0
CIRCLE
  8
0
 10
-236.873627
 20
144.499939
 40
1.700000
  0
CIRCLE
  8
0
 10
-264.873627
 20
144.500000
 40
1.700000
  0
ARC
  8
0
 10
-120.373672
 20
39.599995
 40
1.000000
 50
0.000000
 51
90.000000
  0
ARC
  8
0
 10
-91.373672
 20
39.600002
 40
1.000000
 50
90.000000
 51
180.000000
  0
CIRCLE
  8
0
 10
137.499908
 20
174.999939
 40
2.250000
  0
CIRCLE
  8
0
 10
102.499969
 20
174.999939
 40
2.250000
  0
CIRCLE
  8
0
 10
137.499908
 20
134.999939
 40
2.250000
  0
CIRCLE
  8
0
 10
102.499969
 20
134.999939
 40
2.250000
  0
ARC
  8
0
 10
252.000000
 20
36.559177
 40
1.000000
 50
0.000000
 51
90.000000
  0
ARC
  8
0
 10
288.000000
 20
36.559177
 40
1.000000
 50
90.000000
 51
180.000000
  0
CIRCLE
  8
0
 10
-73.373535
 20
-49.558479
 40
2.750000
  0
CIRCLE
  8
0
 10
-108.373535
 20
-49.558479
 40
2.750000
  0
CIRCLE
  8
0
 10
-108.373535
 20
-99.558487
 40
2.750000
  0
CIRCLE
  8
0
 10
-73.373535
 20
-99.558487
 40
2.750000
  0
ARC
  8
0
 10
55.126411
 20
-209.487488
 40
1.000000
 50
90.000000
 51
180.000000
  0
ARC
  8
0
 10
69.126411
 20
-209.487488
 40
1.000000
 50
0.000000
 51
90.000000
  0
ARC
  8
0
 10
109.126411
 20
-209.487488
 40
1.000000
 50
90.000000
 51
180.000000
  0
ARC
  8
0
 10
123.126411
 20
-209.487488
 40
1.000000
 50
0.000000
 51
90.000000
  0
TEXT
  8
0
 10
226.462494
 20
233.607468
 40
8.500000
  1
DATE : OCT ,1991
 50
0.000000
 41
1.052631
 51
0.000000
  7
STANDARD
  0
TEXT
  8
0
 10
-365.779938
 20
232.257462
 40
10.000000
  1
ORGA F SUPPORT
 50
0.000000
 41
1.052632
 51
0.000000
  7
STANDARD
  0
TEXT
  8
0
 10
-197.052139
 20
222.956390
 40
10.000000
  1
BORE : 16
 50
0.000000
 41
1.052632
 51
0.000000
  7
STANDARD
  0
TEXT
  8
0
 10
23.821430
 20
222.956390
 40
10.000000
  1
BORE : 20
 50
0.000000
 41
1.052632
 51
0.000000
  7
STANDARD
  0
TEXT
  8
0
 10
-347.052124
 20
-38.000000
 40
10.000000
  1
BORE : 25
 50
0.000000
 41
1.052632
 51
0.000000
  7
STANDARD
  0
ENDSEC
  0
EOF
