  0
SECTION
  2
HEADER
  0
ENDSEC
  0
SECTION
  2
TABLES
  0
TABLE
  2
LTYPE
 70
     4
  0
LTYPE
  2
CONTINUOUS
 70
    64
  3
Solid line
 72
    65
 73
     0
 40
0.000000
  0
LTYPE
  2
DASHED
 70
    64
  3
__ __ __ __ __ __ __ __ __ __ __ __ __ __ __
 72
    65
 73
     2
 40
3.500000
 49
2.000000
 49
-1.500000
  0
LTYPE
  2
CENTER
 70
    64
  3
____ _ ____ _ ____ _ ____ _ ____ _ ____ _ ____
 72
    65
 73
     4
 40
17.500000
 49
13.000000
 49
-1.500000
 49
1.500000
 49
-1.500000
  0
LTYPE
  2
PHANTOM
 70
    64
  3
_____ _ _ _____ _ _ _____ _ _ _____ _ _ ____  
 72
    65
 73
     6
 40
15.500000
 49
8.000000
 49
-1.500000
 49
1.500000
 49
-1.500000
 49
1.500000
 49
-1.500000
  0
LTYPE
  2
DASHED1
 70
    64
  3
__ __ __ __ __ __ __ __ __ __ __ __ __ __ __
 72
    65
 73
     2
 40
1.500000
 49
1.000000
 49
-0.500000
  0
LTYPE
  2
DASHED2
 70
    64
  3
__ __ __ __ __ __ __ __ __ __ __ __ __ __ __
 72
    65
 73
     2
 40
3.500000
 49
2.500000
 49
-1.000000
  0
LTYPE
  2
DASHED3
 70
    64
  3
__ __ __ __ __ __ __ __ __ __ __ __ __ __ __
 72
    65
 73
     2
 40
6.000000
 49
4.000000
 49
-2.000000
  0
LTYPE
  2
DASHED4
 70
    64
  3
__ __ __ __ __ __ __ __ __ __ __ __ __ __ __
 72
    65
 73
     2
 40
12.000000
 49
10.000000
 49
-2.000000
  0
LTYPE
  2
DASHED5
 70
    64
  3
__ __ __ __ __ __ __ __ __ __ __ __ __ __ __
 72
    65
 73
     2
 40
17.000000
 49
15.000000
 49
-2.000000
  0
LTYPE
  2
DASHED6
 70
    64
  3
__ __ __ __ __ __ __ __ __ __ __ __ __ __ __
 72
    65
 73
     2
 40
29.000000
 49
27.000000
 49
-2.000000
  0
LTYPE
  2
PHANTOM1
 70
    64
  3
_____ _ _ _____ _ _ _____ _ _ _____ _ _ ____  
 72
    65
 73
     6
 40
31.000000
 49
25.000000
 49
-1.500000
 49
1.000000
 49
-1.000000
 49
1.000000
 49
-1.500000
  0
LTYPE
  2
PHANTOM2
 70
    64
  3
_____ _ _ _____ _ _ _____ _ _ _____ _ _ ____  
 72
    65
 73
     6
 40
36.000000
 49
27.000000
 49
-1.500000
 49
2.500000
 49
-1.000000
 49
2.500000
 49
-1.500000
  0
LTYPE
  2
PHANTOM3
 70
    64
  3
_____ _ _ _____ _ _ _____ _ _ _____ _ _ ____  
 72
    65
 73
     6
 40
78.000000
 49
64.000000
 49
-2.000000
 49
4.000000
 49
-2.000000
 49
4.000000
 49
-2.000000
  0
LTYPE
  2
CENTER1
 70
    64
  3
____ _ ____ _ ____ _ ____ _ ____ _ ____ _ ____
 72
    65
 73
     4
 40
19.000000
 49
14.000000
 49
-1.000000
 49
3.000000
 49
-1.000000
  0
LTYPE
  2
CENTER2
 70
    64
  3
____ _ ____ _ ____ _ ____ _ ____ _ ____ _ ____
 72
    65
 73
     4
 40
28.500000
 49
25.000000
 49
-1.000000
 49
1.500000
 49
-1.000000
  0
LTYPE
  2
CENTER3
 70
    64
  3
____ _ ____ _ ____ _ ____ _ ____ _ ____ _ ____
 72
    65
 73
     4
 40
31.500000
 49
27.000000
 49
-1.000000
 49
2.500000
 49
-1.000000
  0
LTYPE
  2
CENTER4
 70
    64
  3
____ _ ____ _ ____ _ ____ _ ____ _ ____ _ ____
 72
    65
 73
     4
 40
50.000000
 49
45.000000
 49
-1.000000
 49
3.000000
 49
-1.000000
  0
LTYPE
  2
CENTER5
 70
    64
  3
____ _ ____ _ ____ _ ____ _ ____ _ ____ _ ____
 72
    65
 73
     4
 40
100.000000
 49
92.000000
 49
-2.000000
 49
4.000000
 49
-2.000000
  0
LTYPE
  2
SBK1
 70
    64
  3
______ _ _ _ ______ _ _ _ ______ _ _ _ _____  
 72
    65
 73
     8
 40
60.500000
 49
45.000000
 49
-2.000000
 49
2.500000
 49
-2.000000
 49
2.500000
 49
-2.000000
 49
2.500000
 49
-2.000000
  0
LTYPE
  2
SBK2
 70
    64
  3
______ _ _ _ ______ _ _ _ ______ _ _ _ _____  
 72
    65
 73
     8
 40
84.000000
 49
64.000000
 49
-2.000000
 49
4.000000
 49
-2.000000
 49
4.000000
 49
-2.000000
 49
4.000000
 49
-2.000000
  0
LTYPE
  2
STCH
 70
    64
  3
__ __ __ __ __ __ __ __ __ __ __ __ __ __ __
 72
    65
 73
     2
 40
3.000000
 49
1.000000
 49
-2.000000
  0
LTYPE
  2
MTCH
 70
    64
  3
_____ _ _ _____ _ _ _____ _ _ _____ _ _ ____  
 72
    65
 73
     6
 40
80.000000
 49
66.000000
 49
-2.000000
 49
4.000000
 49
-2.000000
 49
4.000000
 49
-2.000000
  0
ENDTAB
  0
TABLE
  2
LAYER
 70
     1
  0
LAYER
  2
0
 70
     0
 62
     7
  6
CONTINUOUS
  0
ENDTAB
  0
TABLE
  2
STYLE
 70
     1
  0
STYLE
  2
STANDARD
 70
     0
 40
0.000000
 41
1.000000
 50
0.000000
 71
     0
 42
0.200000
  3
txt
  4
BIGFONT
  0
ENDTAB
  0
TABLE
  2
VIEW
 70
     0
  0
ENDTAB
  0
ENDSEC
  0
SECTION
  2
BLOCKS
  0
ENDSEC
  0
SECTION
  2
ENTITIES
  0
POINT
  8
0
 10
-365.000000
 20
90.000000
  0
POINT
  8
0
 10
-365.000000
 20
-149.999954
  0
POINT
  8
0
 10
185.000031
 20
-149.999954
  0
POINT
  8
0
 10
185.000000
 20
90.000000
  0
POINT
  8
0
 10
355.000000
 20
-150.000000
  0
POINT
  8
0
 10
381.000000
 20
-150.000000
  0
LINE
  8
0
 62
     3
 10
-524.494446
 20
-360.000092
 11
-524.494446
 21
360.000092
  0
LINE
  8
0
 62
     3
 10
524.494446
 20
360.000092
 11
524.494446
 21
-360.000092
  0
LINE
  8
0
 62
     3
 10
-524.494446
 20
-360.000092
 11
524.494446
 21
-360.000092
  0
LINE
  8
0
 62
     3
 10
-524.494446
 20
360.000092
 11
524.494446
 21
360.000092
  0
LINE
  8
0
 62
     3
 10
-524.494446
 20
319.550598
 11
-224.494446
 21
319.550598
  0
LINE
  8
0
 62
     3
 10
-224.494446
 20
319.550598
 11
-224.494446
 21
360.000092
  0
LINE
  8
0
 62
     3
 10
308.764069
 20
-319.550690
 11
524.494446
 21
-319.550690
  0
LINE
  8
0
 62
     5
 10
365.406830
 20
-329.276672
 11
386.130402
 21
-329.276672
  0
LINE
  8
0
 62
     5
 10
365.406830
 20
-347.654236
 11
383.002350
 21
-347.654236
  0
LINE
  8
0
 62
     5
 10
365.406830
 20
-352.346344
 11
389.258545
 21
-352.346344
  0
LINE
  8
0
 62
     5
 10
365.406830
 20
-333.968781
 11
383.002350
 21
-333.968781
  0
LINE
  8
0
 62
     5
 10
365.406830
 20
-329.276672
 11
365.406830
 21
-333.968781
  0
LINE
  8
0
 62
     5
 10
389.258545
 20
-332.404785
 11
389.258545
 21
-352.346344
  0
LINE
  8
0
 62
     5
 10
383.002350
 20
-333.968781
 11
383.002350
 21
-347.654236
  0
LINE
  8
0
 62
     5
 10
392.777557
 20
-329.276672
 11
392.777557
 21
-333.968781
  0
LINE
  8
0
 62
     5
 10
415.065186
 20
-333.968781
 11
415.065186
 21
-349.218353
  0
LINE
  8
0
 62
     5
 10
408.809052
 20
-333.968781
 11
408.809052
 21
-347.654236
  0
LINE
  8
0
 62
     5
 10
365.406830
 20
-347.654236
 11
365.406830
 21
-352.346344
  0
LINE
  8
0
 62
     5
 10
392.777557
 20
-329.276672
 11
398.959137
 21
-329.276672
  0
LINE
  8
0
 62
     5
 10
392.777557
 20
-352.346344
 11
397.635284
 21
-352.346344
  0
LINE
  8
0
 62
     5
 10
392.777435
 20
-352.346161
 11
397.701843
 21
-333.968719
  0
LINE
  8
0
 62
     5
 10
392.777557
 20
-333.968781
 11
397.701874
 21
-333.968781
  0
LINE
  8
0
 62
     5
 10
397.635559
 20
-352.346558
 11
402.559723
 21
-333.969055
  0
LINE
  8
0
 62
     5
 10
404.116852
 20
-347.654236
 11
408.809052
 21
-347.654236
  0
LINE
  8
0
 62
     5
 10
404.116730
 20
-347.654144
 11
405.373871
 21
-352.346191
  0
LINE
  8
0
 62
     5
 10
405.374237
 20
-352.346344
 11
411.937195
 21
-352.346344
  0
LINE
  8
0
 62
     5
 10
402.559540
 20
-333.968781
 11
408.809052
 21
-333.968781
  0
LINE
  8
0
 62
     5
 10
403.816772
 20
-329.276672
 11
410.373047
 21
-329.276672
  0
LINE
  8
0
 62
     5
 10
398.959198
 20
-329.276703
 11
399.891571
 21
-325.796783
  0
LINE
  8
0
 62
     5
 10
403.816467
 20
-329.276459
 11
404.748840
 21
-325.796417
  0
LINE
  8
0
 62
     5
 10
418.975342
 20
-329.276672
 11
426.404572
 21
-329.276672
  0
LINE
  8
0
 62
     5
 10
418.975342
 20
-333.968781
 11
437.221191
 21
-333.968781
  0
LINE
  8
0
 62
     5
 10
426.404572
 20
-352.346344
 11
432.660645
 21
-352.346344
  0
LINE
  8
0
 62
     5
 10
418.975342
 20
-329.276672
 11
418.975342
 21
-333.968781
  0
LINE
  8
0
 62
     5
 10
442.045044
 20
-342.477020
 11
442.045044
 21
-347.654236
  0
LINE
  8
0
 62
     5
 10
418.975037
 20
-347.654053
 11
426.404388
 21
-344.189636
  0
LINE
  8
0
 62
     5
 10
418.975769
 20
-342.477356
 11
437.221558
 21
-333.969116
  0
LINE
  8
0
 62
     5
 10
418.975342
 20
-342.477020
 11
418.975342
 21
-347.654236
  0
LINE
  8
0
 62
     5
 10
432.660492
 20
-343.278107
 11
442.044983
 21
-347.654083
  0
LINE
  8
0
 62
     5
 10
436.062103
 20
-339.687286
 11
442.045654
 21
-342.477448
  0
LINE
  8
0
 62
     5
 10
442.045044
 20
-332.404785
 11
442.045044
 21
-334.903870
  0
LINE
  8
0
 62
     5
 10
426.404572
 20
-325.796722
 11
426.404572
 21
-329.276672
  0
LINE
  8
0
 62
     5
 10
432.660645
 20
-325.796722
 11
432.660645
 21
-329.276672
  0
LINE
  8
0
 62
     5
 10
432.660645
 20
-329.276672
 11
438.916931
 21
-329.276672
  0
LINE
  8
0
 62
     5
 10
426.404572
 20
-344.189972
 11
426.404572
 21
-352.346344
  0
LINE
  8
0
 62
     5
 10
432.660645
 20
-343.278320
 11
432.660645
 21
-352.346344
  0
LINE
  8
0
 62
     5
 10
436.062073
 20
-339.687256
 11
440.239532
 21
-337.739288
  0
LINE
  8
0
 62
     5
 10
463.159668
 20
-327.204376
 11
467.851685
 21
-327.204376
  0
LINE
  8
0
 62
     5
 10
444.000122
 20
-336.896667
 11
444.000122
 21
-341.946259
  0
LINE
  8
0
 62
     5
 10
467.851685
 20
-327.204376
 11
467.851685
 21
-329.276672
  0
LINE
  8
0
 62
     5
 10
463.159668
 20
-327.204376
 11
463.159668
 21
-328.215485
  0
LINE
  8
0
 62
     5
 10
456.903442
 20
-336.814453
 11
456.903442
 21
-352.346344
  0
LINE
  8
0
 62
     5
 10
444.000275
 20
-336.896881
 11
462.173828
 21
-329.669067
  0
LINE
  8
0
 62
     5
 10
444.000092
 20
-341.946411
 11
456.903412
 21
-336.814545
  0
LINE
  8
0
 62
     5
 10
456.903442
 20
-352.346344
 11
463.159668
 21
-352.346344
  0
LINE
  8
0
 62
     5
 10
463.159668
 20
-334.326324
 11
463.159668
 21
-352.346344
  0
LINE
  8
0
 62
     5
 10
463.160126
 20
-334.326630
 11
464.894257
 21
-333.636902
  0
LINE
  8
0
 62
     5
 10
399.891602
 20
-325.796722
 11
404.749207
 21
-325.796722
  0
LINE
  8
0
 62
     5
 10
412.523682
 20
-325.796722
 11
414.517731
 21
-325.796722
  0
LINE
  8
0
 62
     5
 10
426.404572
 20
-325.796722
 11
432.660645
 21
-325.796722
  0
LINE
  8
0
 62
     5
 10
412.523682
 20
-328.924835
 11
414.517731
 21
-328.924835
  0
LINE
  8
0
 62
     5
 10
412.523682
 20
-325.796722
 11
412.523682
 21
-328.924835
  0
LINE
  8
0
 62
     5
 10
414.517731
 20
-325.796722
 11
414.517731
 21
-328.924835
  0
LINE
  8
0
 62
     5
 10
415.690887
 20
-325.796722
 11
415.690887
 21
-328.924835
  0
LINE
  8
0
 62
     5
 10
417.919678
 20
-325.796722
 11
417.919678
 21
-328.924835
  0
LINE
  8
0
 62
     5
 10
415.690887
 20
-325.796722
 11
417.919678
 21
-325.796722
  0
LINE
  8
0
 62
     5
 10
415.690887
 20
-328.924835
 11
417.919678
 21
-328.924835
  0
LINE
  8
0
 62
     3
 10
308.764069
 20
319.550598
 11
524.494446
 21
319.550598
  0
LINE
  8
0
 62
     3
 10
308.764069
 20
360.000092
 11
308.764069
 21
319.550598
  0
LINE
  8
0
 62
     3
 10
308.764069
 20
-319.550690
 11
308.764069
 21
-360.000092
  0
LINE
  8
0
 10
-365.000000
 20
-124.000000
 11
-365.000000
 21
-176.000000
  0
LINE
  8
0
 10
-338.000000
 20
-124.000000
 11
-338.000000
 21
-180.000000
  0
LINE
  8
0
 10
-365.000000
 20
-124.000000
 11
-338.000000
 21
-124.000000
  0
LINE
  8
0
 10
-365.000000
 20
-176.000000
 11
-338.000000
 21
-176.000000
  0
LINE
  8
0
  6
CENTER
 10
-354.500000
 20
-140.000000
 11
-354.500000
 21
-160.000000
  0
LINE
  8
0
 10
-346.096008
 20
-143.802917
 11
-341.197052
 21
-138.903976
  0
LINE
  8
0
 10
-346.803162
 20
-143.095947
 11
-341.904175
 21
-138.196976
  0
LINE
  8
0
  6
CENTER
 10
-350.000000
 20
-141.000000
 11
-338.000000
 21
-141.000000
  0
LINE
  8
0
  6
CENTER
 10
-344.000000
 20
-135.000000
 11
-344.000000
 21
-147.000000
  0
LINE
  8
0
  6
CENTER
 10
164.000031
 20
-134.999817
 11
164.000031
 21
-146.999817
  0
LINE
  8
0
  6
CENTER
 10
170.000031
 20
-141.000000
 11
158.000031
 21
-141.000000
  0
LINE
  8
0
 10
185.000031
 20
-123.999817
 11
185.000031
 21
-175.999817
  0
LINE
  8
0
 10
158.000031
 20
-123.999817
 11
158.000031
 21
-179.999863
  0
LINE
  8
0
 10
185.000031
 20
-124.000000
 11
158.000031
 21
-124.000000
  0
LINE
  8
0
 10
185.000031
 20
-176.000000
 11
158.000031
 21
-176.000000
  0
LINE
  8
0
 10
166.803101
 20
-138.903976
 11
161.904114
 21
-143.802963
  0
LINE
  8
0
 10
166.096130
 20
-138.196960
 11
161.197159
 21
-143.095932
  0
LINE
  8
0
  6
CENTER
 10
60.000000
 20
-121.999863
 11
60.000000
 21
-184.999863
  0
LINE
  8
0
  6
CENTER
 10
-240.000000
 20
-96.999969
 11
-240.000000
 21
-184.999954
  0
LINE
  8
0
 10
-338.000000
 20
-180.000000
 11
158.000031
 21
-180.000000
  0
LINE
  8
0
 10
-338.000000
 20
-126.000000
 11
-310.000000
 21
-126.000000
  0
LINE
  8
0
  6
CENTER
 10
-370.000000
 20
-149.999954
 11
190.000031
 21
-149.999954
  0
LINE
  8
0
 10
-338.000000
 20
-131.499954
 11
-310.000000
 21
-131.499954
  0
LINE
  8
0
 10
-338.000000
 20
-135.541412
 11
-310.000000
 21
-135.541412
  0
LINE
  8
0
 10
-338.000000
 20
-141.999954
 11
-310.000000
 21
-141.999954
  0
LINE
  8
0
 10
-338.000000
 20
-146.299957
 11
158.000031
 21
-146.299957
  0
LINE
  8
0
 10
-338.000000
 20
-154.999954
 11
158.000031
 21
-154.999954
  0
LINE
  8
0
 10
-338.000000
 20
-158.999954
 11
158.000031
 21
-158.999954
  0
LINE
  8
0
 10
-338.000000
 20
-170.999954
 11
158.000031
 21
-170.999954
  0
LINE
  8
0
 10
-338.000000
 20
-175.499954
 11
158.000031
 21
-175.499954
  0
LINE
  8
0
 10
-302.500000
 20
-102.000000
 11
-177.500000
 21
-102.000000
  0
LINE
  8
0
 10
-312.500000
 20
-105.000031
 11
-312.500000
 21
-123.000031
  0
LINE
  8
0
 10
-167.500000
 20
-104.999969
 11
-167.500000
 21
-122.999969
  0
LINE
  8
0
 10
-310.000000
 20
-103.000031
 11
-310.000000
 21
-144.000031
  0
LINE
  8
0
 10
-170.000000
 20
-102.999969
 11
-170.000000
 21
-143.999969
  0
LINE
  8
0
 10
-302.500000
 20
-101.999969
 11
-302.500000
 21
-144.000000
  0
LINE
  8
0
 10
-177.500000
 20
-101.999939
 11
-177.500000
 21
-143.999969
  0
LINE
  8
0
 10
-310.000000
 20
-103.000031
 11
-170.000000
 21
-103.000031
  0
LINE
  8
0
 10
-310.000000
 20
-144.000031
 11
-170.000000
 21
-144.000031
  0
LINE
  8
0
 10
-312.500000
 20
-105.000031
 11
-311.000000
 21
-105.000031
  0
LINE
  8
0
 10
-312.500000
 20
-123.000031
 11
-311.000000
 21
-123.000031
  0
LINE
  8
0
 10
-169.000000
 20
-105.000031
 11
-167.500000
 21
-105.000031
  0
LINE
  8
0
 10
-169.000000
 20
-123.000031
 11
-167.500000
 21
-123.000031
  0
LINE
  8
0
 10
-170.000000
 20
-131.499954
 11
158.000031
 21
-131.499954
  0
LINE
  8
0
 10
-170.000000
 20
-135.541412
 11
158.000031
 21
-135.541412
  0
LINE
  8
0
 10
-170.000000
 20
-141.999954
 11
158.000031
 21
-141.999954
  0
LINE
  8
0
 10
-170.000000
 20
-126.000000
 11
158.000031
 21
-126.000000
  0
LINE
  8
0
 10
-169.000000
 20
-104.999969
 11
-169.000000
 21
-122.999969
  0
LINE
  8
0
 10
-311.000000
 20
-105.000031
 11
-311.000000
 21
-123.000031
  0
LINE
  8
0
 10
-311.000000
 20
-120.500031
 11
-310.000000
 21
-120.500031
  0
LINE
  8
0
 10
-311.000000
 20
-107.500031
 11
-310.000000
 21
-107.500031
  0
LINE
  8
0
 10
-170.000000
 20
-107.500031
 11
-169.000000
 21
-107.500031
  0
LINE
  8
0
 10
-170.000000
 20
-120.500031
 11
-169.000000
 21
-120.500031
  0
LINE
  8
0
  6
CENTER
 10
-317.500000
 20
-114.000031
 11
-297.500000
 21
-114.000031
  0
LINE
  8
0
  6
CENTER
 10
-182.500000
 20
-114.000031
 11
-162.500000
 21
-114.000031
  0
LINE
  8
0
 10
-357.500031
 20
-151.731949
 11
-354.500031
 21
-153.464005
  0
LINE
  8
0
 10
-354.500061
 20
-153.464096
 11
-351.500061
 21
-151.732040
  0
LINE
  8
0
 10
-351.499939
 20
-151.732040
 11
-351.499939
 21
-148.267929
  0
LINE
  8
0
 10
-351.500031
 20
-148.267914
 11
-354.500031
 21
-146.535858
  0
LINE
  8
0
 10
-354.500061
 20
-146.535812
 11
-357.500092
 21
-148.267868
  0
LINE
  8
0
 10
-357.499969
 20
-148.267868
 11
-357.499969
 21
-151.731979
  0
LINE
  8
0
  6
CENTER
 10
174.500031
 20
-139.999863
 11
174.500031
 21
-159.999863
  0
LINE
  8
0
 10
177.500031
 20
-148.267731
 11
177.500031
 21
-151.731842
  0
LINE
  8
0
 10
174.500137
 20
-146.535751
 11
177.500137
 21
-148.267822
  0
LINE
  8
0
 10
171.500214
 20
-148.268066
 11
174.500229
 21
-146.536011
  0
LINE
  8
0
 10
171.499969
 20
-151.731903
 11
171.499969
 21
-148.267792
  0
LINE
  8
0
 10
174.500031
 20
-153.464066
 11
171.499954
 21
-151.732010
  0
LINE
  8
0
 10
177.500320
 20
-151.732117
 11
174.500320
 21
-153.464188
  0
LINE
  8
0
  6
CENTER
 10
-369.999939
 20
-167.999969
 11
-353.999939
 21
-167.999969
  0
LINE
  8
0
 10
-358.999939
 20
-159.999969
 11
-358.999939
 21
-175.999969
  0
LINE
  8
0
 10
-364.999939
 20
-159.999969
 11
-358.999939
 21
-159.999969
  0
LINE
  8
0
  6
CENTER
 10
-369.999939
 20
-131.999969
 11
-353.999939
 21
-131.999969
  0
LINE
  8
0
 10
-358.999939
 20
-123.999969
 11
-358.999939
 21
-139.999969
  0
LINE
  8
0
 10
-364.999939
 20
-139.999969
 11
-358.999939
 21
-139.999969
  0
LINE
  8
0
 10
-360.508087
 20
-137.773529
 11
-364.999939
 21
-137.773529
  0
LINE
  8
0
 10
-360.508087
 20
-129.113251
 11
-364.999939
 21
-129.113251
  0
LINE
  8
0
 10
-360.508087
 20
-134.886749
 11
-364.999939
 21
-134.886749
  0
LINE
  8
0
 10
-360.508087
 20
-126.226532
 11
-364.999939
 21
-126.226532
  0
LINE
  8
0
 10
-359.799927
 20
-124.999969
 11
-359.799927
 21
-138.999969
  0
LINE
  8
0
 10
-359.799927
 20
-124.999969
 11
-358.999939
 21
-124.999969
  0
LINE
  8
0
 10
-359.799927
 20
-138.999969
 11
-358.999939
 21
-138.999969
  0
LINE
  8
0
 10
-359.799927
 20
-139.000000
 11
-360.508026
 21
-137.773544
  0
LINE
  8
0
 10
-359.800018
 20
-124.999969
 11
-360.508148
 21
-126.226509
  0
LINE
  8
0
 10
-360.508087
 20
-126.226532
 11
-360.508087
 21
-137.773407
  0
LINE
  8
0
 10
-360.508087
 20
-173.773453
 11
-360.508087
 21
-162.226578
  0
LINE
  8
0
 10
-359.799927
 20
-161.000015
 11
-360.507996
 21
-162.226456
  0
LINE
  8
0
 10
-359.799927
 20
-175.000046
 11
-360.508087
 21
-173.773483
  0
LINE
  8
0
 10
-360.508087
 20
-162.226456
 11
-364.999939
 21
-162.226456
  0
LINE
  8
0
 10
-360.508087
 20
-170.886734
 11
-364.999939
 21
-170.886734
  0
LINE
  8
0
 10
-360.508087
 20
-165.113235
 11
-364.999939
 21
-165.113235
  0
LINE
  8
0
 10
-360.508087
 20
-173.773453
 11
-364.999939
 21
-173.773453
  0
LINE
  8
0
 10
-359.799927
 20
-175.000015
 11
-359.799927
 21
-161.000015
  0
LINE
  8
0
 10
-359.799927
 20
-175.000015
 11
-358.999939
 21
-175.000015
  0
LINE
  8
0
 10
-359.799927
 20
-161.000015
 11
-358.999939
 21
-161.000015
  0
LINE
  8
0
 10
179.800018
 20
-174.999969
 11
180.508209
 21
-173.773407
  0
LINE
  8
0
 10
180.508148
 20
-165.113235
 11
184.999969
 21
-165.113235
  0
LINE
  8
0
 10
180.508148
 20
-170.886734
 11
184.999969
 21
-170.886734
  0
LINE
  8
0
 10
179.799942
 20
-160.999939
 11
180.508072
 21
-162.226379
  0
LINE
  8
0
 10
180.508148
 20
-162.226456
 11
184.999969
 21
-162.226456
  0
LINE
  8
0
 10
179.799957
 20
-174.999939
 11
179.799957
 21
-160.999939
  0
LINE
  8
0
 10
180.508148
 20
-173.773453
 11
184.999969
 21
-173.773453
  0
LINE
  8
0
 10
179.799957
 20
-175.000015
 11
178.999969
 21
-175.000015
  0
LINE
  8
0
 10
179.799957
 20
-161.000015
 11
178.999969
 21
-161.000015
  0
LINE
  8
0
  6
CENTER
 10
189.999969
 20
-167.999969
 11
173.999969
 21
-167.999969
  0
LINE
  8
0
 10
178.999969
 20
-159.999893
 11
178.999969
 21
-175.999893
  0
LINE
  8
0
 10
184.999969
 20
-159.999969
 11
178.999969
 21
-159.999969
  0
LINE
  8
0
  6
CENTER
 10
189.999969
 20
-131.999969
 11
173.999969
 21
-131.999969
  0
LINE
  8
0
 10
178.999969
 20
-123.999893
 11
178.999969
 21
-139.999893
  0
LINE
  8
0
 10
184.999969
 20
-139.999969
 11
178.999969
 21
-139.999969
  0
LINE
  8
0
 10
180.508148
 20
-137.773529
 11
184.999969
 21
-137.773529
  0
LINE
  8
0
 10
180.508148
 20
-129.113251
 11
184.999969
 21
-129.113251
  0
LINE
  8
0
 10
180.508148
 20
-134.886749
 11
184.999969
 21
-134.886749
  0
LINE
  8
0
 10
180.508148
 20
-126.226532
 11
184.999969
 21
-126.226532
  0
LINE
  8
0
 10
179.799957
 20
-124.999893
 11
179.799957
 21
-138.999893
  0
LINE
  8
0
 10
179.799957
 20
-124.999969
 11
178.999969
 21
-124.999969
  0
LINE
  8
0
 10
179.799957
 20
-138.999969
 11
178.999969
 21
-138.999969
  0
LINE
  8
0
 10
179.800049
 20
-138.999954
 11
180.508179
 21
-137.773499
  0
LINE
  8
0
 10
179.799942
 20
-124.999931
 11
180.508072
 21
-126.226463
  0
LINE
  8
0
 10
180.508148
 20
-126.226456
 11
180.508148
 21
-137.773331
  0
LINE
  8
0
 10
180.508148
 20
-173.773376
 11
180.508148
 21
-162.226501
  0
LINE
  8
0
  6
CENTER
 10
-370.000000
 20
90.000000
 11
190.000000
 21
90.000000
  0
LINE
  8
0
 10
-338.000000
 20
118.000000
 11
-338.000000
 21
62.000000
  0
LINE
  8
0
 10
-365.000000
 20
116.000000
 11
-365.000000
 21
64.000000
  0
LINE
  8
0
 10
-365.000000
 20
64.000000
 11
-338.000000
 21
64.000000
  0
LINE
  8
0
 10
-365.000000
 20
116.000000
 11
-338.000000
 21
116.000000
  0
LINE
  8
0
 10
158.000000
 20
118.000000
 11
158.000000
 21
62.000000
  0
LINE
  8
0
 10
185.000000
 20
116.000008
 11
185.000000
 21
64.000008
  0
LINE
  8
0
 10
185.000000
 20
64.000000
 11
158.000000
 21
64.000000
  0
LINE
  8
0
 10
185.000000
 20
116.000000
 11
158.000000
 21
116.000000
  0
LINE
  8
0
  6
CENTER
 10
60.000000
 20
123.000000
 11
60.000000
 21
57.000000
  0
LINE
  8
0
 10
-338.000000
 20
81.500000
 11
-312.500000
 21
81.500000
  0
LINE
  8
0
 10
-338.000000
 20
98.500000
 11
-312.500000
 21
98.500000
  0
LINE
  8
0
 10
158.000000
 20
98.500000
 11
-167.500000
 21
98.500000
  0
LINE
  8
0
 10
158.000000
 20
81.500000
 11
-167.500000
 21
81.500000
  0
LINE
  8
0
  6
CENTER
 10
-240.000000
 20
135.000000
 11
-240.000000
 21
45.000000
  0
LINE
  8
0
 10
-302.500000
 20
50.000000
 11
-177.500000
 21
50.000000
  0
LINE
  8
0
 10
-302.500000
 20
130.000000
 11
-177.500000
 21
130.000000
  0
LINE
  8
0
 10
-302.500000
 20
130.000000
 11
-302.500000
 21
50.000000
  0
LINE
  8
0
 10
-177.500000
 20
130.000000
 11
-177.500000
 21
50.000000
  0
LINE
  8
0
 10
-310.000000
 20
129.000000
 11
-310.000000
 21
51.000000
  0
LINE
  8
0
 10
-170.000000
 20
129.000000
 11
-170.000000
 21
51.000000
  0
LINE
  8
0
 10
-310.000000
 20
51.000000
 11
-302.500000
 21
51.000000
  0
LINE
  8
0
 10
-310.000000
 20
129.000000
 11
-302.500000
 21
129.000000
  0
LINE
  8
0
 10
-177.500000
 20
51.000000
 11
-170.000000
 21
51.000000
  0
LINE
  8
0
 10
-177.500000
 20
129.000000
 11
-170.000000
 21
129.000000
  0
LINE
  8
0
 10
-312.500000
 20
99.000000
 11
-312.500000
 21
81.000000
  0
LINE
  8
0
 10
-167.500000
 20
99.000000
 11
-167.500000
 21
81.000000
  0
LINE
  8
0
 10
-169.000000
 20
99.000000
 11
-169.000000
 21
81.000000
  0
LINE
  8
0
 10
-311.000000
 20
99.000000
 11
-311.000000
 21
81.000000
  0
LINE
  8
0
 10
-312.500000
 20
81.000000
 11
-311.000000
 21
81.000000
  0
LINE
  8
0
 10
-312.500000
 20
99.000000
 11
-311.000000
 21
99.000000
  0
LINE
  8
0
 10
-169.000000
 20
99.000000
 11
-167.500000
 21
99.000000
  0
LINE
  8
0
 10
-169.000000
 20
81.000000
 11
-167.500000
 21
81.000000
  0
LINE
  8
0
 10
-311.000000
 20
96.500000
 11
-310.000000
 21
96.500000
  0
LINE
  8
0
 10
-311.000000
 20
83.500000
 11
-310.000000
 21
83.500000
  0
LINE
  8
0
 10
-170.000000
 20
96.500000
 11
-169.000000
 21
96.500000
  0
LINE
  8
0
 10
-170.000000
 20
83.500000
 11
-169.000000
 21
83.500000
  0
LINE
  8
0
 10
-311.000000
 20
98.500000
 11
-310.000000
 21
98.500000
  0
LINE
  8
0
 10
-311.000000
 20
81.500000
 11
-310.000000
 21
81.500000
  0
LINE
  8
0
 10
-169.000000
 20
98.500000
 11
-170.000000
 21
98.500000
  0
LINE
  8
0
 10
-169.000000
 20
81.500000
 11
-170.000000
 21
81.500000
  0
LINE
  8
0
 10
-302.500000
 20
60.000000
 11
-177.500000
 21
60.000000
  0
LINE
  8
0
 10
-302.500000
 20
120.000000
 11
-177.500000
 21
120.000000
  0
LINE
  8
0
  6
CENTER
 10
-292.000000
 20
109.000000
 11
-278.000000
 21
109.000000
  0
LINE
  8
0
  6
CENTER
 10
-292.000000
 20
71.000000
 11
-278.000000
 21
71.000000
  0
LINE
  8
0
  6
CENTER
 10
-285.000000
 20
116.000000
 11
-285.000000
 21
102.000000
  0
LINE
  8
0
  6
CENTER
 10
-285.000000
 20
97.000000
 11
-285.000000
 21
83.000000
  0
LINE
  8
0
  6
CENTER
 10
-285.000000
 20
78.000000
 11
-285.000000
 21
64.000000
  0
LINE
  8
0
  6
CENTER
 10
-188.000000
 20
109.000000
 11
-202.000000
 21
109.000000
  0
LINE
  8
0
  6
CENTER
 10
-188.000000
 20
71.000000
 11
-202.000000
 21
71.000000
  0
LINE
  8
0
  6
CENTER
 10
-195.000000
 20
116.000000
 11
-195.000000
 21
102.000000
  0
LINE
  8
0
  6
CENTER
 10
-195.000000
 20
97.000000
 11
-195.000000
 21
83.000000
  0
LINE
  8
0
  6
CENTER
 10
-195.000000
 20
78.000000
 11
-195.000000
 21
64.000000
  0
LINE
  8
0
 10
-338.000000
 20
118.000000
 11
-310.000000
 21
118.000000
  0
LINE
  8
0
 10
-338.000000
 20
62.000000
 11
-310.000000
 21
62.000000
  0
LINE
  8
0
 10
-170.000000
 20
118.000000
 11
158.000000
 21
118.000000
  0
LINE
  8
0
 10
-170.000000
 20
62.000000
 11
158.000000
 21
62.000000
  0
LINE
  8
0
  6
CENTER
 10
-369.999939
 20
107.999992
 11
-353.999939
 21
107.999992
  0
LINE
  8
0
 10
-358.999939
 20
115.999992
 11
-358.999939
 21
99.999992
  0
LINE
  8
0
 10
-364.999939
 20
99.999992
 11
-358.999939
 21
99.999992
  0
LINE
  8
0
  6
CENTER
 10
-369.999939
 20
71.999992
 11
-353.999939
 21
71.999992
  0
LINE
  8
0
 10
-358.999939
 20
63.999992
 11
-358.999939
 21
79.999992
  0
LINE
  8
0
 10
-364.999939
 20
79.999992
 11
-358.999939
 21
79.999992
  0
LINE
  8
0
 10
-364.999939
 20
67.000023
 11
-360.508148
 21
67.000023
  0
LINE
  8
0
 10
-360.508148
 20
71.999992
 11
-364.999939
 21
71.999992
  0
LINE
  8
0
 10
-364.999939
 20
77.000023
 11
-360.508148
 21
77.000023
  0
LINE
  8
0
 10
-359.799927
 20
65.000191
 11
-359.799927
 21
79.000031
  0
LINE
  8
0
 10
-360.508148
 20
66.226830
 11
-360.508148
 21
77.773392
  0
LINE
  8
0
 10
-358.999878
 20
79.000031
 11
-359.799927
 21
79.000031
  0
LINE
  8
0
 10
-358.999878
 20
65.000191
 11
-359.799927
 21
65.000191
  0
LINE
  8
0
 10
-359.799927
 20
65.000198
 11
-360.508118
 21
66.226837
  0
LINE
  8
0
 10
-359.799896
 20
79.000015
 11
-360.508087
 21
77.773384
  0
LINE
  8
0
 10
-359.799957
 20
100.999947
 11
-360.508148
 21
102.226601
  0
LINE
  8
0
 10
-358.999878
 20
100.999954
 11
-359.799927
 21
100.999954
  0
LINE
  8
0
 10
-358.999878
 20
114.999794
 11
-359.799927
 21
114.999794
  0
LINE
  8
0
 10
-364.999939
 20
112.999962
 11
-360.508148
 21
112.999962
  0
LINE
  8
0
 10
-359.800018
 20
114.999832
 11
-360.508209
 21
113.773193
  0
LINE
  8
0
 10
-364.999939
 20
102.999962
 11
-360.508148
 21
102.999962
  0
LINE
  8
0
 10
-359.799927
 20
114.999794
 11
-359.799927
 21
100.999954
  0
LINE
  8
0
 10
-360.508148
 20
113.773155
 11
-360.508148
 21
102.226593
  0
LINE
  8
0
 10
-360.508148
 20
107.999992
 11
-364.999939
 21
107.999992
  0
LINE
  8
0
 10
179.800018
 20
114.999886
 11
180.508240
 21
113.773247
  0
LINE
  8
0
 10
178.999878
 20
114.999794
 11
179.799927
 21
114.999794
  0
LINE
  8
0
  6
CENTER
 10
189.999939
 20
107.999992
 11
173.999939
 21
107.999992
  0
LINE
  8
0
 10
178.999939
 20
115.999992
 11
178.999939
 21
99.999992
  0
LINE
  8
0
 10
184.999939
 20
99.999992
 11
178.999939
 21
99.999992
  0
LINE
  8
0
  6
CENTER
 10
189.999939
 20
71.999992
 11
173.999939
 21
71.999992
  0
LINE
  8
0
 10
178.999939
 20
63.999992
 11
178.999939
 21
79.999992
  0
LINE
  8
0
 10
184.999939
 20
79.999992
 11
178.999939
 21
79.999992
  0
LINE
  8
0
 10
184.999939
 20
67.000023
 11
180.508118
 21
67.000023
  0
LINE
  8
0
 10
180.508118
 20
71.999992
 11
184.999939
 21
71.999992
  0
LINE
  8
0
 10
184.999939
 20
77.000023
 11
180.508118
 21
77.000023
  0
LINE
  8
0
 10
179.799927
 20
65.000191
 11
179.799927
 21
79.000031
  0
LINE
  8
0
 10
180.508118
 20
66.226830
 11
180.508118
 21
77.773392
  0
LINE
  8
0
 10
178.999878
 20
79.000031
 11
179.799927
 21
79.000031
  0
LINE
  8
0
 10
178.999878
 20
65.000191
 11
179.799927
 21
65.000191
  0
LINE
  8
0
 10
179.799927
 20
65.000214
 11
180.508118
 21
66.226845
  0
LINE
  8
0
 10
179.799957
 20
79.000046
 11
180.508148
 21
77.773392
  0
LINE
  8
0
 10
179.799911
 20
100.999969
 11
180.508102
 21
102.226624
  0
LINE
  8
0
 10
178.999878
 20
100.999954
 11
179.799927
 21
100.999954
  0
LINE
  8
0
 10
184.999939
 20
112.999962
 11
180.508118
 21
112.999962
  0
LINE
  8
0
 10
184.999939
 20
102.999962
 11
180.508118
 21
102.999962
  0
LINE
  8
0
 10
179.799927
 20
114.999794
 11
179.799927
 21
100.999954
  0
LINE
  8
0
 10
180.508118
 20
113.773155
 11
180.508118
 21
102.226593
  0
LINE
  8
0
 10
180.508118
 20
107.999992
 11
184.999939
 21
107.999992
  0
LINE
  8
0
  6
CENTER
 10
324.000000
 20
-150.000000
 11
386.000000
 21
-150.000000
  0
LINE
  8
0
  6
CENTER
 10
355.000000
 20
-97.000031
 11
355.000000
 21
-185.000000
  0
LINE
  8
0
 10
336.999847
 20
-124.000000
 11
372.999847
 21
-124.000000
  0
LINE
  8
0
 10
329.000000
 20
-132.000137
 11
329.000000
 21
-168.000137
  0
LINE
  8
0
 10
381.000000
 20
-131.999863
 11
381.000000
 21
-167.999863
  0
LINE
  8
0
  6
CENTER
 10
373.000000
 20
-119.999908
 11
373.000000
 21
-143.999908
  0
LINE
  8
0
  6
CENTER
 10
384.999908
 20
-132.000031
 11
360.999908
 21
-132.000031
  0
LINE
  8
0
 10
365.000000
 20
-123.999939
 11
365.000000
 21
-131.999939
  0
LINE
  8
0
 10
380.999939
 20
-140.000031
 11
372.999939
 21
-140.000031
  0
LINE
  8
0
  6
CENTER
 10
324.999908
 20
-132.000000
 11
348.999908
 21
-132.000000
  0
LINE
  8
0
  6
CENTER
 10
337.000000
 20
-120.000092
 11
337.000000
 21
-144.000092
  0
LINE
  8
0
 10
332.000000
 20
-134.886719
 11
336.999969
 21
-137.773468
  0
LINE
  8
0
 10
336.999908
 20
-137.773697
 11
341.999908
 21
-134.886948
  0
LINE
  8
0
 10
341.999969
 20
-134.886856
 11
341.999969
 21
-129.113358
  0
LINE
  8
0
 10
341.999969
 20
-129.113220
 11
336.999969
 21
-126.226479
  0
LINE
  8
0
 10
337.000031
 20
-126.226906
 11
332.000031
 21
-129.113647
  0
LINE
  8
0
 10
331.999969
 20
-129.113373
 11
331.999969
 21
-134.886871
  0
LINE
  8
0
 10
328.999939
 20
-140.000000
 11
336.999939
 21
-140.000000
  0
LINE
  8
0
 10
345.000000
 20
-124.000061
 11
345.000000
 21
-132.000061
  0
LINE
  8
0
  6
CENTER
 10
336.999969
 20
-180.000092
 11
336.999969
 21
-156.000092
  0
LINE
  8
0
  6
CENTER
 10
325.000092
 20
-168.000000
 11
349.000092
 21
-168.000000
  0
LINE
  8
0
 10
342.000153
 20
-165.113159
 11
337.000153
 21
-162.226410
  0
LINE
  8
0
 10
337.000549
 20
-162.227341
 11
332.000549
 21
-165.114090
  0
LINE
  8
0
 10
332.000000
 20
-165.113342
 11
332.000000
 21
-170.886841
  0
LINE
  8
0
 10
332.000153
 20
-170.886719
 11
337.000153
 21
-173.773468
  0
LINE
  8
0
 10
337.000641
 20
-173.774445
 11
342.000610
 21
-170.887695
  0
LINE
  8
0
 10
342.000000
 20
-170.886795
 11
342.000000
 21
-165.113297
  0
LINE
  8
0
 10
344.999969
 20
-176.000031
 11
344.999969
 21
-168.000061
  0
LINE
  8
0
 10
329.000061
 20
-160.000000
 11
337.000061
 21
-160.000000
  0
LINE
  8
0
  6
CENTER
 10
385.000092
 20
-168.000031
 11
361.000092
 21
-168.000031
  0
LINE
  8
0
  6
CENTER
 10
372.999969
 20
-179.999908
 11
372.999969
 21
-155.999908
  0
LINE
  8
0
 10
378.000031
 20
-165.113312
 11
373.000031
 21
-162.226562
  0
LINE
  8
0
 10
373.000397
 20
-162.226852
 11
368.000397
 21
-165.113602
  0
LINE
  8
0
 10
368.000000
 20
-165.113144
 11
368.000000
 21
-170.886642
  0
LINE
  8
0
 10
368.000061
 20
-170.886826
 11
373.000031
 21
-173.773575
  0
LINE
  8
0
 10
373.000458
 20
-173.774033
 11
378.000458
 21
-170.887283
  0
LINE
  8
0
 10
378.000000
 20
-170.886627
 11
378.000000
 21
-165.113129
  0
LINE
  8
0
 10
381.000061
 20
-160.000031
 11
373.000061
 21
-160.000031
  0
LINE
  8
0
 10
364.999969
 20
-175.999969
 11
364.999969
 21
-167.999939
  0
LINE
  8
0
 10
372.999908
 20
-137.773560
 11
367.999847
 21
-134.886780
  0
LINE
  8
0
 10
368.000000
 20
-134.886703
 11
368.000000
 21
-129.113205
  0
LINE
  8
0
 10
367.999634
 20
-129.112961
 11
372.999634
 21
-126.226204
  0
LINE
  8
0
 10
372.999786
 20
-126.226547
 11
377.999786
 21
-129.113297
  0
LINE
  8
0
 10
378.000000
 20
-129.113129
 11
378.000000
 21
-134.886627
  0
LINE
  8
0
 10
377.999634
 20
-134.886475
 11
372.999634
 21
-137.773239
  0
LINE
  8
0
 10
337.000122
 20
-176.000000
 11
373.000153
 21
-176.000000
  0
LINE
  8
0
  6
CENTER
 10
344.000000
 20
-140.000061
 11
344.000000
 21
-160.000061
  0
LINE
  8
0
  6
CENTER
 10
366.000000
 20
-139.999939
 11
366.000000
 21
-159.999939
  0
LINE
  8
0
 10
384.999847
 20
-102.000031
 11
324.999847
 21
-102.000031
  0
LINE
  8
0
 10
327.000000
 20
-128.000076
 11
327.000000
 21
-131.500076
  0
LINE
  8
0
 10
327.000092
 20
-180.000000
 11
340.000092
 21
-180.000000
  0
LINE
  8
0
 10
328.999939
 20
-126.000000
 11
331.708466
 21
-126.000000
  0
LINE
  8
0
 10
370.000092
 20
-180.000000
 11
383.000092
 21
-180.000000
  0
LINE
  8
0
 10
370.000000
 20
-180.000000
 11
368.845306
 21
-177.999985
  0
LINE
  8
0
 10
339.999847
 20
-179.999939
 11
339.999847
 21
-179.999939
  0
LINE
  8
0
 10
339.999969
 20
-180.000015
 11
341.154663
 21
-178.000015
  0
LINE
  8
0
 10
327.000000
 20
-175.771072
 11
327.000000
 21
-180.000076
  0
LINE
  8
0
 10
330.000000
 20
-174.000076
 11
330.000000
 21
-176.300049
  0
LINE
  8
0
 10
327.000061
 20
-175.770996
 11
330.000092
 21
-176.299988
  0
LINE
  8
0
 10
328.600006
 20
-170.200073
 11
328.600006
 21
-170.200073
  0
LINE
  8
0
 10
330.299988
 20
-170.200073
 11
330.299988
 21
-170.200073
  0
LINE
  8
0
 10
330.299988
 20
-172.371552
 11
330.299988
 21
-173.700073
  0
LINE
  8
0
 10
327.000000
 20
-160.000076
 11
327.000000
 21
-170.200073
  0
LINE
  8
0
 10
328.600006
 20
-160.000076
 11
328.600006
 21
-160.631012
  0
LINE
  8
0
 10
327.000000
 20
-142.850327
 11
327.000000
 21
-146.500076
  0
LINE
  8
0
 10
327.000000
 20
-146.500000
 11
329.000000
 21
-146.500000
  0
LINE
  8
0
 10
326.999908
 20
-131.499985
 11
328.999908
 21
-132.654678
  0
LINE
  8
0
 10
329.000061
 20
-162.123840
 11
328.600067
 21
-160.631012
  0
LINE
  8
0
 10
383.000000
 20
-127.999924
 11
383.000000
 21
-131.499924
  0
LINE
  8
0
 10
383.000000
 20
-175.770920
 11
383.000000
 21
-179.999924
  0
LINE
  8
0
 10
380.000000
 20
-173.999924
 11
380.000000
 21
-176.299911
  0
LINE
  8
0
 10
383.000092
 20
-175.770996
 11
380.000092
 21
-176.299973
  0
LINE
  8
0
 10
381.399994
 20
-170.199921
 11
381.399994
 21
-170.199921
  0
LINE
  8
0
 10
379.700012
 20
-170.199921
 11
379.700012
 21
-170.199921
  0
LINE
  8
0
 10
379.700012
 20
-172.371399
 11
379.700012
 21
-173.699921
  0
LINE
  8
0
 10
383.000000
 20
-159.999924
 11
383.000000
 21
-170.199921
  0
LINE
  8
0
 10
381.399994
 20
-159.999924
 11
381.399994
 21
-160.630859
  0
LINE
  8
0
 10
383.000000
 20
-142.850174
 11
383.000000
 21
-146.499924
  0
LINE
  8
0
 10
383.000000
 20
-146.500000
 11
381.000000
 21
-146.500000
  0
LINE
  8
0
 10
383.000031
 20
-131.500046
 11
381.000061
 21
-132.654739
  0
LINE
  8
0
 10
381.000061
 20
-162.123795
 11
381.400085
 21
-160.630890
  0
LINE
  8
0
 10
378.291473
 20
-126.000000
 11
380.999939
 21
-126.000000
  0
LINE
  8
0
  6
CENTER
 10
340.999908
 20
-114.000031
 11
368.999908
 21
-114.000031
  0
LINE
  8
0
 10
315.000000
 20
-104.500153
 11
315.000000
 21
-139.500153
  0
LINE
  8
0
 10
395.000000
 20
-104.499908
 11
395.000000
 21
-139.499908
  0
LINE
  8
0
 10
390.499969
 20
-144.000031
 11
383.999969
 21
-144.000031
  0
LINE
  8
0
 10
325.999969
 20
-144.000031
 11
319.499969
 21
-144.000031
  0
LINE
  8
0
 10
384.000000
 20
-140.999939
 11
384.000000
 21
-143.999939
  0
LINE
  8
0
 10
326.000000
 20
-141.000122
 11
326.000000
 21
-144.000122
  0
LINE
  8
0
 10
328.999969
 20
-141.000031
 11
325.999969
 21
-141.000031
  0
LINE
  8
0
 10
383.999969
 20
-141.000031
 11
380.999969
 21
-141.000031
  0
LINE
  8
0
 10
393.499847
 20
-103.000031
 11
316.499847
 21
-103.000031
  0
LINE
  8
0
 10
316.000000
 20
-104.500153
 11
316.000000
 21
-139.500153
  0
LINE
  8
0
 10
394.000000
 20
-104.499908
 11
394.000000
 21
-139.499908
  0
LINE
  8
0
 10
384.999908
 20
-101.999901
 11
385.999908
 21
-102.999901
  0
LINE
  8
0
 10
324.999847
 20
-102.000122
 11
323.999878
 21
-103.000122
  0
LINE
  8
0
 10
328.999939
 20
-125.000000
 11
333.127014
 21
-125.000000
  0
LINE
  8
0
 10
376.872986
 20
-125.000000
 11
380.999939
 21
-125.000000
  0
LINE
  8
0
 10
384.000000
 20
-127.999908
 11
384.000000
 21
-132.077240
  0
LINE
  8
0
 10
326.000000
 20
-128.000092
 11
326.000000
 21
-132.077438
  0
LINE
  8
0
 10
325.999908
 20
-132.077332
 11
328.999908
 21
-133.809387
  0
LINE
  8
0
 10
384.000031
 20
-132.077408
 11
381.000000
 21
-133.809464
  0
LINE
  8
0
 10
-193.499969
 20
111.598045
 11
-167.575821
 21
156.499969
  0
LINE
  8
0
 10
-193.499985
 20
111.598053
 11
-189.257339
 21
115.840691
  0
LINE
  8
0
 10
-193.499969
 20
111.598045
 11
-191.947052
 21
117.393600
  0
LINE
  8
0
 10
-167.575821
 20
156.499969
 11
-103.750000
 21
156.499969
  0
LINE
  8
0
 10
171.210724
 20
-144.302811
 11
130.044037
 21
-73.000000
  0
LINE
  8
0
 10
171.210724
 20
-144.302811
 11
169.657806
 21
-138.507263
  0
LINE
  8
0
 10
171.210724
 20
-144.302811
 11
166.968079
 21
-140.060165
  0
LINE
  8
0
 10
55.615047
 20
-73.000000
 11
130.044037
 21
-73.000000
  0
LINE
  8
0
 10
-240.000000
 20
-184.999954
 11
-240.000000
 21
-235.000000
  0
LINE
  8
0
 10
60.000000
 20
-184.999863
 11
60.000000
 21
-235.000000
  0
LINE
  8
0
 10
-240.000000
 20
-230.000000
 11
60.000000
 21
-230.000000
  0
LINE
  8
0
 10
-239.999985
 20
-229.999985
 11
-234.204422
 21
-228.447067
  0
LINE
  8
0
 10
54.204441
 20
-231.552902
 11
59.999996
 21
-229.999985
  0
LINE
  8
0
 10
54.204449
 20
-228.447067
 11
60.000004
 21
-229.999985
  0
LINE
  8
0
 10
-240.000000
 20
-230.000000
 11
-234.204437
 21
-231.552917
  0
ARC
  8
0
 62
     5
 10
386.130402
 20
-332.404785
 40
3.128082
 50
0.000000
 51
90.000000
  0
ARC
  8
0
 62
     5
 10
411.937195
 20
-349.218353
 40
3.128082
 50
270.000000
 51
0.000000
  0
ARC
  8
0
 62
     5
 10
410.373047
 20
-333.968781
 40
4.692139
 50
0.000000
 51
90.000000
  0
ARC
  8
0
 62
     5
 10
438.916931
 20
-332.404785
 40
3.128082
 50
0.000000
 51
90.000000
  0
ARC
  8
0
 62
     5
 10
438.916931
 20
-334.903870
 40
3.128100
 50
294.999969
 51
0.000000
  0
ARC
  8
0
 62
     5
 10
463.159668
 20
-329.276672
 40
4.692149
 50
291.688202
 51
0.000000
  0
ARC
  8
0
 62
     5
 10
461.595520
 20
-328.215485
 40
1.564059
 50
291.688049
 51
0.000000
  0
CIRCLE
  8
0
 10
174.500031
 20
-149.999863
 40
5.722500
  0
CIRCLE
  8
0
 10
174.500031
 20
-149.999863
 40
6.578500
  0
CIRCLE
  8
0
 10
-354.500000
 20
-150.000000
 40
6.578500
  0
CIRCLE
  8
0
 10
164.000031
 20
-140.999817
 40
3.500000
  0
CIRCLE
  8
0
 10
-354.500000
 20
-150.000000
 40
5.722500
  0
CIRCLE
  8
0
 10
-344.000000
 20
-141.000000
 40
3.500000
  0
CIRCLE
  8
0
 10
-195.000000
 20
109.000000
 40
2.458500
  0
CIRCLE
  8
0
 10
-285.000000
 20
90.000000
 40
2.458500
  0
CIRCLE
  8
0
 10
-285.000000
 20
109.000000
 40
2.458500
  0
CIRCLE
  8
0
 10
-195.000000
 20
109.000000
 40
3.000000
  0
CIRCLE
  8
0
 10
-195.000000
 20
90.000000
 40
3.000000
  0
CIRCLE
  8
0
 10
-195.000000
 20
71.000000
 40
2.458500
  0
CIRCLE
  8
0
 10
-195.000000
 20
71.000000
 40
3.000000
  0
CIRCLE
  8
0
 10
-195.000000
 20
90.000000
 40
2.458500
  0
CIRCLE
  8
0
 10
-285.000000
 20
109.000000
 40
3.000000
  0
CIRCLE
  8
0
 10
-285.000000
 20
90.000000
 40
3.000000
  0
CIRCLE
  8
0
 10
-285.000000
 20
71.000000
 40
3.000000
  0
CIRCLE
  8
0
 10
-285.000000
 20
71.000000
 40
2.458500
  0
ARC
  8
0
 10
317.499878
 20
-104.500137
 40
1.500000
 50
90.000000
 51
180.000000
  0
ARC
  8
0
 10
389.499969
 20
-139.499924
 40
4.500000
 50
270.000000
 51
0.000000
  0
ARC
  8
0
 10
320.499969
 20
-139.500137
 40
4.500000
 50
180.000000
 51
270.000000
  0
ARC
  8
0
 10
392.499878
 20
-104.499924
 40
1.500000
 50
0.000000
 51
90.000000
  0
ARC
  8
0
 10
380.999939
 20
-127.999924
 40
3.000000
 50
0.000000
 51
90.000000
  0
ARC
  8
0
 10
328.999939
 20
-128.000076
 40
3.000000
 50
90.000000
 51
180.000000
  0
CIRCLE
  8
0
 10
344.000000
 20
-150.000061
 40
5.722500
  0
CIRCLE
  8
0
 10
366.000000
 20
-149.999939
 40
5.722500
  0
CIRCLE
  8
0
 10
366.000000
 20
-149.999939
 40
6.578500
  0
ARC
  8
0
 10
337.000092
 20
-168.000092
 40
8.000000
 50
180.000000
 51
270.000000
  0
ARC
  8
0
 10
336.999908
 20
-132.000092
 40
8.000000
 50
90.000000
 51
180.000000
  0
ARC
  8
0
 10
372.999908
 20
-131.999908
 40
8.000000
 50
0.000000
 51
90.000000
  0
ARC
  8
0
 10
373.000092
 20
-167.999908
 40
8.000000
 50
270.000000
 51
0.000000
  0
CIRCLE
  8
0
 10
372.999908
 20
-131.999908
 40
7.000000
  0
CIRCLE
  8
0
 10
372.999908
 20
-131.999908
 40
3.000000
  0
CIRCLE
  8
0
 10
372.999908
 20
-131.999908
 40
2.458500
  0
ARC
  8
0
 10
372.999908
 20
-131.999908
 40
8.000000
 50
180.000000
 51
270.000000
  0
CIRCLE
  8
0
 10
336.999908
 20
-132.000092
 40
2.458500
  0
ARC
  8
0
 10
336.999908
 20
-132.000092
 40
8.000000
 50
270.000000
 51
0.000000
  0
CIRCLE
  8
0
 10
336.999908
 20
-132.000092
 40
7.000000
  0
CIRCLE
  8
0
 10
336.999908
 20
-132.000092
 40
3.000000
  0
CIRCLE
  8
0
 10
337.000092
 20
-168.000092
 40
2.458500
  0
ARC
  8
0
 10
337.000092
 20
-168.000092
 40
8.000000
 50
0.000000
 51
90.000000
  0
CIRCLE
  8
0
 10
337.000092
 20
-168.000092
 40
7.000000
  0
CIRCLE
  8
0
 10
337.000092
 20
-168.000092
 40
3.000000
  0
CIRCLE
  8
0
 10
373.000092
 20
-167.999908
 40
2.458500
  0
ARC
  8
0
 10
373.000092
 20
-167.999908
 40
8.000000
 50
90.000000
 51
180.000000
  0
CIRCLE
  8
0
 10
373.000092
 20
-167.999908
 40
7.000000
  0
CIRCLE
  8
0
 10
373.000092
 20
-167.999908
 40
3.000000
  0
CIRCLE
  8
0
 10
344.000000
 20
-150.000061
 40
6.578500
  0
ARC
  8
0
 10
344.618896
 20
-180.000031
 40
4.000000
 50
90.000000
 51
150.000076
  0
ARC
  8
0
 10
365.381287
 20
-179.999969
 40
4.000009
 50
29.999931
 51
90.000000
  0
ARC
  8
0
 10
327.800049
 20
-170.200073
 40
0.799988
 50
180.000000
 51
0.000000
  0
ARC
  8
0
 10
329.450073
 20
-170.200073
 40
0.850003
 50
112.406876
 51
180.000000
  0
ARC
  8
0
 10
330.000061
 20
-173.700073
 40
0.300003
 50
270.000000
 51
0.000000
  0
ARC
  8
0
 10
327.800018
 20
-160.000076
 40
0.799988
 50
0.000000
 51
180.000000
  0
ARC
  8
0
 10
328.999939
 20
-128.000076
 40
2.000000
 50
90.000000
 51
180.000000
  0
ARC
  8
0
 10
326.117950
 20
-134.021454
 40
8.027232
 50
282.033325
 51
291.040405
  0
ARC
  8
0
 10
327.999969
 20
-142.850327
 40
0.999998
 50
102.032471
 51
180.000000
  0
ARC
  8
0
 10
381.999969
 20
-142.850174
 40
1.000000
 50
0.000000
 51
77.967529
  0
ARC
  8
0
 10
382.200073
 20
-170.199921
 40
0.799988
 50
180.000000
 51
0.000000
  0
ARC
  8
0
 10
380.550049
 20
-170.199921
 40
0.850006
 50
0.000000
 51
67.590828
  0
ARC
  8
0
 10
380.000061
 20
-173.699921
 40
0.299988
 50
180.000000
 51
270.000000
  0
ARC
  8
0
 10
382.200043
 20
-159.999924
 40
0.799988
 50
0.000000
 51
180.000000
  0
ARC
  8
0
 10
380.999939
 20
-127.999924
 40
2.000000
 50
0.000000
 51
90.000000
  0
ARC
  8
0
 10
383.881927
 20
-134.021271
 40
8.027231
 50
248.959579
 51
257.966675
  0
CIRCLE
  8
0
 10
354.999908
 20
-114.000031
 40
9.000000
  0
ARC
  8
0
 10
319.499969
 20
-139.500137
 40
4.500000
 50
180.000000
 51
270.000000
  0
ARC
  8
0
 10
390.499969
 20
-139.499924
 40
4.500000
 50
270.000000
 51
0.000000
  0
ARC
  8
0
 10
316.499878
 20
-104.500145
 40
1.500000
 50
90.000000
 51
180.000000
  0
ARC
  8
0
 10
393.499878
 20
-104.499916
 40
1.500000
 50
0.000000
 51
90.000000
  0
TEXT
  8
0
 10
320.176178
 20
329.975403
 40
12.000000
  1
DATE : JUN ,1991
 50
0.000000
 41
1.052631
 51
0.000000
  7
STANDARD
  0
TEXT
  8
0
 10
-488.244446
 20
328.175323
 40
14.000000
  1
RODLESS CYLINDER
 50
0.000000
 41
1.052632
 51
0.000000
  7
STANDARD
  0
TEXT
  8
0
 10
-483.244446
 20
257.950592
 40
14.000000
  1
MODEL : ORGA 32xST(300)
 50
0.000000
 41
1.052632
 51
0.000000
  7
STANDARD
  0
TEXT
  8
0
 10
-166.754395
 20
155.999969
 40
10.000000
  1
6-M6x1
 50
0.000000
 41
1.052632
 51
0.000000
  7
STANDARD
  0
TEXT
  8
0
 10
56.865482
 20
-73.500008
 40
10.000000
  1
6-Rc1/4
 50
0.000000
 41
1.052632
 51
0.000000
  7
STANDARD
  0
TEXT
  8
0
 10
-121.178566
 20
-228.000000
 40
10.000000
  1
STROKE
 50
0.000000
 41
1.052632
 51
0.000000
  7
STANDARD
  0
ENDSEC
  0
EOF
