  0
SECTION
  2
HEADER
  0
ENDSEC
  0
SECTION
  2
TABLES
  0
TABLE
  2
LTYPE
 70
     4
  0
LTYPE
  2
CONTINUOUS
 70
    64
  3
Solid line
 72
    65
 73
     0
 40
0.000000
  0
LTYPE
  2
DASHED
 70
    64
  3
__ __ __ __ __ __ __ __ __ __ __ __ __ __ __
 72
    65
 73
     2
 40
3.500000
 49
2.000000
 49
-1.500000
  0
LTYPE
  2
CENTER
 70
    64
  3
____ _ ____ _ ____ _ ____ _ ____ _ ____ _ ____
 72
    65
 73
     4
 40
17.500000
 49
13.000000
 49
-1.500000
 49
1.500000
 49
-1.500000
  0
LTYPE
  2
PHANTOM
 70
    64
  3
_____ _ _ _____ _ _ _____ _ _ _____ _ _ ____  
 72
    65
 73
     6
 40
15.500000
 49
8.000000
 49
-1.500000
 49
1.500000
 49
-1.500000
 49
1.500000
 49
-1.500000
  0
LTYPE
  2
DASHED1
 70
    64
  3
__ __ __ __ __ __ __ __ __ __ __ __ __ __ __
 72
    65
 73
     2
 40
1.500000
 49
1.000000
 49
-0.500000
  0
LTYPE
  2
DASHED2
 70
    64
  3
__ __ __ __ __ __ __ __ __ __ __ __ __ __ __
 72
    65
 73
     2
 40
3.500000
 49
2.500000
 49
-1.000000
  0
LTYPE
  2
DASHED3
 70
    64
  3
__ __ __ __ __ __ __ __ __ __ __ __ __ __ __
 72
    65
 73
     2
 40
6.000000
 49
4.000000
 49
-2.000000
  0
LTYPE
  2
DASHED4
 70
    64
  3
__ __ __ __ __ __ __ __ __ __ __ __ __ __ __
 72
    65
 73
     2
 40
12.000000
 49
10.000000
 49
-2.000000
  0
LTYPE
  2
DASHED5
 70
    64
  3
__ __ __ __ __ __ __ __ __ __ __ __ __ __ __
 72
    65
 73
     2
 40
17.000000
 49
15.000000
 49
-2.000000
  0
LTYPE
  2
DASHED6
 70
    64
  3
__ __ __ __ __ __ __ __ __ __ __ __ __ __ __
 72
    65
 73
     2
 40
29.000000
 49
27.000000
 49
-2.000000
  0
LTYPE
  2
PHANTOM1
 70
    64
  3
_____ _ _ _____ _ _ _____ _ _ _____ _ _ ____  
 72
    65
 73
     6
 40
31.000000
 49
25.000000
 49
-1.500000
 49
1.000000
 49
-1.000000
 49
1.000000
 49
-1.500000
  0
LTYPE
  2
PHANTOM2
 70
    64
  3
_____ _ _ _____ _ _ _____ _ _ _____ _ _ ____  
 72
    65
 73
     6
 40
36.000000
 49
27.000000
 49
-1.500000
 49
2.500000
 49
-1.000000
 49
2.500000
 49
-1.500000
  0
LTYPE
  2
PHANTOM3
 70
    64
  3
_____ _ _ _____ _ _ _____ _ _ _____ _ _ ____  
 72
    65
 73
     6
 40
78.000000
 49
64.000000
 49
-2.000000
 49
4.000000
 49
-2.000000
 49
4.000000
 49
-2.000000
  0
LTYPE
  2
CENTER1
 70
    64
  3
____ _ ____ _ ____ _ ____ _ ____ _ ____ _ ____
 72
    65
 73
     4
 40
19.000000
 49
14.000000
 49
-1.000000
 49
3.000000
 49
-1.000000
  0
LTYPE
  2
CENTER2
 70
    64
  3
____ _ ____ _ ____ _ ____ _ ____ _ ____ _ ____
 72
    65
 73
     4
 40
28.500000
 49
25.000000
 49
-1.000000
 49
1.500000
 49
-1.000000
  0
LTYPE
  2
CENTER3
 70
    64
  3
____ _ ____ _ ____ _ ____ _ ____ _ ____ _ ____
 72
    65
 73
     4
 40
31.500000
 49
27.000000
 49
-1.000000
 49
2.500000
 49
-1.000000
  0
LTYPE
  2
CENTER4
 70
    64
  3
____ _ ____ _ ____ _ ____ _ ____ _ ____ _ ____
 72
    65
 73
     4
 40
50.000000
 49
45.000000
 49
-1.000000
 49
3.000000
 49
-1.000000
  0
LTYPE
  2
CENTER5
 70
    64
  3
____ _ ____ _ ____ _ ____ _ ____ _ ____ _ ____
 72
    65
 73
     4
 40
100.000000
 49
92.000000
 49
-2.000000
 49
4.000000
 49
-2.000000
  0
LTYPE
  2
SBK1
 70
    64
  3
______ _ _ _ ______ _ _ _ ______ _ _ _ _____  
 72
    65
 73
     8
 40
60.500000
 49
45.000000
 49
-2.000000
 49
2.500000
 49
-2.000000
 49
2.500000
 49
-2.000000
 49
2.500000
 49
-2.000000
  0
LTYPE
  2
SBK2
 70
    64
  3
______ _ _ _ ______ _ _ _ ______ _ _ _ _____  
 72
    65
 73
     8
 40
84.000000
 49
64.000000
 49
-2.000000
 49
4.000000
 49
-2.000000
 49
4.000000
 49
-2.000000
 49
4.000000
 49
-2.000000
  0
LTYPE
  2
STCH
 70
    64
  3
__ __ __ __ __ __ __ __ __ __ __ __ __ __ __
 72
    65
 73
     2
 40
3.000000
 49
1.000000
 49
-2.000000
  0
LTYPE
  2
MTCH
 70
    64
  3
_____ _ _ _____ _ _ _____ _ _ _____ _ _ ____  
 72
    65
 73
     6
 40
80.000000
 49
66.000000
 49
-2.000000
 49
4.000000
 49
-2.000000
 49
4.000000
 49
-2.000000
  0
ENDTAB
  0
TABLE
  2
LAYER
 70
     1
  0
LAYER
  2
0
 70
     0
 62
     7
  6
CONTINUOUS
  0
ENDTAB
  0
TABLE
  2
STYLE
 70
     1
  0
STYLE
  2
STANDARD
 70
     0
 40
0.000000
 41
1.000000
 50
0.000000
 71
     0
 42
0.200000
  3
txt
  4
BIGFONT
  0
ENDTAB
  0
TABLE
  2
VIEW
 70
     0
  0
ENDTAB
  0
ENDSEC
  0
SECTION
  2
BLOCKS
  0
ENDSEC
  0
SECTION
  2
ENTITIES
  0
POINT
  8
0
 10
-143.436798
 20
28.470764
  0
POINT
  8
0
 10
-143.436783
 20
-67.279228
  0
POINT
  8
0
 10
-41.136768
 20
-67.279236
  0
POINT
  8
0
 10
38.999992
 20
34.470757
  0
POINT
  8
0
 10
38.999989
 20
-62.279224
  0
POINT
  8
0
 10
145.000031
 20
-62.279247
  0
POINT
  8
0
 10
-143.436737
 20
31.970741
  0
POINT
  8
0
 10
-119.436768
 20
-67.279228
  0
POINT
  8
0
 10
-119.436798
 20
28.470764
  0
POINT
  8
0
 10
-26.136768
 20
-67.279236
  0
POINT
  8
0
 10
62.999989
 20
-62.279224
  0
POINT
  8
0
 10
62.999992
 20
34.470757
  0
POINT
  8
0
 10
163.000031
 20
-62.279247
  0
LINE
  8
0
 62
     3
 10
-185.436783
 20
-127.279236
 11
-185.436783
 21
127.279236
  0
LINE
  8
0
 62
     3
 10
185.436783
 20
127.279236
 11
185.436783
 21
-127.279236
  0
LINE
  8
0
 62
     3
 10
-185.436783
 20
-127.279236
 11
185.436783
 21
-127.279236
  0
LINE
  8
0
 62
     3
 10
-185.436783
 20
127.279236
 11
185.436783
 21
127.279236
  0
LINE
  8
0
 62
     3
 10
-185.436783
 20
112.978195
 11
-109.164589
 21
112.978195
  0
LINE
  8
0
 62
     3
 10
-109.164589
 20
112.978195
 11
-109.164589
 21
127.279236
  0
LINE
  8
0
 62
     3
 10
109.164581
 20
-112.978210
 11
185.436783
 21
-112.978210
  0
LINE
  8
0
 62
     5
 10
129.190811
 20
-116.416870
 11
136.517700
 21
-116.416870
  0
LINE
  8
0
 62
     5
 10
129.190811
 20
-122.914322
 11
135.411774
 21
-122.914322
  0
LINE
  8
0
 62
     5
 10
129.190811
 20
-124.573227
 11
137.623672
 21
-124.573227
  0
LINE
  8
0
 62
     5
 10
129.190811
 20
-118.075790
 11
135.411774
 21
-118.075790
  0
LINE
  8
0
 62
     5
 10
129.190811
 20
-116.416870
 11
129.190811
 21
-118.075790
  0
LINE
  8
0
 62
     5
 10
137.623672
 20
-117.522827
 11
137.623672
 21
-124.573227
  0
LINE
  8
0
 62
     5
 10
135.411774
 20
-118.075790
 11
135.411774
 21
-122.914322
  0
LINE
  8
0
 62
     5
 10
138.867828
 20
-116.416870
 11
138.867828
 21
-118.075790
  0
LINE
  8
0
 62
     5
 10
146.747696
 20
-118.075790
 11
146.747696
 21
-123.467316
  0
LINE
  8
0
 62
     5
 10
144.535812
 20
-118.075790
 11
144.535812
 21
-122.914322
  0
LINE
  8
0
 62
     5
 10
129.190811
 20
-122.914322
 11
129.190811
 21
-124.573227
  0
LINE
  8
0
 62
     5
 10
138.867828
 20
-116.416870
 11
141.053345
 21
-116.416870
  0
LINE
  8
0
 62
     5
 10
138.867828
 20
-124.573227
 11
140.585297
 21
-124.573227
  0
LINE
  8
0
 62
     5
 10
138.867752
 20
-124.573166
 11
140.608795
 21
-118.075737
  0
LINE
  8
0
 62
     5
 10
138.867828
 20
-118.075790
 11
140.608841
 21
-118.075790
  0
LINE
  8
0
 62
     5
 10
140.585434
 20
-124.573364
 11
142.326385
 21
-118.075928
  0
LINE
  8
0
 62
     5
 10
142.876877
 20
-122.914322
 11
144.535812
 21
-122.914322
  0
LINE
  8
0
 62
     5
 10
142.876907
 20
-122.914337
 11
143.321396
 21
-124.573227
  0
LINE
  8
0
 62
     5
 10
143.321426
 20
-124.573227
 11
145.641785
 21
-124.573227
  0
LINE
  8
0
 62
     5
 10
142.326279
 20
-118.075790
 11
144.535812
 21
-118.075790
  0
LINE
  8
0
 62
     5
 10
142.770782
 20
-116.416870
 11
145.088776
 21
-116.416870
  0
LINE
  8
0
 62
     5
 10
141.053421
 20
-116.416908
 11
141.383072
 21
-115.186577
  0
LINE
  8
0
 62
     5
 10
142.770691
 20
-116.416794
 11
143.100342
 21
-115.186401
  0
LINE
  8
0
 62
     5
 10
148.130142
 20
-116.416870
 11
150.756775
 21
-116.416870
  0
LINE
  8
0
 62
     5
 10
148.130142
 20
-118.075790
 11
154.581039
 21
-118.075790
  0
LINE
  8
0
 62
     5
 10
150.756775
 20
-124.573227
 11
152.968643
 21
-124.573227
  0
LINE
  8
0
 62
     5
 10
148.130142
 20
-116.416870
 11
148.130142
 21
-118.075790
  0
LINE
  8
0
 62
     5
 10
156.286499
 20
-121.083908
 11
156.286499
 21
-122.914322
  0
LINE
  8
0
 62
     5
 10
148.130035
 20
-122.914253
 11
150.756714
 21
-121.689400
  0
LINE
  8
0
 62
     5
 10
148.130325
 20
-121.084061
 11
154.581238
 21
-118.075935
  0
LINE
  8
0
 62
     5
 10
148.130142
 20
-121.083908
 11
148.130142
 21
-122.914322
  0
LINE
  8
0
 62
     5
 10
152.968597
 20
-121.367157
 11
156.286514
 21
-122.914276
  0
LINE
  8
0
 62
     5
 10
154.171204
 20
-120.097549
 11
156.286728
 21
-121.084045
  0
LINE
  8
0
 62
     5
 10
156.286499
 20
-117.522827
 11
156.286499
 21
-118.406387
  0
LINE
  8
0
 62
     5
 10
150.756775
 20
-115.186523
 11
150.756775
 21
-116.416870
  0
LINE
  8
0
 62
     5
 10
152.968643
 20
-115.186523
 11
152.968643
 21
-116.416870
  0
LINE
  8
0
 62
     5
 10
152.968643
 20
-116.416870
 11
155.180557
 21
-116.416870
  0
LINE
  8
0
 62
     5
 10
150.756775
 20
-121.689514
 11
150.756775
 21
-124.573227
  0
LINE
  8
0
 62
     5
 10
152.968643
 20
-121.367203
 11
152.968643
 21
-124.573227
  0
LINE
  8
0
 62
     5
 10
154.171204
 20
-120.097557
 11
155.648163
 21
-119.408852
  0
LINE
  8
0
 62
     5
 10
163.751663
 20
-115.684204
 11
165.410553
 21
-115.684204
  0
LINE
  8
0
 62
     5
 10
156.977722
 20
-119.110947
 11
156.977722
 21
-120.896240
  0
LINE
  8
0
 62
     5
 10
165.410553
 20
-115.684204
 11
165.410553
 21
-116.416870
  0
LINE
  8
0
 62
     5
 10
163.751663
 20
-115.684204
 11
163.751663
 21
-116.041687
  0
LINE
  8
0
 62
     5
 10
161.539749
 20
-119.081879
 11
161.539749
 21
-124.573227
  0
LINE
  8
0
 62
     5
 10
156.977844
 20
-119.111031
 11
163.403137
 21
-116.555603
  0
LINE
  8
0
 62
     5
 10
156.977783
 20
-120.896362
 11
161.539810
 21
-119.081955
  0
LINE
  8
0
 62
     5
 10
161.539749
 20
-124.573227
 11
163.751663
 21
-124.573227
  0
LINE
  8
0
 62
     5
 10
163.751663
 20
-118.202194
 11
163.751663
 21
-124.573227
  0
LINE
  8
0
 62
     5
 10
163.751831
 20
-118.202301
 11
164.364929
 21
-117.958435
  0
LINE
  8
0
 62
     5
 10
141.383057
 20
-115.186523
 11
143.100449
 21
-115.186523
  0
LINE
  8
0
 62
     5
 10
145.849136
 20
-115.186523
 11
146.554138
 21
-115.186523
  0
LINE
  8
0
 62
     5
 10
150.756775
 20
-115.186523
 11
152.968643
 21
-115.186523
  0
LINE
  8
0
 62
     5
 10
145.849136
 20
-116.292480
 11
146.554138
 21
-116.292480
  0
LINE
  8
0
 62
     5
 10
145.849136
 20
-115.186523
 11
145.849136
 21
-116.292480
  0
LINE
  8
0
 62
     5
 10
146.554138
 20
-115.186523
 11
146.554138
 21
-116.292480
  0
LINE
  8
0
 62
     5
 10
146.968918
 20
-115.186523
 11
146.968918
 21
-116.292480
  0
LINE
  8
0
 62
     5
 10
147.756912
 20
-115.186523
 11
147.756912
 21
-116.292480
  0
LINE
  8
0
 62
     5
 10
146.968918
 20
-115.186523
 11
147.756912
 21
-115.186523
  0
LINE
  8
0
 62
     5
 10
146.968918
 20
-116.292480
 11
147.756912
 21
-116.292480
  0
LINE
  8
0
 62
     3
 10
109.164581
 20
112.978195
 11
185.436783
 21
112.978195
  0
LINE
  8
0
 62
     3
 10
109.164581
 20
127.279236
 11
109.164581
 21
112.978195
  0
LINE
  8
0
 62
     3
 10
109.164581
 20
-112.978210
 11
109.164581
 21
-127.279236
  0
LINE
  8
0
 10
0.000000
 20
-127.279236
 11
0.000000
 21
127.279236
  0
LINE
  8
0
  6
CENTER
 10
-53.136780
 20
-58.279236
 11
-53.136780
 21
-59.108879
  0
LINE
  8
0
  6
CENTER
 10
-68.436783
 20
-67.279236
 11
-21.136780
 21
-67.279236
  0
LINE
  8
0
  6
PHANTOM
 10
-50.136780
 20
-79.279236
 11
-49.136780
 21
-79.279236
  0
LINE
  8
0
  6
PHANTOM
 10
-50.136780
 20
-55.279236
 11
-41.136780
 21
-55.279236
  0
LINE
  8
0
  6
PHANTOM
 10
-53.136780
 20
-61.329239
 11
-53.136780
 21
-64.279236
  0
LINE
  8
0
  6
PHANTOM
 10
-119.436783
 20
16.470764
 11
-105.436783
 21
16.470764
  0
LINE
  8
0
  6
PHANTOM
 10
-165.436783
 20
16.470764
 11
-141.436783
 21
16.470764
  0
LINE
  8
0
  6
CENTER
 10
-41.136780
 20
-52.279240
 11
-41.136780
 21
-85.279236
  0
LINE
  8
0
  6
PHANTOM
 10
-47.136780
 20
-82.279236
 11
-42.836784
 21
-82.279236
  0
LINE
  8
0
  6
PHANTOM
 10
-47.136780
 20
-81.279236
 11
-47.136780
 21
-82.279236
  0
LINE
  8
0
  6
PHANTOM
 10
-42.836784
 20
-81.279236
 11
-42.836784
 21
-82.279236
  0
LINE
  8
0
  6
PHANTOM
 10
-44.136780
 20
-79.779236
 11
-44.136780
 21
-81.279236
  0
LINE
  8
0
  6
PHANTOM
 10
-44.136780
 20
-81.279236
 11
-42.836784
 21
-81.279236
  0
LINE
  8
0
  6
PHANTOM
 10
-42.722565
 20
-78.779236
 11
-41.136780
 21
-78.779236
  0
LINE
  8
0
  6
PHANTOM
 10
-44.136837
 20
-79.779175
 11
-43.429726
 21
-79.072060
  0
LINE
  8
0
  6
PHANTOM
 10
-53.136780
 20
-65.279228
 11
-53.136780
 21
-69.279243
  0
LINE
  8
0
  6
PHANTOM
 10
-53.136780
 20
-70.279289
 11
-53.136780
 21
-73.229240
  0
LINE
  8
0
  6
CENTER
 10
-168.436783
 20
-67.279236
 11
-102.436783
 21
-67.279236
  0
LINE
  8
0
  6
CENTER
 10
-168.436783
 20
28.470764
 11
-102.436783
 21
28.470764
  0
LINE
  8
0
  6
PHANTOM
 10
-165.436783
 20
-55.279236
 11
-105.436783
 21
-55.279236
  0
LINE
  8
0
  6
PHANTOM
 10
-164.118073
 20
-79.279236
 11
-104.118073
 21
-79.279236
  0
LINE
  8
0
  6
PHANTOM
 10
-165.436783
 20
-82.279236
 11
-105.436783
 21
-82.279236
  0
LINE
  8
0
  6
PHANTOM
 10
-164.240952
 20
23.770767
 11
-104.240952
 21
23.770767
  0
LINE
  8
0
  6
PHANTOM
 10
-166.598022
 20
-59.629234
 11
-106.598030
 21
-59.629234
  0
LINE
  8
0
  6
PHANTOM
 10
-166.684967
 20
-60.929237
 11
-106.684967
 21
-60.929237
  0
LINE
  8
0
  6
PHANTOM
 10
-163.471313
 20
-73.629242
 11
-140.436783
 21
-73.629242
  0
LINE
  8
0
  6
PHANTOM
 10
-163.427917
 20
-74.929237
 11
-140.436783
 21
-74.929237
  0
LINE
  8
0
  6
PHANTOM
 10
-125.436783
 20
-73.629242
 11
-103.471313
 21
-73.629242
  0
LINE
  8
0
  6
PHANTOM
 10
-125.436783
 20
-74.929237
 11
-103.427917
 21
-74.929237
  0
LINE
  8
0
  6
CENTER
 10
110.000000
 20
-62.279236
 11
168.000000
 21
-62.279236
  0
LINE
  8
0
  6
PHANTOM
 10
63.000000
 20
16.470764
 11
77.000000
 21
16.470764
  0
LINE
  8
0
  6
PHANTOM
 10
17.000000
 20
16.470764
 11
41.000000
 21
16.470764
  0
LINE
  8
0
  6
CENTER
 10
14.000000
 20
-62.279236
 11
80.000000
 21
-62.279236
  0
LINE
  8
0
  6
CENTER
 10
14.000000
 20
34.470764
 11
80.000000
 21
34.470764
  0
LINE
  8
0
  6
PHANTOM
 10
18.429756
 20
-65.879234
 11
41.999992
 21
-65.879234
  0
LINE
  8
0
  6
PHANTOM
 10
15.913971
 20
-58.679237
 11
41.999992
 21
-58.679237
  0
LINE
  8
0
  6
PHANTOM
 10
19.434589
 20
-70.879234
 11
41.999992
 21
-70.879234
  0
LINE
  8
0
  6
PHANTOM
 10
15.327007
 20
-53.679237
 11
75.327011
 21
-53.679237
  0
LINE
  8
0
  6
PHANTOM
 10
15.368847
 20
-51.779236
 11
75.368851
 21
-51.779236
  0
LINE
  8
0
  6
PHANTOM
 10
19.545055
 20
-72.779236
 11
41.999992
 21
-72.779236
  0
LINE
  8
0
  6
PHANTOM
 10
17.000000
 20
-44.279236
 11
77.000000
 21
-44.279236
  0
LINE
  8
0
  6
PHANTOM
 10
17.000000
 20
-84.279236
 11
77.000000
 21
-84.279236
  0
LINE
  8
0
  6
PHANTOM
 10
18.550056
 20
-80.279236
 11
78.550056
 21
-80.279236
  0
LINE
  8
0
  6
CENTER
 10
145.000000
 20
-39.279236
 11
145.000000
 21
-89.279236
  0
LINE
  8
0
  6
PHANTOM
 10
127.000000
 20
-50.279236
 11
127.000000
 21
-51.237854
  0
LINE
  8
0
  6
PHANTOM
 10
133.000000
 20
-44.279236
 11
145.000000
 21
-44.279236
  0
LINE
  8
0
  6
PHANTOM
 10
136.000000
 20
-84.279236
 11
142.800003
 21
-84.279236
  0
LINE
  8
0
  6
PHANTOM
 10
127.000000
 20
-54.279236
 11
127.000000
 21
-59.279236
  0
LINE
  8
0
  6
PHANTOM
 10
142.800003
 20
-83.279236
 11
142.800003
 21
-84.279236
  0
LINE
  8
0
  6
PHANTOM
 10
136.000000
 20
-83.279236
 11
136.000000
 21
-84.279236
  0
LINE
  8
0
  6
PHANTOM
 10
142.800003
 20
-79.779236
 11
145.000000
 21
-79.779236
  0
LINE
  8
0
  6
PHANTOM
 10
141.250000
 20
-83.279236
 11
142.800003
 21
-83.279236
  0
LINE
  8
0
  6
PHANTOM
 10
141.250000
 20
-81.779236
 11
141.250000
 21
-83.279236
  0
LINE
  8
0
  6
PHANTOM
 10
127.000000
 20
-60.279236
 11
127.000000
 21
-64.279236
  0
LINE
  8
0
  6
PHANTOM
 10
127.000000
 20
-65.279312
 11
127.000000
 21
-70.279236
  0
LINE
  8
0
  6
PHANTOM
 10
56.999992
 20
-58.679237
 11
75.913971
 21
-58.679237
  0
LINE
  8
0
  6
PHANTOM
 10
56.999992
 20
-65.879234
 11
78.429756
 21
-65.879234
  0
LINE
  8
0
  6
PHANTOM
 10
56.999992
 20
-70.879234
 11
79.434586
 21
-70.879234
  0
LINE
  8
0
  6
PHANTOM
 10
56.999992
 20
-72.779236
 11
79.545059
 21
-72.779236
  0
LINE
  8
0
  6
PHANTOM
 10
18.611309
 20
27.270767
 11
78.611313
 21
27.270767
  0
LINE
  8
0
 10
-125.436775
 20
-63.779228
 11
-119.436775
 21
-63.779228
  0
LINE
  8
0
 10
-133.336792
 20
-67.460190
 11
-132.936783
 21
-67.691132
  0
LINE
  8
0
 10
-132.936768
 20
-67.691116
 11
-132.536758
 21
-67.460175
  0
LINE
  8
0
 10
-132.536774
 20
-67.460182
 11
-132.536774
 21
-66.998299
  0
LINE
  8
0
 10
-133.336777
 20
-66.998299
 11
-133.336777
 21
-67.460182
  0
LINE
  8
0
 10
-132.936752
 20
-66.767365
 11
-133.336761
 21
-66.998306
  0
LINE
  8
0
 10
-132.536774
 20
-66.998314
 11
-132.936783
 21
-66.767372
  0
LINE
  8
0
 10
-140.436783
 20
-62.229240
 11
-125.436775
 21
-62.229240
  0
LINE
  8
0
 10
-125.436775
 20
-62.229240
 11
-125.436775
 21
-79.029228
  0
LINE
  8
0
 10
-140.436783
 20
-62.229240
 11
-140.436783
 21
-79.029228
  0
LINE
  8
0
 10
-140.436783
 20
-79.029228
 11
-125.436775
 21
-79.029228
  0
LINE
  8
0
 10
-119.436775
 20
-70.779228
 11
-119.436775
 21
-63.779228
  0
LINE
  8
0
 10
-141.436783
 20
-70.779228
 11
-141.436783
 21
-63.779228
  0
LINE
  8
0
 10
-143.436783
 20
-69.779228
 11
-143.436783
 21
-64.779228
  0
LINE
  8
0
 10
-141.436783
 20
-63.779228
 11
-140.436783
 21
-63.779228
  0
LINE
  8
0
 10
-141.436783
 20
-70.779228
 11
-140.436783
 21
-70.779228
  0
LINE
  8
0
 10
-125.436775
 20
-70.779228
 11
-119.436775
 21
-70.779228
  0
LINE
  8
0
 10
-143.436783
 20
-69.779228
 11
-141.436783
 21
-69.779228
  0
LINE
  8
0
 10
-143.436783
 20
-64.779228
 11
-141.436783
 21
-64.779228
  0
LINE
  8
0
 10
-158.436783
 20
-65.579231
 11
-143.436783
 21
-65.579231
  0
LINE
  8
0
 10
-158.436783
 20
-68.979240
 11
-143.436783
 21
-68.979240
  0
LINE
  8
0
  6
CENTER
 10
-132.936783
 20
-65.229240
 11
-132.936783
 21
-69.229240
  0
LINE
  8
0
  6
CENTER
 10
-122.436775
 20
-63.279228
 11
-122.436775
 21
-71.279228
  0
LINE
  8
0
 10
-140.436798
 20
10.670761
 11
-140.436798
 21
4.170761
  0
LINE
  8
0
 10
-158.436798
 20
11.120762
 11
-143.436798
 21
11.120762
  0
LINE
  8
0
 10
-158.436798
 20
14.520767
 11
-143.436798
 21
14.520767
  0
LINE
  8
0
 10
-141.436798
 20
9.170761
 11
-140.436798
 21
9.170761
  0
LINE
  8
0
 10
-141.436798
 20
16.470764
 11
-119.436798
 21
16.470764
  0
LINE
  8
0
 10
-141.436798
 20
16.470764
 11
-141.436798
 21
9.170761
  0
LINE
  8
0
 10
-143.436798
 20
15.320763
 11
-143.436798
 21
10.320763
  0
LINE
  8
0
 10
-119.436798
 20
16.470764
 11
-119.436798
 21
9.170761
  0
LINE
  8
0
 10
-143.436798
 20
10.320763
 11
-141.436798
 21
10.320763
  0
LINE
  8
0
 10
-143.436798
 20
15.320763
 11
-141.436798
 21
15.320763
  0
LINE
  8
0
 10
-125.436798
 20
16.470764
 11
-125.436798
 21
4.170761
  0
LINE
  8
0
 10
-135.436798
 20
16.470764
 11
-135.436798
 21
10.670761
  0
LINE
  8
0
 10
-140.436798
 20
4.170761
 11
-125.436798
 21
4.170761
  0
LINE
  8
0
 10
-140.436798
 20
10.670761
 11
-125.436798
 21
10.670761
  0
LINE
  8
0
 10
-125.436798
 20
9.170761
 11
-119.436798
 21
9.170761
  0
LINE
  8
0
  6
CENTER
 10
-122.436798
 20
12.170761
 11
-122.436798
 21
4.970764
  0
LINE
  8
0
 10
-62.436768
 20
-62.179237
 11
-59.936768
 21
-62.179237
  0
LINE
  8
0
 10
-65.436768
 20
-65.179237
 11
-65.436768
 21
-71.564018
  0
LINE
  8
0
 10
-60.436768
 20
-63.779236
 11
-60.436768
 21
-70.779236
  0
LINE
  8
0
 10
-61.436768
 20
-63.679237
 11
-58.936768
 21
-63.679237
  0
LINE
  8
0
 10
-58.936768
 20
-63.179237
 11
-58.936768
 21
-63.679237
  0
LINE
  8
0
 10
-56.536774
 20
-70.779236
 11
-56.536774
 21
-72.479233
  0
LINE
  8
0
 10
-53.584778
 20
-73.629242
 11
-52.736771
 21
-73.629242
  0
LINE
  8
0
 10
-52.336777
 20
-73.229240
 11
-52.336777
 21
-73.229240
  0
LINE
  8
0
 10
-63.704632
 20
-74.282959
 11
-53.794147
 21
-78.904297
  0
LINE
  8
0
 10
-53.636780
 20
-70.779236
 11
-61.436768
 21
-70.779236
  0
LINE
  8
0
 10
-53.136780
 20
-64.279228
 11
-53.136780
 21
-65.279236
  0
LINE
  8
0
 10
-53.636780
 20
-63.779236
 11
-60.436768
 21
-63.779236
  0
LINE
  8
0
 10
-53.636780
 20
-63.779251
 11
-53.136780
 21
-64.279251
  0
LINE
  8
0
 10
-53.636734
 20
-70.779305
 11
-53.136734
 21
-70.279305
  0
LINE
  8
0
 10
-53.136780
 20
-69.279236
 11
-53.136780
 21
-70.279259
  0
LINE
  8
0
 10
-61.436768
 20
-63.679237
 11
-61.436768
 21
-66.298286
  0
LINE
  8
0
 10
-61.436768
 20
-68.160187
 11
-61.436768
 21
-70.779236
  0
LINE
  8
0
 10
56.999989
 20
-56.679226
 11
56.999989
 21
-77.879227
  0
LINE
  8
0
 10
41.999989
 20
-56.679226
 11
41.999989
 21
-77.879227
  0
LINE
  8
0
 10
62.999989
 20
-65.779221
 11
62.999989
 21
-58.779224
  0
LINE
  8
0
 10
40.999989
 20
-65.779221
 11
40.999989
 21
-58.779224
  0
LINE
  8
0
 10
38.999989
 20
-64.779221
 11
38.999989
 21
-59.779224
  0
LINE
  8
0
 10
40.999989
 20
-58.779224
 11
41.999989
 21
-58.779224
  0
LINE
  8
0
 10
40.999989
 20
-65.779221
 11
41.999989
 21
-65.779221
  0
LINE
  8
0
 10
56.999989
 20
-65.779221
 11
62.999989
 21
-65.779221
  0
LINE
  8
0
 10
38.999989
 20
-64.779221
 11
40.999989
 21
-64.779221
  0
LINE
  8
0
 10
38.999989
 20
-59.779224
 11
40.999989
 21
-59.779224
  0
LINE
  8
0
 10
23.999989
 20
-60.579227
 11
38.999989
 21
-60.579227
  0
LINE
  8
0
 10
23.999989
 20
-63.979237
 11
38.999989
 21
-63.979237
  0
LINE
  8
0
 10
56.999989
 20
-58.779224
 11
62.999989
 21
-58.779224
  0
LINE
  8
0
 10
49.499992
 20
-63.145271
 11
50.249992
 21
-62.712257
  0
LINE
  8
0
 10
48.749992
 20
-62.712238
 11
49.499989
 21
-63.145248
  0
LINE
  8
0
 10
48.749996
 20
-61.846210
 11
48.749996
 21
-62.712238
  0
LINE
  8
0
 10
49.500000
 20
-61.413227
 11
48.750000
 21
-61.846237
  0
LINE
  8
0
 10
50.250000
 20
-61.846222
 11
49.499996
 21
-61.413208
  0
LINE
  8
0
 10
50.249996
 20
-62.712238
 11
50.249996
 21
-61.846210
  0
LINE
  8
0
 10
41.999989
 20
-56.679226
 11
56.999989
 21
-56.679226
  0
LINE
  8
0
 10
41.999989
 20
-77.879227
 11
56.999989
 21
-77.879227
  0
LINE
  8
0
  6
CENTER
 10
49.499989
 20
-59.279224
 11
49.499989
 21
-65.279221
  0
LINE
  8
0
  6
CENTER
 10
59.999989
 20
-58.279224
 11
59.999989
 21
-66.279221
  0
LINE
  8
0
 10
41.999992
 20
10.470757
 11
41.999992
 21
4.470757
  0
LINE
  8
0
 10
23.999996
 20
11.120754
 11
38.999992
 21
11.120754
  0
LINE
  8
0
 10
23.999996
 20
14.520760
 11
38.999992
 21
14.520760
  0
LINE
  8
0
 10
40.999992
 20
9.170753
 11
41.999992
 21
9.170753
  0
LINE
  8
0
 10
40.999992
 20
16.470757
 11
62.999992
 21
16.470757
  0
LINE
  8
0
 10
40.999992
 20
16.470757
 11
40.999992
 21
9.170753
  0
LINE
  8
0
 10
38.999992
 20
15.320755
 11
38.999992
 21
10.320755
  0
LINE
  8
0
 10
62.999992
 20
16.470757
 11
62.999992
 21
9.170753
  0
LINE
  8
0
 10
38.999992
 20
10.320755
 11
40.999992
 21
10.320755
  0
LINE
  8
0
 10
38.999992
 20
15.320755
 11
40.999992
 21
15.320755
  0
LINE
  8
0
 10
56.999992
 20
16.470757
 11
56.999992
 21
4.470757
  0
LINE
  8
0
 10
46.999992
 20
16.470757
 11
46.999992
 21
10.470757
  0
LINE
  8
0
 10
56.999992
 20
9.170753
 11
62.999992
 21
9.170753
  0
LINE
  8
0
 10
41.999992
 20
4.470757
 11
56.999992
 21
4.470757
  0
LINE
  8
0
 10
41.999992
 20
10.470757
 11
56.999992
 21
10.470757
  0
LINE
  8
0
  6
CENTER
 10
59.999992
 20
12.170753
 11
59.999992
 21
4.970757
  0
LINE
  8
0
 10
119.700027
 20
-58.779247
 11
119.700027
 21
-65.779251
  0
LINE
  8
0
 10
126.500031
 20
-65.779251
 11
119.000031
 21
-65.779251
  0
LINE
  8
0
 10
127.000031
 20
-59.279240
 11
127.000031
 21
-60.279247
  0
LINE
  8
0
 10
126.500031
 20
-58.779247
 11
119.700027
 21
-58.779247
  0
LINE
  8
0
 10
126.500053
 20
-58.779240
 11
127.000053
 21
-59.279240
  0
LINE
  8
0
 10
126.500107
 20
-65.779312
 11
127.000107
 21
-65.279312
  0
LINE
  8
0
 10
127.000031
 20
-64.279251
 11
127.000031
 21
-65.279266
  0
LINE
  8
0
 10
125.404190
 20
-70.879242
 11
127.600029
 21
-70.879242
  0
LINE
  8
0
 10
119.000031
 20
-58.679249
 11
120.828461
 21
-58.679249
  0
LINE
  8
0
 10
117.000031
 20
-56.679249
 11
118.000031
 21
-56.679249
  0
LINE
  8
0
 10
119.000031
 20
-58.679249
 11
119.000031
 21
-60.859150
  0
LINE
  8
0
 10
115.000031
 20
-58.679249
 11
115.000031
 21
-69.218994
  0
LINE
  8
0
 10
123.600029
 20
-65.779251
 11
123.600029
 21
-67.875076
  0
LINE
  8
0
 10
124.000031
 20
-77.879257
 11
126.803261
 21
-77.879257
  0
LINE
  8
0
 10
118.000023
 20
-74.415154
 11
124.000023
 21
-77.879257
  0
LINE
  8
0
 10
122.398010
 20
-69.077225
 11
123.600090
 21
-67.875145
  0
LINE
  8
0
 10
124.802147
 20
-71.481361
 11
125.404236
 21
-70.879280
  0
LINE
  8
0
 10
119.000031
 20
-63.699345
 11
119.000031
 21
-65.779251
  0
ARC
  8
0
 62
     5
 10
136.517700
 20
-117.522827
 40
1.105942
 50
0.000000
 51
90.000000
  0
ARC
  8
0
 62
     5
 10
145.641785
 20
-123.467316
 40
1.105949
 50
270.000000
 51
0.000000
  0
ARC
  8
0
 62
     5
 10
145.088776
 20
-118.075790
 40
1.658920
 50
0.000000
 51
90.000000
  0
ARC
  8
0
 62
     5
 10
155.180557
 20
-117.522827
 40
1.105942
 50
0.000000
 51
90.000000
  0
ARC
  8
0
 62
     5
 10
155.180557
 20
-118.406387
 40
1.105945
 50
294.999969
 51
0.000000
  0
ARC
  8
0
 62
     5
 10
163.751663
 20
-116.416870
 40
1.658920
 50
291.688385
 51
0.000000
  0
ARC
  8
0
 62
     5
 10
163.198654
 20
-116.041687
 40
0.552973
 50
291.688965
 51
0.000000
  0
ARC
  8
0
  6
PHANTOM
 10
-52.736786
 20
-73.229240
 40
0.400002
 50
180.000000
 51
270.000000
  0
ARC
  8
0
  6
PHANTOM
 10
-50.136780
 20
-76.279236
 40
3.000001
 50
180.477493
 51
270.000000
  0
ARC
  8
0
  6
PHANTOM
 10
-52.736786
 20
-61.329239
 40
0.400002
 50
0.000000
 51
180.000000
  0
ARC
  8
0
  6
PHANTOM
 10
-50.136780
 20
-58.279236
 40
3.000000
 50
89.999924
 51
179.522507
  0
ARC
  8
0
  6
PHANTOM
 10
-53.136780
 20
-61.329239
 40
1.700001
 50
0.000000
 51
74.878357
  0
ARC
  8
0
  6
PHANTOM
 10
-51.886780
 20
-61.329239
 40
0.450001
 50
180.000000
 51
0.000000
  0
ARC
  8
0
  6
PHANTOM
 10
-52.536781
 20
-59.108879
 40
0.599998
 50
180.000000
 51
254.878403
  0
ARC
  8
0
  6
PHANTOM
 10
-49.136780
 20
-81.279236
 40
2.000000
 50
0.000000
 51
90.000000
  0
ARC
  8
0
  6
PHANTOM
 10
-42.722565
 20
-79.779236
 40
1.000000
 50
90.000000
 51
135.000000
  0
ARC
  8
0
  6
PHANTOM
 10
-151.689056
 20
-61.279236
 40
14.999998
 50
156.421829
 51
203.578156
  0
ARC
  8
0
  6
PHANTOM
 10
-91.689056
 20
-61.279236
 40
14.999998
 50
156.421829
 51
203.578140
  0
ARC
  8
0
  6
PHANTOM
 10
-118.427162
 20
-74.779236
 40
14.999998
 50
330.000000
 51
30.000004
  0
ARC
  8
0
  6
PHANTOM
 10
-178.427155
 20
-74.779236
 40
15.000005
 50
330.000000
 51
29.999989
  0
ARC
  8
0
  6
PHANTOM
 10
-179.184509
 20
22.470764
 40
14.999999
 50
336.421814
 51
23.578180
  0
ARC
  8
0
  6
PHANTOM
 10
-119.184509
 20
22.470764
 40
14.999999
 50
336.421814
 51
23.578180
  0
ARC
  8
0
  6
PHANTOM
 10
100.323807
 20
-53.279236
 40
24.999998
 50
158.899811
 51
201.100159
  0
ARC
  8
0
  6
PHANTOM
 10
54.550056
 20
-73.279236
 40
25.000000
 50
333.896118
 51
26.103882
  0
ARC
  8
0
  6
PHANTOM
 10
-5.449944
 20
-73.279236
 40
25.000002
 50
333.896118
 51
26.103880
  0
ARC
  8
0
  6
PHANTOM
 10
40.323807
 20
-53.279236
 40
25.000002
 50
158.899811
 51
201.100174
  0
ARC
  8
0
  6
PHANTOM
 10
133.000000
 20
-50.279236
 40
6.000000
 50
90.000000
 51
179.999969
  0
ARC
  8
0
  6
PHANTOM
 10
127.599998
 20
-54.279236
 40
0.599998
 50
0.000000
 51
180.000000
  0
ARC
  8
0
  6
PHANTOM
 10
128.850006
 20
-54.279236
 40
0.649994
 50
180.000000
 51
0.000000
  0
ARC
  8
0
  6
PHANTOM
 10
127.000000
 20
-54.279236
 40
2.500000
 50
0.000000
 51
78.840057
  0
ARC
  8
0
  6
PHANTOM
 10
127.599998
 20
-51.237854
 40
0.599998
 50
180.000000
 51
258.840240
  0
ARC
  8
0
  6
PHANTOM
 10
127.000000
 20
-70.279236
 40
2.499997
 50
276.069122
 51
1.548162
  0
ARC
  8
0
  6
PHANTOM
 10
127.599998
 20
-70.279236
 40
0.599998
 50
180.000000
 51
270.000000
  0
ARC
  8
0
  6
PHANTOM
 10
133.000000
 20
-83.279236
 40
3.000000
 50
0.000000
 51
90.000000
  0
ARC
  8
0
  6
PHANTOM
 10
143.250000
 20
-81.779236
 40
2.000000
 50
90.000000
 51
180.000000
  0
ARC
  8
0
  6
PHANTOM
 10
128.850006
 20
-70.229233
 40
0.650002
 50
1.548303
 51
182.290527
  0
ARC
  8
0
  6
PHANTOM
 10
133.000000
 20
-74.279236
 40
6.000002
 50
204.315735
 51
270.000000
  0
ARC
  8
0
  6
PHANTOM
 10
53.676193
 20
25.470764
 40
25.000000
 50
338.899811
 51
21.100197
  0
ARC
  8
0
  6
PHANTOM
 10
-6.323807
 20
25.470764
 40
25.000000
 50
338.899811
 51
21.100197
  0
CIRCLE
  8
0
 10
-132.936783
 20
-67.229240
 40
1.000000
  0
CIRCLE
  8
0
 10
-132.936783
 20
-67.229240
 40
0.783500
  0
ARC
  8
0
 10
-160.247147
 20
-68.129234
 40
1.999992
 50
334.849274
 51
25.150717
  0
CIRCLE
  8
0
 10
-122.436775
 20
-67.279228
 40
2.000000
  0
ARC
  8
0
 10
-156.626389
 20
-66.429237
 40
2.000006
 50
154.849472
 51
205.150528
  0
ARC
  8
0
 10
-122.436798
 20
10.237427
 40
2.266667
 50
208.072479
 51
331.927490
  0
ARC
  8
0
 10
-156.626419
 20
13.670761
 40
2.000007
 50
154.849442
 51
205.150558
  0
ARC
  8
0
 10
-160.247192
 20
11.970764
 40
2.000007
 50
334.849426
 51
25.150581
  0
ARC
  8
0
 10
-52.736771
 20
-73.229240
 40
0.400002
 50
270.000000
 51
0.000000
  0
ARC
  8
0
 10
-50.136765
 20
-76.329239
 40
3.000000
 50
152.602783
 51
209.133194
  0
ARC
  8
0
 10
-52.356369
 20
-75.178848
 40
0.500003
 50
111.815453
 51
152.602722
  0
ARC
  8
0
 10
-53.456039
 20
-78.179237
 40
0.799999
 50
244.999817
 51
29.133205
  0
ARC
  8
0
 10
-62.436768
 20
-71.564018
 40
3.000000
 50
180.000000
 51
244.999985
  0
ARC
  8
0
 10
-59.370102
 20
-67.279236
 40
2.266666
 50
118.072464
 51
241.927536
  0
ARC
  8
0
 10
-62.436768
 20
-65.179237
 40
3.000000
 50
90.000000
 51
180.000000
  0
ARC
  8
0
 10
-59.936768
 20
-63.179237
 40
1.000000
 50
0.000000
 51
90.000000
  0
ARC
  8
0
 10
-54.836777
 20
-72.479233
 40
1.700001
 50
180.000000
 51
317.431519
  0
ARC
  8
0
 10
-51.936768
 20
-73.229240
 40
0.400002
 50
0.000000
 51
180.000000
  0
ARC
  8
0
 10
-49.386780
 20
-67.279236
 40
4.250000
 50
151.927505
 51
208.072495
  0
ARC
  8
0
 10
-53.136765
 20
-73.229240
 40
1.599999
 50
291.815765
 51
0.000000
  0
CIRCLE
  8
0
 10
49.499989
 20
-62.279224
 40
1.229500
  0
CIRCLE
  8
0
 10
49.499989
 20
-62.279224
 40
1.500000
  0
ARC
  8
0
 10
22.189610
 20
-63.129230
 40
1.999999
 50
334.849365
 51
25.150625
  0
CIRCLE
  8
0
 10
59.999989
 20
-62.279224
 40
2.000000
  0
ARC
  8
0
 10
25.810375
 20
-61.429234
 40
1.999999
 50
154.849380
 51
205.150620
  0
ARC
  8
0
 10
59.999992
 20
10.237419
 40
2.266667
 50
208.072479
 51
331.927490
  0
ARC
  8
0
 10
25.810375
 20
13.670753
 40
2.000000
 50
154.849350
 51
205.150650
  0
ARC
  8
0
 10
22.189598
 20
11.970757
 40
2.000000
 50
334.849335
 51
25.150673
  0
ARC
  8
0
 10
127.625542
 20
-73.110992
 40
0.499998
 50
102.456551
 51
167.736893
  0
ARC
  8
0
 10
117.000031
 20
-58.679249
 40
2.000000
 50
90.000000
 51
180.000000
  0
ARC
  8
0
 10
127.600029
 20
-70.279251
 40
0.599998
 50
270.000000
 51
0.000000
  0
ARC
  8
0
 10
118.000031
 20
-59.679249
 40
3.000003
 50
19.471201
 51
90.000000
  0
ARC
  8
0
 10
120.766693
 20
-62.279247
 40
2.266666
 50
118.072464
 51
241.927490
  0
ARC
  8
0
 10
130.750031
 20
-62.279247
 40
4.250000
 50
151.927505
 51
208.072449
  0
ARC
  8
0
 10
126.803261
 20
-77.079254
 40
0.800003
 50
270.000000
 51
24.315344
  0
ARC
  8
0
 10
133.000031
 20
-74.279251
 40
5.999999
 50
167.736374
 51
204.315826
  0
ARC
  8
0
 10
127.000031
 20
-70.279251
 40
2.399999
 50
282.456177
 51
0.000000
  0
ARC
  8
0
 10
128.800034
 20
-70.279251
 40
0.599991
 50
359.999268
 51
180.000000
  0
ARC
  8
0
 10
123.600029
 20
-70.279251
 40
1.699998
 50
135.000000
 51
314.999817
  0
ARC
  8
0
 10
121.000031
 20
-69.218994
 40
6.000000
 50
180.000000
 51
240.000000
  0
TEXT
  8
0
 10
113.360985
 20
117.310349
 40
4.242641
  1
DATE : JAN ,1991
 50
0.000000
 41
1.052631
 51
0.000000
  7
STANDARD
  0
TEXT
  8
0
 10
-182.764969
 20
116.628723
 40
5.000000
  1
ORCA SENSOR SW
 50
0.000000
 41
1.052632
 51
0.000000
  7
STANDARD
  0
TEXT
  8
0
 10
97.038933
 20
63.478195
 40
5.000000
  1
     CS5M
 50
0.000000
 41
1.052632
 51
0.000000
  7
STANDARD
  0
TEXT
  8
0
 10
97.038933
 20
99.478195
 40
5.000000
  1
SW : ZG530
 50
0.000000
 41
1.052632
 51
0.000000
  7
STANDARD
  0
TEXT
  8
0
 10
7.038934
 20
99.478195
 40
5.000000
  1
MODEL : ORCA 25
 50
0.000000
 41
1.052632
 51
0.000000
  7
STANDARD
  0
TEXT
  8
0
 10
-178.401062
 20
90.478195
 40
5.000000
  1
        ORCA 20
 50
0.000000
 41
1.052632
 51
0.000000
  7
STANDARD
  0
TEXT
  8
0
 10
97.038933
 20
90.478195
 40
5.000000
  1
     ZG553
 50
0.000000
 41
1.052632
 51
0.000000
  7
STANDARD
  0
TEXT
  8
0
 10
97.038933
 20
81.478195
 40
5.000000
  1
     CS3M
 50
0.000000
 41
1.052632
 51
0.000000
  7
STANDARD
  0
TEXT
  8
0
 10
97.038933
 20
72.478195
 40
5.000000
  1
     CS4M
 50
0.000000
 41
1.052632
 51
0.000000
  7
STANDARD
  0
TEXT
  8
0
 10
-178.401062
 20
99.478195
 40
5.000000
  1
MODEL : ORCA 16
 50
0.000000
 41
1.052632
 51
0.000000
  7
STANDARD
  0
TEXT
  8
0
 10
-88.401070
 20
99.478195
 40
5.000000
  1
SW : ZG530
 50
0.000000
 41
1.052632
 51
0.000000
  7
STANDARD
  0
TEXT
  8
0
 10
-88.401070
 20
90.478195
 40
5.000000
  1
     ZG553
 50
0.000000
 41
1.052632
 51
0.000000
  7
STANDARD
  0
TEXT
  8
0
 10
-88.401070
 20
81.478195
 40
5.000000
  1
     CS3M
 50
0.000000
 41
1.052632
 51
0.000000
  7
STANDARD
  0
TEXT
  8
0
 10
-88.401070
 20
72.478195
 40
5.000000
  1
     CS4M
 50
0.000000
 41
1.052632
 51
0.000000
  7
STANDARD
  0
TEXT
  8
0
 10
-88.401070
 20
63.478195
 40
5.000000
  1
     CS5M
 50
0.000000
 41
1.052632
 51
0.000000
  7
STANDARD
  0
ENDSEC
  0
EOF
