  0
SECTION
  2
HEADER
  0
ENDSEC
  0
SECTION
  2
TABLES
  0
TABLE
  2
LTYPE
 70
     4
  0
LTYPE
  2
CONTINUOUS
 70
    64
  3
Solid line
 72
    65
 73
     0
 40
0.000000
  0
LTYPE
  2
DASHED
 70
    64
  3
__ __ __ __ __ __ __ __ __ __ __ __ __ __ __
 72
    65
 73
     2
 40
3.500000
 49
2.000000
 49
-1.500000
  0
LTYPE
  2
CENTER
 70
    64
  3
____ _ ____ _ ____ _ ____ _ ____ _ ____ _ ____
 72
    65
 73
     4
 40
17.500000
 49
13.000000
 49
-1.500000
 49
1.500000
 49
-1.500000
  0
LTYPE
  2
PHANTOM
 70
    64
  3
_____ _ _ _____ _ _ _____ _ _ _____ _ _ ____  
 72
    65
 73
     6
 40
15.500000
 49
8.000000
 49
-1.500000
 49
1.500000
 49
-1.500000
 49
1.500000
 49
-1.500000
  0
LTYPE
  2
DASHED1
 70
    64
  3
__ __ __ __ __ __ __ __ __ __ __ __ __ __ __
 72
    65
 73
     2
 40
1.500000
 49
1.000000
 49
-0.500000
  0
LTYPE
  2
DASHED2
 70
    64
  3
__ __ __ __ __ __ __ __ __ __ __ __ __ __ __
 72
    65
 73
     2
 40
3.500000
 49
2.500000
 49
-1.000000
  0
LTYPE
  2
DASHED3
 70
    64
  3
__ __ __ __ __ __ __ __ __ __ __ __ __ __ __
 72
    65
 73
     2
 40
6.000000
 49
4.000000
 49
-2.000000
  0
LTYPE
  2
DASHED4
 70
    64
  3
__ __ __ __ __ __ __ __ __ __ __ __ __ __ __
 72
    65
 73
     2
 40
12.000000
 49
10.000000
 49
-2.000000
  0
LTYPE
  2
DASHED5
 70
    64
  3
__ __ __ __ __ __ __ __ __ __ __ __ __ __ __
 72
    65
 73
     2
 40
17.000000
 49
15.000000
 49
-2.000000
  0
LTYPE
  2
DASHED6
 70
    64
  3
__ __ __ __ __ __ __ __ __ __ __ __ __ __ __
 72
    65
 73
     2
 40
29.000000
 49
27.000000
 49
-2.000000
  0
LTYPE
  2
PHANTOM1
 70
    64
  3
_____ _ _ _____ _ _ _____ _ _ _____ _ _ ____  
 72
    65
 73
     6
 40
31.000000
 49
25.000000
 49
-1.500000
 49
1.000000
 49
-1.000000
 49
1.000000
 49
-1.500000
  0
LTYPE
  2
PHANTOM2
 70
    64
  3
_____ _ _ _____ _ _ _____ _ _ _____ _ _ ____  
 72
    65
 73
     6
 40
36.000000
 49
27.000000
 49
-1.500000
 49
2.500000
 49
-1.000000
 49
2.500000
 49
-1.500000
  0
LTYPE
  2
PHANTOM3
 70
    64
  3
_____ _ _ _____ _ _ _____ _ _ _____ _ _ ____  
 72
    65
 73
     6
 40
78.000000
 49
64.000000
 49
-2.000000
 49
4.000000
 49
-2.000000
 49
4.000000
 49
-2.000000
  0
LTYPE
  2
CENTER1
 70
    64
  3
____ _ ____ _ ____ _ ____ _ ____ _ ____ _ ____
 72
    65
 73
     4
 40
19.000000
 49
14.000000
 49
-1.000000
 49
3.000000
 49
-1.000000
  0
LTYPE
  2
CENTER2
 70
    64
  3
____ _ ____ _ ____ _ ____ _ ____ _ ____ _ ____
 72
    65
 73
     4
 40
28.500000
 49
25.000000
 49
-1.000000
 49
1.500000
 49
-1.000000
  0
LTYPE
  2
CENTER3
 70
    64
  3
____ _ ____ _ ____ _ ____ _ ____ _ ____ _ ____
 72
    65
 73
     4
 40
31.500000
 49
27.000000
 49
-1.000000
 49
2.500000
 49
-1.000000
  0
LTYPE
  2
CENTER4
 70
    64
  3
____ _ ____ _ ____ _ ____ _ ____ _ ____ _ ____
 72
    65
 73
     4
 40
50.000000
 49
45.000000
 49
-1.000000
 49
3.000000
 49
-1.000000
  0
LTYPE
  2
CENTER5
 70
    64
  3
____ _ ____ _ ____ _ ____ _ ____ _ ____ _ ____
 72
    65
 73
     4
 40
100.000000
 49
92.000000
 49
-2.000000
 49
4.000000
 49
-2.000000
  0
LTYPE
  2
SBK1
 70
    64
  3
______ _ _ _ ______ _ _ _ ______ _ _ _ _____  
 72
    65
 73
     8
 40
60.500000
 49
45.000000
 49
-2.000000
 49
2.500000
 49
-2.000000
 49
2.500000
 49
-2.000000
 49
2.500000
 49
-2.000000
  0
LTYPE
  2
SBK2
 70
    64
  3
______ _ _ _ ______ _ _ _ ______ _ _ _ _____  
 72
    65
 73
     8
 40
84.000000
 49
64.000000
 49
-2.000000
 49
4.000000
 49
-2.000000
 49
4.000000
 49
-2.000000
 49
4.000000
 49
-2.000000
  0
LTYPE
  2
STCH
 70
    64
  3
__ __ __ __ __ __ __ __ __ __ __ __ __ __ __
 72
    65
 73
     2
 40
3.000000
 49
1.000000
 49
-2.000000
  0
LTYPE
  2
MTCH
 70
    64
  3
_____ _ _ _____ _ _ _____ _ _ _____ _ _ ____  
 72
    65
 73
     6
 40
80.000000
 49
66.000000
 49
-2.000000
 49
4.000000
 49
-2.000000
 49
4.000000
 49
-2.000000
  0
ENDTAB
  0
TABLE
  2
LAYER
 70
     1
  0
LAYER
  2
0
 70
     0
 62
     7
  6
CONTINUOUS
  0
ENDTAB
  0
TABLE
  2
STYLE
 70
     1
  0
STYLE
  2
STANDARD
 70
     0
 40
0.000000
 41
1.000000
 50
0.000000
 71
     0
 42
0.200000
  3
txt
  4
BIGFONT
  0
ENDTAB
  0
TABLE
  2
VIEW
 70
     0
  0
ENDTAB
  0
ENDSEC
  0
SECTION
  2
BLOCKS
  0
ENDSEC
  0
SECTION
  2
ENTITIES
  0
POINT
  8
0
 10
-250.873566
 20
159.999969
  0
POINT
  8
0
 10
-200.873566
 20
159.999969
  0
POINT
  8
0
 10
-250.873566
 20
49.999977
  0
POINT
  8
0
 10
-200.873566
 20
49.999977
  0
POINT
  8
0
 10
-77.373566
 20
49.999977
  0
POINT
  8
0
 10
120.000000
 20
49.999977
  0
POINT
  8
0
 10
180.000015
 20
49.999977
  0
POINT
  8
0
 10
120.000000
 20
169.999969
  0
POINT
  8
0
 10
180.000000
 20
169.999969
  0
POINT
  8
0
 10
296.999908
 20
49.999977
  0
POINT
  8
0
 10
-95.873566
 20
-64.558479
  0
POINT
  8
0
 10
-20.873566
 20
-64.558479
  0
POINT
  8
0
 10
-95.873566
 20
-194.558487
  0
POINT
  8
0
 10
-20.873566
 20
-194.558487
  0
POINT
  8
0
 10
114.126434
 20
-194.558487
  0
POINT
  8
0
 10
-90.873566
 20
49.999977
  0
POINT
  8
0
 10
279.999908
 20
49.999977
  0
POINT
  8
0
 10
94.126434
 20
-194.558487
  0
LINE
  8
0
 62
     3
 10
218.329163
 20
-225.956436
 11
370.873566
 21
-225.956436
  0
LINE
  8
0
 62
     3
 10
-218.329163
 20
225.956390
 11
-218.329163
 21
254.558487
  0
LINE
  8
0
 62
     3
 10
-370.873566
 20
225.956390
 11
-218.329163
 21
225.956390
  0
LINE
  8
0
 62
     3
 10
-370.873566
 20
254.558487
 11
370.873566
 21
254.558487
  0
LINE
  8
0
 62
     3
 10
-370.873566
 20
-254.558487
 11
370.873566
 21
-254.558487
  0
LINE
  8
0
 62
     3
 10
370.873566
 20
254.558487
 11
370.873566
 21
-254.558487
  0
LINE
  8
0
 62
     3
 10
-370.873566
 20
-254.558487
 11
-370.873566
 21
254.558487
  0
LINE
  8
0
 62
     3
 10
218.329163
 20
-225.956436
 11
218.329163
 21
-254.558487
  0
LINE
  8
0
 62
     3
 10
218.329163
 20
254.558487
 11
218.329163
 21
225.956390
  0
LINE
  8
0
 62
     3
 10
218.329163
 20
225.956390
 11
370.873566
 21
225.956390
  0
LINE
  8
0
 62
     5
 10
258.381622
 20
-232.833740
 11
258.381622
 21
-236.151566
  0
LINE
  8
0
 62
     5
 10
258.381622
 20
-236.151566
 11
270.823547
 21
-236.151566
  0
LINE
  8
0
 62
     5
 10
258.381622
 20
-249.146469
 11
275.247345
 21
-249.146469
  0
LINE
  8
0
 62
     5
 10
258.381622
 20
-245.828644
 11
270.823547
 21
-245.828644
  0
LINE
  8
0
 62
     5
 10
258.381622
 20
-232.833740
 11
273.035400
 21
-232.833740
  0
LINE
  8
0
 62
     5
 10
270.823547
 20
-236.151566
 11
270.823547
 21
-245.828644
  0
LINE
  8
0
 62
     5
 10
275.247345
 20
-235.045654
 11
275.247345
 21
-249.146469
  0
LINE
  8
0
 62
     5
 10
258.381622
 20
-245.828644
 11
258.381622
 21
-249.146469
  0
LINE
  8
0
 62
     5
 10
293.495392
 20
-236.151566
 11
293.495392
 21
-246.934647
  0
LINE
  8
0
 62
     5
 10
277.735657
 20
-232.833740
 11
277.735657
 21
-236.151566
  0
LINE
  8
0
 62
     5
 10
293.937836
 20
-232.584961
 11
295.513824
 21
-232.584961
  0
LINE
  8
0
 62
     5
 10
293.937836
 20
-230.373016
 11
295.513824
 21
-230.373016
  0
LINE
  8
0
 62
     5
 10
295.513824
 20
-230.373016
 11
295.513824
 21
-232.584961
  0
LINE
  8
0
 62
     5
 10
293.937836
 20
-230.373016
 11
293.937836
 21
-232.584961
  0
LINE
  8
0
 62
     5
 10
293.108276
 20
-230.373016
 11
293.108276
 21
-232.584961
  0
LINE
  8
0
 62
     5
 10
282.766052
 20
-230.373016
 11
286.200897
 21
-230.373016
  0
LINE
  8
0
 62
     5
 10
285.541260
 20
-232.833466
 11
286.200562
 21
-230.372711
  0
LINE
  8
0
 62
     5
 10
282.106689
 20
-232.833710
 11
282.766022
 21
-230.372986
  0
LINE
  8
0
 62
     5
 10
285.541565
 20
-232.833740
 11
290.177551
 21
-232.833740
  0
LINE
  8
0
 62
     5
 10
284.652557
 20
-236.151566
 11
289.071625
 21
-236.151566
  0
LINE
  8
0
 62
     5
 10
286.642853
 20
-249.146469
 11
291.283569
 21
-249.146469
  0
LINE
  8
0
 62
     5
 10
285.753693
 20
-245.828583
 11
286.642731
 21
-249.146347
  0
LINE
  8
0
 62
     5
 10
285.753754
 20
-245.828644
 11
289.071625
 21
-245.828644
  0
LINE
  8
0
 62
     5
 10
281.170746
 20
-249.146637
 11
284.652679
 21
-236.151733
  0
LINE
  8
0
 62
     5
 10
277.735657
 20
-236.151566
 11
281.217682
 21
-236.151566
  0
LINE
  8
0
 62
     5
 10
277.735413
 20
-249.146210
 11
281.217468
 21
-236.151337
  0
LINE
  8
0
 62
     5
 10
277.735657
 20
-249.146469
 11
281.170593
 21
-249.146469
  0
LINE
  8
0
 62
     5
 10
277.735657
 20
-232.833740
 11
282.106689
 21
-232.833740
  0
LINE
  8
0
 62
     5
 10
289.071625
 20
-236.151566
 11
289.071625
 21
-245.828644
  0
LINE
  8
0
 62
     5
 10
291.532288
 20
-230.373016
 11
293.108276
 21
-230.373016
  0
LINE
  8
0
 62
     5
 10
291.532288
 20
-232.584961
 11
293.108276
 21
-232.584961
  0
LINE
  8
0
 62
     5
 10
291.532288
 20
-230.373016
 11
291.532288
 21
-232.584961
  0
LINE
  8
0
 62
     5
 10
301.513550
 20
-230.373016
 11
305.937286
 21
-230.373016
  0
LINE
  8
0
 62
     5
 10
308.342316
 20
-240.195053
 11
311.296204
 21
-238.817642
  0
LINE
  8
0
 62
     5
 10
305.937286
 20
-242.734406
 11
305.937286
 21
-249.146469
  0
LINE
  8
0
 62
     5
 10
301.513550
 20
-243.379044
 11
301.513550
 21
-249.146469
  0
LINE
  8
0
 62
     5
 10
305.937286
 20
-232.833740
 11
310.361115
 21
-232.833740
  0
LINE
  8
0
 62
     5
 10
305.937286
 20
-230.373016
 11
305.937286
 21
-232.833740
  0
LINE
  8
0
 62
     5
 10
301.513550
 20
-230.373016
 11
301.513550
 21
-232.833740
  0
LINE
  8
0
 62
     5
 10
312.572998
 20
-235.045654
 11
312.572998
 21
-236.812775
  0
LINE
  8
0
 62
     5
 10
308.342377
 20
-240.195038
 11
312.573395
 21
-242.168030
  0
LINE
  8
0
 62
     5
 10
305.937256
 20
-242.734329
 11
312.573059
 21
-245.828613
  0
LINE
  8
0
 62
     5
 10
296.260284
 20
-242.167801
 11
296.260284
 21
-245.828644
  0
LINE
  8
0
 62
     5
 10
296.260742
 20
-242.168167
 11
309.162567
 21
-236.151932
  0
LINE
  8
0
 62
     5
 10
296.260254
 20
-245.828598
 11
301.513580
 21
-243.378937
  0
LINE
  8
0
 62
     5
 10
312.572998
 20
-242.167801
 11
312.572998
 21
-245.828644
  0
LINE
  8
0
 62
     5
 10
296.260284
 20
-232.833740
 11
296.260284
 21
-236.151566
  0
LINE
  8
0
 62
     5
 10
301.513550
 20
-249.146469
 11
305.937286
 21
-249.146469
  0
LINE
  8
0
 62
     5
 10
296.260284
 20
-236.151566
 11
309.162079
 21
-236.151566
  0
LINE
  8
0
 62
     5
 10
296.260284
 20
-232.833740
 11
301.513550
 21
-232.833740
  0
LINE
  8
0
 62
     5
 10
327.503998
 20
-236.404739
 11
328.730042
 21
-235.917068
  0
LINE
  8
0
 62
     5
 10
327.503357
 20
-236.404404
 11
327.503357
 21
-249.146469
  0
LINE
  8
0
 62
     5
 10
323.079498
 20
-249.146469
 11
327.503357
 21
-249.146469
  0
LINE
  8
0
 62
     5
 10
313.955292
 20
-241.792511
 11
323.079376
 21
-238.163742
  0
LINE
  8
0
 62
     5
 10
313.955536
 20
-238.221954
 11
326.806152
 21
-233.111084
  0
LINE
  8
0
 62
     5
 10
323.079498
 20
-238.163773
 11
323.079498
 21
-249.146469
  0
LINE
  8
0
 62
     5
 10
327.503357
 20
-231.368408
 11
327.503357
 21
-232.083389
  0
LINE
  8
0
 62
     5
 10
330.821106
 20
-231.368408
 11
330.821106
 21
-232.833755
  0
LINE
  8
0
 62
     5
 10
313.955444
 20
-238.221893
 11
313.955444
 21
-241.792496
  0
LINE
  8
0
 62
     5
 10
327.503357
 20
-231.368408
 11
330.821106
 21
-231.368408
  0
LINE
  8
0
 10
0.000000
 20
-0.000023
 11
0.000000
 21
254.558487
  0
LINE
  8
0
 10
-370.873566
 20
-0.000023
 11
370.873566
 21
-0.000023
  0
LINE
  8
0
  6
CENTER
 10
-305.873566
 20
159.999969
 11
-195.873566
 21
159.999969
  0
LINE
  8
0
  6
CENTER
 10
-90.873566
 20
29.999977
 11
-90.873566
 21
88.999977
  0
LINE
  8
0
  6
CENTER
 10
-109.373566
 20
49.999977
 11
-72.373566
 21
49.999977
  0
LINE
  8
0
  6
PHANTOM
 10
-96.873566
 20
34.999977
 11
-92.573563
 21
34.999977
  0
LINE
  8
0
  6
PHANTOM
 10
-96.873566
 20
34.999977
 11
-96.873566
 21
35.999977
  0
LINE
  8
0
  6
PHANTOM
 10
-84.873566
 20
34.999977
 11
-84.873566
 21
35.999977
  0
LINE
  8
0
  6
PHANTOM
 10
-92.573563
 20
34.999977
 11
-92.573563
 21
35.999977
  0
LINE
  8
0
  6
PHANTOM
 10
-89.173569
 20
34.999977
 11
-89.173569
 21
35.999977
  0
LINE
  8
0
  6
PHANTOM
 10
-89.173569
 20
34.999977
 11
-84.873566
 21
34.999977
  0
LINE
  8
0
  6
PHANTOM
 10
-93.873566
 20
35.999977
 11
-92.573563
 21
35.999977
  0
LINE
  8
0
  6
PHANTOM
 10
-92.873566
 20
38.499977
 11
-88.873566
 21
38.499977
  0
LINE
  8
0
  6
PHANTOM
 10
-93.873566
 20
35.999977
 11
-93.873566
 21
37.499977
  0
LINE
  8
0
  6
PHANTOM
 10
-87.873566
 20
35.999977
 11
-87.873566
 21
37.499977
  0
LINE
  8
0
  6
PHANTOM
 10
-89.173569
 20
35.999977
 11
-87.873566
 21
35.999977
  0
LINE
  8
0
  6
PHANTOM
 10
-93.873581
 20
37.499996
 11
-92.873581
 21
38.499996
  0
LINE
  8
0
  6
PHANTOM
 10
-88.873573
 20
38.499962
 11
-87.873566
 21
37.499958
  0
LINE
  8
0
  6
PHANTOM
 10
-99.873566
 20
74.999977
 11
-95.473572
 21
74.999977
  0
LINE
  8
0
  6
PHANTOM
 10
-81.873566
 20
61.999977
 11
-81.873566
 21
74.999977
  0
LINE
  8
0
  6
PHANTOM
 10
-99.873566
 20
61.999977
 11
-99.873566
 21
74.999977
  0
LINE
  8
0
  6
PHANTOM
 10
-300.873566
 20
34.999977
 11
-200.873566
 21
34.999977
  0
LINE
  8
0
  6
PHANTOM
 10
-299.554871
 20
37.999977
 11
-199.554871
 21
37.999977
  0
LINE
  8
0
  6
PHANTOM
 10
-288.873566
 20
74.999977
 11
-283.373566
 21
74.999977
  0
LINE
  8
0
  6
CENTER
 10
-250.873566
 20
29.999977
 11
-250.873566
 21
88.999977
  0
LINE
  8
0
  6
PHANTOM
 10
-212.873566
 20
62.999977
 11
-212.873566
 21
74.999977
  0
LINE
  8
0
  6
PHANTOM
 10
-288.873566
 20
62.999977
 11
-288.873566
 21
74.999977
  0
LINE
  8
0
  6
CENTER
 10
-270.373566
 20
71.999977
 11
-263.373566
 21
71.999977
  0
LINE
  8
0
  6
CENTER
 10
-266.873566
 20
75.499977
 11
-266.873566
 21
68.499977
  0
LINE
  8
0
  6
CENTER
 10
-231.373566
 20
71.999977
 11
-238.373566
 21
71.999977
  0
LINE
  8
0
  6
CENTER
 10
-234.873566
 20
75.499977
 11
-234.873566
 21
68.499977
  0
LINE
  8
0
  6
PHANTOM
 10
-289.373566
 20
62.999977
 11
-212.373566
 21
62.999977
  0
LINE
  8
0
  6
CENTER
 10
-305.873566
 20
49.999977
 11
-195.873566
 21
49.999977
  0
LINE
  8
0
  6
PHANTOM
 10
-300.873566
 20
147.999969
 11
-260.873566
 21
147.999969
  0
LINE
  8
0
  6
PHANTOM
 10
-300.873566
 20
171.999969
 11
-260.873566
 21
171.999969
  0
LINE
  8
0
  6
PHANTOM
 10
-288.873566
 20
168.999969
 11
-288.873566
 21
150.999969
  0
LINE
  8
0
  6
PHANTOM
 10
-212.873566
 20
168.999969
 11
-212.873566
 21
150.999969
  0
LINE
  8
0
  6
PHANTOM
 10
-252.373566
 20
71.999977
 11
-249.373566
 21
71.999977
  0
LINE
  8
0
  6
PHANTOM
 10
-288.873566
 20
150.999969
 11
-260.873566
 21
150.999969
  0
LINE
  8
0
  6
PHANTOM
 10
-288.873566
 20
168.999969
 11
-260.873566
 21
168.999969
  0
LINE
  8
0
  6
CENTER
 10
-250.873566
 20
176.999969
 11
-250.873566
 21
142.999969
  0
LINE
  8
0
  6
PHANTOM
 10
-289.873566
 20
167.999969
 11
-289.873566
 21
151.999969
  0
LINE
  8
0
  6
PHANTOM
 10
-211.873566
 20
167.999969
 11
-211.873566
 21
151.999969
  0
LINE
  8
0
  6
PHANTOM
 10
-302.069397
 20
164.699982
 11
-289.873566
 21
164.699982
  0
LINE
  8
0
  6
PHANTOM
 10
-299.677734
 20
155.299988
 11
-289.873566
 21
155.299988
  0
LINE
  8
0
  6
PHANTOM
 10
-300.873566
 20
61.999977
 11
-200.873566
 21
61.999977
  0
LINE
  8
0
  6
PHANTOM
 10
-211.873566
 20
164.699982
 11
-202.069397
 21
164.699982
  0
LINE
  8
0
  6
PHANTOM
 10
-211.873566
 20
155.299988
 11
-199.677734
 21
155.299988
  0
LINE
  8
0
  6
PHANTOM
 10
-78.873566
 20
40.999977
 11
-78.873566
 21
58.999977
  0
LINE
  8
0
  6
PHANTOM
 10
-102.873566
 20
40.999977
 11
-102.873566
 21
58.999977
  0
LINE
  8
0
  6
PHANTOM
 10
-99.873566
 20
61.999977
 11
-81.873566
 21
61.999977
  0
LINE
  8
0
  6
PHANTOM
 10
-99.873566
 20
37.999977
 11
-98.873566
 21
37.999977
  0
LINE
  8
0
  6
PHANTOM
 10
-82.873566
 20
37.999977
 11
-81.873566
 21
37.999977
  0
LINE
  8
0
  6
PHANTOM
 10
-99.873566
 20
62.999977
 11
-81.873566
 21
62.999977
  0
LINE
  8
0
  6
PHANTOM
 10
-86.273560
 20
74.999977
 11
-81.873566
 21
74.999977
  0
LINE
  8
0
  6
PHANTOM
 10
-218.373566
 20
74.999977
 11
-212.873566
 21
74.999977
  0
LINE
  8
0
  6
PHANTOM
 10
-240.873566
 20
147.999969
 11
-200.873566
 21
147.999969
  0
LINE
  8
0
  6
PHANTOM
 10
-240.873566
 20
150.999969
 11
-212.873566
 21
150.999969
  0
LINE
  8
0
  6
PHANTOM
 10
-240.873566
 20
168.999969
 11
-212.873566
 21
168.999969
  0
LINE
  8
0
  6
PHANTOM
 10
-240.873566
 20
171.999969
 11
-200.873566
 21
171.999969
  0
LINE
  8
0
  6
CENTER
 10
55.000000
 20
49.999977
 11
185.000000
 21
49.999977
  0
LINE
  8
0
  6
CENTER
 10
55.000000
 20
169.999969
 11
185.000000
 21
169.999969
  0
LINE
  8
0
  6
CENTER
 10
258.000000
 20
49.999977
 11
302.000000
 21
49.999977
  0
LINE
  8
0
  6
PHANTOM
 10
272.000000
 20
30.999977
 11
277.799988
 21
30.999977
  0
LINE
  8
0
  6
PHANTOM
 10
282.200012
 20
30.999977
 11
282.200012
 21
31.999977
  0
LINE
  8
0
  6
PHANTOM
 10
277.799988
 20
30.999977
 11
277.799988
 21
31.999977
  0
LINE
  8
0
  6
PHANTOM
 10
282.200012
 20
30.999977
 11
288.000000
 21
30.999977
  0
LINE
  8
0
  6
PHANTOM
 10
272.000000
 20
30.999977
 11
272.000000
 21
32.499977
  0
LINE
  8
0
  6
PHANTOM
 10
288.000000
 20
30.999977
 11
288.000000
 21
32.499977
  0
LINE
  8
0
  6
PHANTOM
 10
283.750000
 20
31.999977
 11
283.750000
 21
33.499977
  0
LINE
  8
0
  6
PHANTOM
 10
276.250000
 20
31.999977
 11
276.250000
 21
33.499977
  0
LINE
  8
0
  6
PHANTOM
 10
276.250000
 20
31.999977
 11
277.799988
 21
31.999977
  0
LINE
  8
0
  6
PHANTOM
 10
282.200012
 20
31.999977
 11
283.750000
 21
31.999977
  0
LINE
  8
0
  6
PHANTOM
 10
278.250000
 20
35.499977
 11
281.750000
 21
35.499977
  0
LINE
  8
0
  6
PHANTOM
 10
60.000015
 20
30.999977
 11
180.000015
 21
30.999977
  0
LINE
  8
0
  6
PHANTOM
 10
61.479080
 20
34.499977
 11
181.479080
 21
34.499977
  0
LINE
  8
0
  6
CENTER
 10
120.000000
 20
25.999977
 11
120.000000
 21
98.499977
  0
LINE
  8
0
  6
PHANTOM
 10
72.000000
 20
81.999977
 11
80.000000
 21
81.999977
  0
LINE
  8
0
  6
PHANTOM
 10
72.000000
 20
67.499977
 11
72.000000
 21
81.999977
  0
LINE
  8
0
  6
PHANTOM
 10
168.000000
 20
67.499977
 11
168.000000
 21
81.999977
  0
LINE
  8
0
  6
PHANTOM
 10
72.000000
 20
67.499977
 11
168.000000
 21
67.499977
  0
LINE
  8
0
  6
CENTER
 10
96.000000
 20
77.999977
 11
104.000000
 21
77.999977
  0
LINE
  8
0
  6
CENTER
 10
100.000000
 20
81.999977
 11
100.000000
 21
73.999977
  0
LINE
  8
0
  6
CENTER
 10
144.000000
 20
77.999977
 11
136.000000
 21
77.999977
  0
LINE
  8
0
  6
CENTER
 10
140.000000
 20
81.999977
 11
140.000000
 21
73.999977
  0
LINE
  8
0
  6
PHANTOM
 10
118.000000
 20
78.199974
 11
122.000000
 21
78.199974
  0
LINE
  8
0
  6
PHANTOM
 10
59.999985
 20
154.499969
 11
107.000000
 21
154.499969
  0
LINE
  8
0
  6
PHANTOM
 10
60.000000
 20
185.499969
 11
107.000000
 21
185.499969
  0
LINE
  8
0
  6
PHANTOM
 10
72.000000
 20
182.999969
 11
72.000000
 21
156.999969
  0
LINE
  8
0
  6
PHANTOM
 10
71.000000
 20
181.999969
 11
71.000000
 21
157.999969
  0
LINE
  8
0
  6
PHANTOM
 10
72.000000
 20
156.999969
 11
107.000000
 21
156.999969
  0
LINE
  8
0
  6
PHANTOM
 10
72.000000
 20
182.999969
 11
107.000000
 21
182.999969
  0
LINE
  8
0
  6
PHANTOM
 10
168.000000
 20
182.999969
 11
168.000000
 21
156.999969
  0
LINE
  8
0
  6
PHANTOM
 10
169.000000
 20
181.999969
 11
169.000000
 21
157.999969
  0
LINE
  8
0
  6
CENTER
 10
120.000000
 20
194.299988
 11
120.000000
 21
145.699982
  0
LINE
  8
0
  6
PHANTOM
 10
58.444962
 20
177.199982
 11
71.000000
 21
177.199982
  0
LINE
  8
0
  6
PHANTOM
 10
61.555023
 20
162.799988
 11
71.000000
 21
162.799988
  0
LINE
  8
0
  6
PHANTOM
 10
169.000000
 20
177.199982
 11
178.444962
 21
177.199982
  0
LINE
  8
0
  6
PHANTOM
 10
169.000000
 20
162.799988
 11
181.555023
 21
162.799988
  0
LINE
  8
0
  6
PHANTOM
 10
60.000000
 20
65.499977
 11
180.000000
 21
65.499977
  0
LINE
  8
0
  6
PHANTOM
 10
295.500000
 20
37.499977
 11
295.500000
 21
62.499977
  0
LINE
  8
0
  6
PHANTOM
 10
264.500000
 20
37.499977
 11
264.500000
 21
62.499977
  0
LINE
  8
0
  6
PHANTOM
 10
267.000000
 20
65.499977
 11
293.000000
 21
65.499977
  0
LINE
  8
0
  6
PHANTOM
 10
267.500000
 20
34.499977
 11
270.000000
 21
34.499977
  0
LINE
  8
0
  6
PHANTOM
 10
290.000000
 20
34.499977
 11
292.500000
 21
34.499977
  0
LINE
  8
0
  6
PHANTOM
 10
267.000000
 20
67.499977
 11
293.000000
 21
67.499977
  0
LINE
  8
0
  6
PHANTOM
 10
133.000000
 20
185.499969
 11
180.000000
 21
185.499969
  0
LINE
  8
0
  6
PHANTOM
 10
133.000000
 20
182.999969
 11
168.000000
 21
182.999969
  0
LINE
  8
0
  6
PHANTOM
 10
133.000000
 20
156.999969
 11
168.000000
 21
156.999969
  0
LINE
  8
0
  6
PHANTOM
 10
133.000000
 20
154.499969
 11
179.999985
 21
154.499969
  0
LINE
  8
0
  6
PHANTOM
 10
160.000000
 20
81.999977
 11
168.000000
 21
81.999977
  0
LINE
  8
0
  6
CENTER
 10
-175.873566
 20
-64.558479
 11
-15.873566
 21
-64.558479
  0
LINE
  8
0
  6
CENTER
 10
-175.873566
 20
-194.558487
 11
-15.873566
 21
-194.558487
  0
LINE
  8
0
  6
CENTER
 10
94.126434
 20
-137.558487
 11
94.126434
 21
-221.558472
  0
LINE
  8
0
  6
CENTER
 10
69.126434
 20
-194.558487
 11
119.126434
 21
-194.558487
  0
LINE
  8
0
  6
PHANTOM
 10
85.126434
 20
-216.558487
 11
91.926437
 21
-216.558487
  0
LINE
  8
0
  6
PHANTOM
 10
81.126434
 20
-156.558487
 11
87.626434
 21
-156.558487
  0
LINE
  8
0
  6
PHANTOM
 10
81.126434
 20
-174.558487
 11
107.126434
 21
-174.558487
  0
LINE
  8
0
  6
PHANTOM
 10
81.126434
 20
-156.558487
 11
81.126434
 21
-176.558487
  0
LINE
  8
0
  6
PHANTOM
 10
107.126434
 20
-156.558487
 11
107.126434
 21
-176.558487
  0
LINE
  8
0
  6
PHANTOM
 10
96.326431
 20
-215.558487
 11
96.326431
 21
-216.558487
  0
LINE
  8
0
  6
PHANTOM
 10
91.926437
 20
-215.558487
 11
91.926437
 21
-216.558487
  0
LINE
  8
0
  6
PHANTOM
 10
96.326431
 20
-216.558487
 11
103.126434
 21
-216.558487
  0
LINE
  8
0
  6
PHANTOM
 10
103.126434
 20
-215.558487
 11
103.126434
 21
-216.558487
  0
LINE
  8
0
  6
PHANTOM
 10
85.126434
 20
-215.558487
 11
85.126434
 21
-216.558487
  0
LINE
  8
0
  6
PHANTOM
 10
90.376434
 20
-215.558487
 11
91.926437
 21
-215.558487
  0
LINE
  8
0
  6
PHANTOM
 10
96.326431
 20
-215.558487
 11
97.876434
 21
-215.558487
  0
LINE
  8
0
  6
PHANTOM
 10
90.376434
 20
-214.058487
 11
90.376434
 21
-215.558487
  0
LINE
  8
0
  6
PHANTOM
 10
97.876434
 20
-214.058487
 11
97.876434
 21
-215.558487
  0
LINE
  8
0
  6
PHANTOM
 10
92.376434
 20
-212.058487
 11
95.876434
 21
-212.058487
  0
LINE
  8
0
  6
PHANTOM
 10
-170.873566
 20
-216.558487
 11
-20.873566
 21
-216.558487
  0
LINE
  8
0
  6
PHANTOM
 10
-169.323517
 20
-212.558487
 11
-19.323517
 21
-212.558487
  0
LINE
  8
0
  6
CENTER
 10
-95.873566
 20
-137.558487
 11
-95.873566
 21
-221.558472
  0
LINE
  8
0
  6
PHANTOM
 10
-155.873566
 20
-156.558487
 11
-145.873566
 21
-156.558487
  0
LINE
  8
0
  6
PHANTOM
 10
-35.873566
 20
-156.558487
 11
-35.873566
 21
-174.558487
  0
LINE
  8
0
  6
PHANTOM
 10
-155.873566
 20
-156.558487
 11
-155.873566
 21
-174.558487
  0
LINE
  8
0
  6
PHANTOM
 10
-155.873566
 20
-174.558487
 11
-35.873566
 21
-174.558487
  0
LINE
  8
0
  6
CENTER
 10
-120.873566
 20
-156.058487
 11
-120.873566
 21
-167.058487
  0
LINE
  8
0
  6
CENTER
 10
-126.373566
 20
-161.558487
 11
-115.373566
 21
-161.558487
  0
LINE
  8
0
  6
CENTER
 10
-70.873566
 20
-156.058487
 11
-70.873566
 21
-167.058487
  0
LINE
  8
0
  6
CENTER
 10
-65.373566
 20
-161.558487
 11
-76.373566
 21
-161.558487
  0
LINE
  8
0
  6
PHANTOM
 10
-45.873566
 20
-156.558487
 11
-35.873566
 21
-156.558487
  0
LINE
  8
0
  6
PHANTOM
 10
-97.873566
 20
-161.558487
 11
-93.873566
 21
-161.558487
  0
LINE
  8
0
  6
PHANTOM
 10
-155.873566
 20
-51.558479
 11
-155.873566
 21
-77.558479
  0
LINE
  8
0
  6
PHANTOM
 10
-35.873566
 20
-51.558479
 11
-35.873566
 21
-77.558479
  0
LINE
  8
0
  6
PHANTOM
 10
-155.873566
 20
-77.558479
 11
-111.873566
 21
-77.558479
  0
LINE
  8
0
  6
PHANTOM
 10
-155.873566
 20
-51.558479
 11
-111.873566
 21
-51.558479
  0
LINE
  8
0
  6
PHANTOM
 10
-156.873566
 20
-52.558479
 11
-156.873566
 21
-76.558479
  0
LINE
  8
0
  6
PHANTOM
 10
-34.873566
 20
-52.558479
 11
-34.873566
 21
-76.558479
  0
LINE
  8
0
  6
PHANTOM
 10
-170.873566
 20
-46.558479
 11
-111.873566
 21
-46.558479
  0
LINE
  8
0
  6
PHANTOM
 10
-170.873581
 20
-82.558479
 11
-111.873566
 21
-82.558479
  0
LINE
  8
0
  6
PHANTOM
 10
-169.873566
 20
-57.358482
 11
-156.873566
 21
-57.358482
  0
LINE
  8
0
  6
PHANTOM
 10
-169.873566
 20
-71.758484
 11
-156.873566
 21
-71.758484
  0
LINE
  8
0
  6
CENTER
 10
-95.873566
 20
-38.558479
 11
-95.873566
 21
-90.558479
  0
LINE
  8
0
  6
PHANTOM
 10
-34.873566
 20
-57.358482
 11
-22.484879
 21
-57.358482
  0
LINE
  8
0
  6
PHANTOM
 10
-34.873566
 20
-71.758484
 11
-19.262268
 21
-71.758484
  0
LINE
  8
0
  6
PHANTOM
 10
81.126434
 20
-176.558487
 11
107.126434
 21
-176.558487
  0
LINE
  8
0
  6
PHANTOM
 10
82.126434
 20
-212.558487
 11
82.126434
 21
-212.558487
  0
LINE
  8
0
  6
PHANTOM
 10
112.126434
 20
-182.558487
 11
112.126434
 21
-206.558487
  0
LINE
  8
0
  6
PHANTOM
 10
76.126434
 20
-182.558487
 11
76.126434
 21
-206.558487
  0
LINE
  8
0
  6
PHANTOM
 10
106.126434
 20
-212.558487
 11
106.126434
 21
-212.558487
  0
LINE
  8
0
  6
PHANTOM
 10
-170.873566
 20
-176.558487
 11
-20.873566
 21
-176.558487
  0
LINE
  8
0
  6
PHANTOM
 10
100.626434
 20
-156.558487
 11
107.126434
 21
-156.558487
  0
LINE
  8
0
  6
PHANTOM
 10
-79.873566
 20
-82.558479
 11
-20.873581
 21
-82.558479
  0
LINE
  8
0
  6
PHANTOM
 10
-79.873566
 20
-46.558479
 11
-20.873566
 21
-46.558479
  0
LINE
  8
0
  6
PHANTOM
 10
-79.873566
 20
-51.558479
 11
-35.873566
 21
-51.558479
  0
LINE
  8
0
  6
PHANTOM
 10
-79.873566
 20
-77.558479
 11
-35.873566
 21
-77.558479
  0
LINE
  8
0
  6
CENTER
 10
279.999908
 20
25.999943
 11
279.999908
 21
98.499939
  0
LINE
  8
0
  6
PHANTOM
 10
266.999908
 20
81.999939
 11
272.899902
 21
81.999939
  0
LINE
  8
0
  6
PHANTOM
 10
292.999908
 20
65.499939
 11
292.999908
 21
81.999939
  0
LINE
  8
0
  6
PHANTOM
 10
266.999908
 20
65.499939
 11
266.999908
 21
81.999939
  0
LINE
  8
0
  6
PHANTOM
 10
287.099915
 20
81.999939
 11
292.999908
 21
81.999939
  0
LINE
  8
0
 10
-249.373596
 20
70.999962
 11
-243.285126
 21
70.999962
  0
LINE
  8
0
 10
-240.873596
 20
79.999962
 11
-218.373596
 21
79.999962
  0
LINE
  8
0
 10
-283.373596
 20
74.999962
 11
-283.373596
 21
79.999962
  0
LINE
  8
0
 10
-218.373596
 20
74.999962
 11
-218.373596
 21
79.999962
  0
LINE
  8
0
 10
-249.373596
 20
70.999962
 11
-249.373596
 21
78.999962
  0
LINE
  8
0
 10
-242.213348
 20
74.999962
 11
-218.373596
 21
74.999962
  0
LINE
  8
0
 10
-283.373596
 20
79.999962
 11
-260.873596
 21
79.999962
  0
LINE
  8
0
 10
-283.373596
 20
74.999962
 11
-259.533844
 21
74.999962
  0
LINE
  8
0
 10
-260.873596
 20
83.999962
 11
-240.873596
 21
83.999962
  0
LINE
  8
0
 10
-258.462067
 20
70.999962
 11
-252.373596
 21
70.999962
  0
LINE
  8
0
 10
-240.873596
 20
79.999962
 11
-240.873596
 21
83.999962
  0
LINE
  8
0
 10
-260.873596
 20
79.999962
 11
-260.873596
 21
83.999962
  0
LINE
  8
0
 10
-260.873718
 20
79.999947
 11
-258.462189
 21
70.999954
  0
LINE
  8
0
 10
-240.873550
 20
79.999947
 11
-243.285080
 21
70.999947
  0
LINE
  8
0
 10
-252.373596
 20
70.999962
 11
-252.373596
 21
78.999962
  0
LINE
  8
0
  6
CENTER
 10
-253.873596
 20
74.999962
 11
-247.873596
 21
74.999962
  0
LINE
  8
0
 10
-276.873657
 20
161.443466
 11
-278.123657
 21
160.721786
  0
LINE
  8
0
 10
-283.373566
 20
164.999954
 11
-283.373566
 21
154.999954
  0
LINE
  8
0
 10
-218.373566
 20
164.999954
 11
-218.373566
 21
154.999954
  0
LINE
  8
0
 10
-260.873566
 20
172.499954
 11
-260.873566
 21
147.499954
  0
LINE
  8
0
 10
-240.873566
 20
172.499954
 11
-240.873566
 21
147.499954
  0
LINE
  8
0
 10
-260.873566
 20
147.499954
 11
-240.873566
 21
147.499954
  0
LINE
  8
0
 10
-260.873566
 20
172.499954
 11
-240.873566
 21
172.499954
  0
LINE
  8
0
 10
-223.623566
 20
160.721634
 11
-223.623566
 21
159.278275
  0
LINE
  8
0
 10
-224.873535
 20
161.443344
 11
-223.623550
 21
160.721664
  0
LINE
  8
0
 10
-226.123535
 20
160.721634
 11
-224.873550
 21
161.443314
  0
LINE
  8
0
 10
-226.123566
 20
159.278275
 11
-226.123566
 21
160.721649
  0
LINE
  8
0
 10
-224.873581
 20
158.556610
 11
-226.123566
 21
159.278290
  0
LINE
  8
0
 10
-223.623550
 20
159.278198
 11
-224.873535
 21
158.556519
  0
LINE
  8
0
 10
-252.373566
 20
173.999954
 11
-249.373566
 21
173.999954
  0
LINE
  8
0
 10
-252.373566
 20
145.999954
 11
-249.373566
 21
145.999954
  0
LINE
  8
0
 10
-249.373566
 20
173.999954
 11
-249.373566
 21
172.499954
  0
LINE
  8
0
 10
-252.373566
 20
173.999954
 11
-252.373566
 21
172.499954
  0
LINE
  8
0
 10
-252.373566
 20
147.499954
 11
-252.373566
 21
145.999954
  0
LINE
  8
0
 10
-249.373566
 20
147.499954
 11
-249.373566
 21
145.999954
  0
LINE
  8
0
 10
-283.373566
 20
154.999954
 11
-260.873566
 21
154.999954
  0
LINE
  8
0
 10
-283.373566
 20
164.999954
 11
-260.873566
 21
164.999954
  0
LINE
  8
0
 10
-240.873566
 20
164.999954
 11
-218.373566
 21
164.999954
  0
LINE
  8
0
 10
-240.873566
 20
154.999954
 11
-218.373566
 21
154.999954
  0
LINE
  8
0
 10
-278.123566
 20
160.721634
 11
-278.123566
 21
159.278275
  0
LINE
  8
0
 10
-278.123566
 20
159.278275
 11
-276.873566
 21
158.556595
  0
LINE
  8
0
 10
-276.873596
 20
158.556641
 11
-275.623596
 21
159.278320
  0
LINE
  8
0
 10
-275.623566
 20
159.278275
 11
-275.623566
 21
160.721649
  0
LINE
  8
0
 10
-275.623566
 20
160.721649
 11
-276.873566
 21
161.443329
  0
LINE
  8
0
  6
CENTER
 10
-276.873566
 20
164.499954
 11
-276.873566
 21
155.499954
  0
LINE
  8
0
  6
CENTER
 10
-255.873566
 20
162.999954
 11
-255.873566
 21
156.999954
  0
LINE
  8
0
  6
CENTER
 10
-245.873566
 20
162.999954
 11
-245.873566
 21
156.999954
  0
LINE
  8
0
  6
CENTER
 10
-224.873566
 20
164.499954
 11
-224.873566
 21
155.499954
  0
LINE
  8
0
 10
-99.373550
 20
83.999969
 11
-82.373550
 21
83.999969
  0
LINE
  8
0
 10
-78.373550
 20
70.999969
 11
-78.373550
 21
79.999969
  0
LINE
  8
0
 10
-103.373550
 20
70.999969
 11
-103.373550
 21
79.999969
  0
LINE
  8
0
 10
-103.373550
 20
70.999969
 11
-101.373550
 21
70.999969
  0
LINE
  8
0
 10
-101.373550
 20
70.999969
 11
-101.373550
 21
79.999969
  0
LINE
  8
0
 10
-80.373550
 20
70.999969
 11
-80.373550
 21
79.999969
  0
LINE
  8
0
 10
-99.373550
 20
81.999969
 11
-82.373550
 21
81.999969
  0
LINE
  8
0
 10
-80.373550
 20
70.999969
 11
-78.373550
 21
70.999969
  0
LINE
  8
0
 10
-103.373550
 20
79.999969
 11
-101.373550
 21
79.999969
  0
LINE
  8
0
 10
-80.373550
 20
79.999969
 11
-78.373550
 21
79.999969
  0
LINE
  8
0
 10
-85.873550
 20
75.399971
 11
-85.873550
 21
79.599968
  0
LINE
  8
0
 10
-95.873550
 20
75.399971
 11
-95.873550
 21
79.599968
  0
LINE
  8
0
 10
-95.473557
 20
79.999969
 11
-86.273544
 21
79.999969
  0
LINE
  8
0
 10
-95.473557
 20
74.999969
 11
-86.273544
 21
74.999969
  0
LINE
  8
0
 10
-76.873550
 20
72.499969
 11
-76.873550
 21
77.499969
  0
LINE
  8
0
 10
-104.873550
 20
72.499969
 11
-104.873550
 21
77.499969
  0
LINE
  8
0
 10
-104.873550
 20
72.499969
 11
-103.373550
 21
72.499969
  0
LINE
  8
0
 10
-104.873550
 20
77.499969
 11
-103.373550
 21
77.499969
  0
LINE
  8
0
 10
-101.373550
 20
72.499969
 11
-99.873550
 21
72.499969
  0
LINE
  8
0
 10
-78.373550
 20
72.499969
 11
-76.873550
 21
72.499969
  0
LINE
  8
0
 10
-85.873550
 20
77.499969
 11
-80.373550
 21
77.499969
  0
LINE
  8
0
 10
-101.373550
 20
77.499969
 11
-95.873550
 21
77.499969
  0
LINE
  8
0
 10
-78.373550
 20
77.499969
 11
-76.873550
 21
77.499969
  0
LINE
  8
0
 10
-81.873550
 20
72.499969
 11
-80.373550
 21
72.499969
  0
LINE
  8
0
 10
-104.873550
 20
76.999969
 11
-103.373550
 21
76.999969
  0
LINE
  8
0
 10
-104.873550
 20
72.999969
 11
-103.373550
 21
72.999969
  0
LINE
  8
0
 10
-78.373550
 20
76.999969
 11
-76.873550
 21
76.999969
  0
LINE
  8
0
 10
-101.373550
 20
76.999969
 11
-95.873550
 21
76.999969
  0
LINE
  8
0
 10
-85.873550
 20
76.999969
 11
-80.373550
 21
76.999969
  0
LINE
  8
0
 10
-101.373550
 20
72.999969
 11
-99.873550
 21
72.999969
  0
LINE
  8
0
 10
-78.373550
 20
72.999969
 11
-76.873550
 21
72.999969
  0
LINE
  8
0
 10
-81.873550
 20
72.999969
 11
-80.373550
 21
72.999969
  0
LINE
  8
0
  6
CENTER
 10
-107.873550
 20
74.999969
 11
-73.873550
 21
74.999969
  0
LINE
  8
0
 10
80.000008
 20
81.999985
 11
109.009628
 21
81.999985
  0
LINE
  8
0
 10
80.000008
 20
88.499985
 11
107.267960
 21
88.499985
  0
LINE
  8
0
 10
130.990387
 20
81.999985
 11
160.000000
 21
81.999985
  0
LINE
  8
0
 10
107.000008
 20
93.499985
 11
133.000000
 21
93.499985
  0
LINE
  8
0
 10
133.000000
 20
89.499985
 11
133.000000
 21
93.499985
  0
LINE
  8
0
 10
107.000008
 20
89.499985
 11
107.000008
 21
93.499985
  0
LINE
  8
0
 10
110.349373
 20
76.999985
 11
118.000008
 21
76.999985
  0
LINE
  8
0
 10
122.000008
 20
76.999985
 11
129.650635
 21
76.999985
  0
LINE
  8
0
 10
107.000008
 20
89.499977
 11
110.349373
 21
76.999985
  0
LINE
  8
0
 10
133.000015
 20
89.499969
 11
129.650650
 21
76.999977
  0
LINE
  8
0
 10
118.000008
 20
76.999985
 11
118.000008
 21
86.999985
  0
LINE
  8
0
 10
122.000008
 20
76.999985
 11
122.000008
 21
86.999985
  0
LINE
  8
0
 10
119.000008
 20
87.999985
 11
121.000008
 21
87.999985
  0
LINE
  8
0
 10
160.000000
 20
81.999985
 11
160.000000
 21
88.499985
  0
LINE
  8
0
 10
80.000008
 20
81.999985
 11
80.000008
 21
88.499985
  0
LINE
  8
0
 10
132.732056
 20
88.499985
 11
160.000000
 21
88.499985
  0
LINE
  8
0
  6
CENTER
 10
115.000008
 20
81.999985
 11
125.000008
 21
81.999985
  0
LINE
  8
0
 10
154.000031
 20
169.134048
 11
152.500031
 21
168.268021
  0
LINE
  8
0
 10
107.000023
 20
187.300034
 11
107.000023
 21
152.700027
  0
LINE
  8
0
 10
133.000031
 20
187.300034
 11
133.000031
 21
152.700027
  0
LINE
  8
0
 10
107.000023
 20
152.700027
 11
133.000031
 21
152.700027
  0
LINE
  8
0
 10
107.000023
 20
187.300034
 11
133.000031
 21
187.300034
  0
LINE
  8
0
 10
122.000023
 20
152.700027
 11
122.000023
 21
150.700027
  0
LINE
  8
0
 10
118.000023
 20
152.700027
 11
118.000023
 21
150.700027
  0
LINE
  8
0
 10
118.000023
 20
189.300034
 11
122.000023
 21
189.300034
  0
LINE
  8
0
 10
118.000023
 20
150.700027
 11
122.000023
 21
150.700027
  0
LINE
  8
0
 10
122.000023
 20
189.300034
 11
122.000023
 21
187.300034
  0
LINE
  8
0
 10
118.000023
 20
189.300034
 11
118.000023
 21
187.300034
  0
LINE
  8
0
 10
80.000023
 20
177.500015
 11
80.000023
 21
162.500015
  0
LINE
  8
0
 10
160.000031
 20
177.500015
 11
160.000031
 21
162.500015
  0
LINE
  8
0
 10
80.000023
 20
177.500015
 11
107.000023
 21
177.500015
  0
LINE
  8
0
 10
80.000023
 20
162.500015
 11
107.000023
 21
162.500015
  0
LINE
  8
0
 10
133.000031
 20
177.500015
 11
160.000031
 21
177.500015
  0
LINE
  8
0
 10
133.000031
 20
162.500015
 11
160.000031
 21
162.500015
  0
LINE
  8
0
 10
151.000031
 20
169.133987
 11
151.000031
 21
170.866043
  0
LINE
  8
0
 10
86.000015
 20
169.134048
 11
87.500015
 21
168.268021
  0
LINE
  8
0
 10
87.500008
 20
168.268005
 11
89.000015
 21
169.134033
  0
LINE
  8
0
 10
89.000031
 20
169.133987
 11
89.000031
 21
170.866043
  0
LINE
  8
0
 10
89.000031
 20
170.866104
 11
87.500031
 21
171.732132
  0
LINE
  8
0
 10
87.499969
 20
171.732147
 11
85.999992
 21
170.866135
  0
LINE
  8
0
 10
86.000031
 20
170.866058
 11
86.000031
 21
169.134018
  0
LINE
  8
0
 10
151.000000
 20
170.866104
 11
152.500000
 21
171.732117
  0
LINE
  8
0
 10
152.500122
 20
171.732239
 11
154.000122
 21
170.866211
  0
LINE
  8
0
 10
152.500122
 20
168.268158
 11
151.000122
 21
169.134171
  0
LINE
  8
0
 10
154.000031
 20
170.866058
 11
154.000031
 21
169.134018
  0
LINE
  8
0
  6
CENTER
 10
113.500023
 20
174.500015
 11
113.500023
 21
165.500015
  0
LINE
  8
0
  6
CENTER
 10
126.500023
 20
174.500015
 11
126.500023
 21
165.500015
  0
LINE
  8
0
  6
CENTER
 10
152.500031
 20
175.000015
 11
152.500031
 21
165.000015
  0
LINE
  8
0
  6
CENTER
 10
87.500023
 20
175.000015
 11
87.500023
 21
165.000015
  0
LINE
  8
0
 10
267.499908
 20
93.499954
 11
292.499908
 21
93.499954
  0
LINE
  8
0
 10
262.699921
 20
76.999954
 11
262.699921
 21
88.699951
  0
LINE
  8
0
 10
297.299896
 20
76.999954
 11
297.299896
 21
88.699951
  0
LINE
  8
0
 10
262.699921
 20
76.999954
 11
264.999908
 21
76.999954
  0
LINE
  8
0
 10
264.999908
 20
76.999954
 11
264.999908
 21
88.699951
  0
LINE
  8
0
 10
294.999908
 20
76.999954
 11
294.999908
 21
88.699951
  0
LINE
  8
0
 10
294.999908
 20
76.999954
 11
297.299896
 21
76.999954
  0
LINE
  8
0
 10
267.499908
 20
91.199966
 11
292.499908
 21
91.199966
  0
LINE
  8
0
 10
262.767059
 20
89.499954
 11
265.131378
 21
89.499954
  0
LINE
  8
0
 10
294.868439
 20
89.499954
 11
297.232758
 21
89.499954
  0
LINE
  8
0
 10
287.499908
 20
82.399963
 11
287.499908
 21
88.099960
  0
LINE
  8
0
 10
272.499908
 20
82.399963
 11
272.499908
 21
88.099960
  0
LINE
  8
0
 10
272.899902
 20
88.499954
 11
287.099915
 21
88.499954
  0
LINE
  8
0
 10
272.899902
 20
81.999954
 11
287.099915
 21
81.999954
  0
LINE
  8
0
 10
260.699921
 20
78.749954
 11
260.699921
 21
85.249954
  0
LINE
  8
0
 10
299.299896
 20
78.749954
 11
299.299896
 21
85.249954
  0
LINE
  8
0
 10
260.699921
 20
85.249954
 11
262.699921
 21
85.249954
  0
LINE
  8
0
 10
260.699921
 20
78.749954
 11
262.699921
 21
78.749954
  0
LINE
  8
0
 10
292.999908
 20
78.749954
 11
294.999908
 21
78.749954
  0
LINE
  8
0
 10
264.999908
 20
78.749954
 11
266.999908
 21
78.749954
  0
LINE
  8
0
 10
264.999908
 20
85.249954
 11
272.499908
 21
85.249954
  0
LINE
  8
0
 10
287.499908
 20
85.249954
 11
294.999908
 21
85.249954
  0
LINE
  8
0
 10
297.299896
 20
85.249954
 11
299.299896
 21
85.249954
  0
LINE
  8
0
 10
297.299896
 20
78.749954
 11
299.299896
 21
78.749954
  0
LINE
  8
0
 10
260.699921
 20
84.561691
 11
262.699921
 21
84.561691
  0
LINE
  8
0
 10
260.699921
 20
79.438217
 11
262.699921
 21
79.438217
  0
LINE
  8
0
 10
264.999908
 20
84.561691
 11
272.499908
 21
84.561691
  0
LINE
  8
0
 10
264.999908
 20
79.438217
 11
266.999908
 21
79.438217
  0
LINE
  8
0
 10
287.499908
 20
84.561691
 11
294.999908
 21
84.561691
  0
LINE
  8
0
 10
297.299896
 20
84.561691
 11
299.299896
 21
84.561691
  0
LINE
  8
0
 10
297.299896
 20
79.438217
 11
299.299896
 21
79.438217
  0
LINE
  8
0
 10
292.999908
 20
79.438217
 11
294.999908
 21
79.438217
  0
LINE
  8
0
  6
CENTER
 10
257.699921
 20
81.999954
 11
302.299896
 21
81.999954
  0
LINE
  8
0
 10
-93.373611
 20
-162.558533
 11
-83.892845
 21
-162.558533
  0
LINE
  8
0
 10
-80.141556
 20
-148.558533
 11
-45.873611
 21
-148.558533
  0
LINE
  8
0
 10
-82.285156
 20
-156.558533
 11
-45.873611
 21
-156.558533
  0
LINE
  8
0
 10
-93.373611
 20
-150.558533
 11
-93.373611
 21
-162.558533
  0
LINE
  8
0
 10
-145.873611
 20
-148.558533
 11
-111.605667
 21
-148.558533
  0
LINE
  8
0
 10
-45.873611
 20
-148.558533
 11
-45.873611
 21
-156.558533
  0
LINE
  8
0
 10
-145.873611
 20
-148.558533
 11
-145.873611
 21
-156.558533
  0
LINE
  8
0
 10
-145.873611
 20
-156.558533
 11
-109.462067
 21
-156.558533
  0
LINE
  8
0
 10
-111.873611
 20
-142.558533
 11
-79.873611
 21
-142.558533
  0
LINE
  8
0
 10
-79.873611
 20
-142.558533
 11
-79.873611
 21
-147.558533
  0
LINE
  8
0
 10
-111.873611
 20
-142.558533
 11
-111.873611
 21
-147.558533
  0
LINE
  8
0
 10
-107.854378
 20
-162.558533
 11
-98.373611
 21
-162.558533
  0
LINE
  8
0
 10
-111.873657
 20
-147.558563
 11
-107.854416
 21
-162.558563
  0
LINE
  8
0
 10
-79.873627
 20
-147.558548
 11
-83.892860
 21
-162.558548
  0
LINE
  8
0
 10
-98.373611
 20
-150.558533
 11
-98.373611
 21
-162.558533
  0
LINE
  8
0
  6
CENTER
 10
-100.873611
 20
-156.558533
 11
-90.873611
 21
-156.558533
  0
LINE
  8
0
 10
-98.373550
 20
-43.558479
 11
-98.373550
 21
-46.058479
  0
LINE
  8
0
 10
-145.873550
 20
-57.058479
 11
-145.873550
 21
-72.058479
  0
LINE
  8
0
 10
-45.873550
 20
-57.058479
 11
-45.873550
 21
-72.058479
  0
LINE
  8
0
 10
-145.873550
 20
-57.058479
 11
-111.873550
 21
-57.058479
  0
LINE
  8
0
 10
-145.873550
 20
-72.058479
 11
-111.873550
 21
-72.058479
  0
LINE
  8
0
 10
-93.373550
 20
-83.058479
 11
-93.373550
 21
-85.558479
  0
LINE
  8
0
 10
-137.873550
 20
-65.713196
 11
-135.873550
 21
-66.867897
  0
LINE
  8
0
 10
-135.873535
 20
-66.867867
 11
-133.873550
 21
-65.713173
  0
LINE
  8
0
 10
-133.873550
 20
-65.713181
 11
-133.873550
 21
-63.403778
  0
LINE
  8
0
 10
-133.873550
 20
-63.403793
 11
-135.873550
 21
-62.249092
  0
LINE
  8
0
 10
-135.873566
 20
-62.249077
 11
-137.873566
 21
-63.403778
  0
LINE
  8
0
 10
-137.873550
 20
-63.403778
 11
-137.873550
 21
-65.713181
  0
LINE
  8
0
 10
-57.873554
 20
-63.403786
 11
-55.873539
 21
-62.249077
  0
LINE
  8
0
 10
-55.873547
 20
-62.249084
 11
-53.873547
 21
-63.403782
  0
LINE
  8
0
 10
-53.873558
 20
-63.403778
 11
-53.873558
 21
-65.713181
  0
LINE
  8
0
 10
-53.873566
 20
-65.713150
 11
-55.873566
 21
-66.867851
  0
LINE
  8
0
 10
-98.373550
 20
-83.058479
 11
-98.373550
 21
-85.558479
  0
LINE
  8
0
 10
-55.873535
 20
-66.867867
 11
-57.873539
 21
-65.713165
  0
LINE
  8
0
 10
-57.873550
 20
-65.713181
 11
-57.873550
 21
-63.403778
  0
LINE
  8
0
 10
-111.873550
 20
-46.058479
 11
-111.873550
 21
-83.058479
  0
LINE
  8
0
 10
-79.873550
 20
-46.058479
 11
-79.873550
 21
-83.058479
  0
LINE
  8
0
 10
-111.873550
 20
-83.058479
 11
-79.873550
 21
-83.058479
  0
LINE
  8
0
 10
-111.873550
 20
-46.058479
 11
-79.873550
 21
-46.058479
  0
LINE
  8
0
 10
-98.373550
 20
-43.558479
 11
-93.373550
 21
-43.558479
  0
LINE
  8
0
 10
-98.373550
 20
-85.558479
 11
-93.373550
 21
-85.558479
  0
LINE
  8
0
 10
-93.373550
 20
-43.558479
 11
-93.373550
 21
-46.058479
  0
LINE
  8
0
 10
-79.873550
 20
-57.058479
 11
-45.873550
 21
-57.058479
  0
LINE
  8
0
 10
-79.873550
 20
-72.058479
 11
-45.873550
 21
-72.058479
  0
LINE
  8
0
  6
CENTER
 10
-135.873550
 20
-56.558479
 11
-135.873550
 21
-72.558479
  0
LINE
  8
0
  6
CENTER
 10
-103.873550
 20
-59.558479
 11
-103.873550
 21
-69.558479
  0
LINE
  8
0
  6
CENTER
 10
-87.873550
 20
-59.558479
 11
-87.873550
 21
-69.558479
  0
LINE
  8
0
  6
CENTER
 10
-55.873550
 20
-56.558479
 11
-55.873550
 21
-72.558479
  0
LINE
  8
0
 10
87.626434
 20
-148.558502
 11
100.626434
 21
-148.558502
  0
LINE
  8
0
 10
86.626434
 20
-149.558502
 11
86.626434
 21
-155.558502
  0
LINE
  8
0
 10
101.626434
 20
-149.558502
 11
101.626434
 21
-155.558502
  0
LINE
  8
0
 10
87.626434
 20
-156.558502
 11
100.626434
 21
-156.558502
  0
LINE
  8
0
 10
82.026428
 20
-142.558502
 11
106.226440
 21
-142.558502
  0
LINE
  8
0
 10
112.626434
 20
-148.958511
 11
112.626434
 21
-162.558502
  0
LINE
  8
0
 10
75.626434
 20
-148.958511
 11
75.626434
 21
-162.558502
  0
LINE
  8
0
 10
75.626434
 20
-162.558502
 11
78.826431
 21
-162.558502
  0
LINE
  8
0
 10
75.781433
 20
-147.558502
 11
79.076889
 21
-147.558502
  0
LINE
  8
0
 10
78.826431
 20
-148.758499
 11
78.826431
 21
-162.558502
  0
LINE
  8
0
 10
109.426437
 20
-148.758499
 11
109.426437
 21
-162.558502
  0
LINE
  8
0
 10
81.826431
 20
-145.758499
 11
106.426437
 21
-145.758499
  0
LINE
  8
0
 10
109.175980
 20
-147.558502
 11
112.471436
 21
-147.558502
  0
LINE
  8
0
 10
109.426437
 20
-162.558502
 11
112.626434
 21
-162.558502
  0
LINE
  8
0
 10
73.126434
 20
-152.558502
 11
73.126434
 21
-160.558502
  0
LINE
  8
0
 10
115.126434
 20
-152.558502
 11
115.126434
 21
-160.558502
  0
LINE
  8
0
 10
73.126434
 20
-152.558502
 11
75.626434
 21
-152.558502
  0
LINE
  8
0
 10
73.126434
 20
-160.558502
 11
75.626434
 21
-160.558502
  0
LINE
  8
0
 10
78.826431
 20
-152.558502
 11
86.626434
 21
-152.558502
  0
LINE
  8
0
 10
78.826431
 20
-160.558502
 11
81.126434
 21
-160.558502
  0
LINE
  8
0
 10
101.626434
 20
-152.558502
 11
109.426437
 21
-152.558502
  0
LINE
  8
0
 10
107.126434
 20
-160.558502
 11
109.426437
 21
-160.558502
  0
LINE
  8
0
 10
112.626434
 20
-152.558502
 11
115.126434
 21
-152.558502
  0
LINE
  8
0
 10
112.626434
 20
-160.558502
 11
115.126434
 21
-160.558502
  0
LINE
  8
0
 10
73.126434
 20
-153.436005
 11
75.626434
 21
-153.436005
  0
LINE
  8
0
 10
73.126434
 20
-159.681000
 11
75.626434
 21
-159.681000
  0
LINE
  8
0
 10
78.826431
 20
-153.436005
 11
86.626434
 21
-153.436005
  0
LINE
  8
0
 10
78.826431
 20
-159.681000
 11
81.126434
 21
-159.681000
  0
LINE
  8
0
 10
101.626434
 20
-153.436005
 11
109.426437
 21
-153.436005
  0
LINE
  8
0
 10
107.126434
 20
-159.681000
 11
109.426437
 21
-159.681000
  0
LINE
  8
0
 10
112.626434
 20
-153.436005
 11
115.126434
 21
-153.436005
  0
LINE
  8
0
 10
112.626434
 20
-159.681000
 11
115.126434
 21
-159.681000
  0
LINE
  8
0
  6
CENTER
 10
70.126434
 20
-156.558502
 11
118.126434
 21
-156.558502
  0
ARC
  8
0
 62
     5
 10
273.035400
 20
-235.045654
 40
2.211884
 50
0.000000
 51
90.000000
  0
ARC
  8
0
 62
     5
 10
291.283569
 20
-246.934647
 40
2.211899
 50
270.000000
 51
0.000000
  0
ARC
  8
0
 62
     5
 10
290.177551
 20
-236.151566
 40
3.317841
 50
0.000000
 51
90.000000
  0
ARC
  8
0
 62
     5
 10
310.361115
 20
-236.812775
 40
2.211890
 50
294.999969
 51
0.000000
  0
ARC
  8
0
 62
     5
 10
310.361115
 20
-235.045654
 40
2.211884
 50
0.000000
 51
90.000000
  0
ARC
  8
0
 62
     5
 10
327.503357
 20
-232.833755
 40
3.317840
 50
291.688385
 51
0.000000
  0
ARC
  8
0
 62
     5
 10
326.397308
 20
-232.083389
 40
1.105946
 50
291.688965
 51
0.000000
  0
CIRCLE
  8
0
  6
PHANTOM
 10
-266.873566
 20
71.999977
 40
1.700000
  0
CIRCLE
  8
0
  6
PHANTOM
 10
-234.873566
 20
71.999977
 40
1.700000
  0
ARC
  8
0
  6
PHANTOM
 10
-289.373566
 20
62.499977
 40
0.500000
 50
90.000000
 51
270.000000
  0
ARC
  8
0
  6
PHANTOM
 10
-212.373566
 20
62.499977
 40
0.500000
 50
270.000000
 51
90.000000
  0
ARC
  8
0
  6
PHANTOM
 10
-288.873566
 20
167.999969
 40
1.000000
 50
90.000000
 51
180.000000
  0
ARC
  8
0
  6
PHANTOM
 10
-288.873566
 20
151.999969
 40
1.000000
 50
180.000000
 51
270.000000
  0
ARC
  8
0
  6
PHANTOM
 10
-212.873566
 20
167.999969
 40
1.000000
 50
0.000000
 51
90.000000
  0
ARC
  8
0
  6
PHANTOM
 10
-212.873566
 20
151.999969
 40
1.000000
 50
270.000000
 51
0.000000
  0
ARC
  8
0
  6
PHANTOM
 10
-287.125854
 20
55.999977
 40
15.000011
 50
156.421860
 51
203.578125
  0
ARC
  8
0
  6
PHANTOM
 10
-313.863953
 20
42.499977
 40
15.000003
 50
330.000031
 51
29.999975
  0
ARC
  8
0
  6
PHANTOM
 10
-287.125854
 20
165.999969
 40
15.000013
 50
156.421844
 51
203.578110
  0
ARC
  8
0
  6
PHANTOM
 10
-99.873566
 20
58.999977
 40
3.000000
 50
90.000000
 51
180.000000
  0
ARC
  8
0
  6
PHANTOM
 10
-99.873566
 20
40.999977
 40
3.000000
 50
180.000000
 51
270.000000
  0
ARC
  8
0
  6
PHANTOM
 10
-81.873566
 20
40.999977
 40
3.000000
 50
270.000000
 51
0.000000
  0
ARC
  8
0
  6
PHANTOM
 10
-81.873566
 20
58.999977
 40
3.000000
 50
0.000000
 51
90.000000
  0
ARC
  8
0
  6
PHANTOM
 10
-98.873566
 20
35.999977
 40
2.000000
 50
0.000000
 51
90.000000
  0
ARC
  8
0
  6
PHANTOM
 10
-82.873566
 20
35.999977
 40
2.000000
 50
90.000000
 51
180.000000
  0
ARC
  8
0
  6
PHANTOM
 10
-187.125839
 20
55.999977
 40
14.999998
 50
156.421829
 51
203.578156
  0
ARC
  8
0
  6
PHANTOM
 10
-213.863953
 20
42.499977
 40
15.000003
 50
330.000031
 51
29.999975
  0
ARC
  8
0
  6
PHANTOM
 10
-314.621277
 20
153.999969
 40
15.000013
 50
336.421844
 51
23.578156
  0
ARC
  8
0
  6
PHANTOM
 10
-187.125839
 20
165.999969
 40
14.999999
 50
156.421814
 51
203.578125
  0
ARC
  8
0
  6
PHANTOM
 10
-214.621292
 20
153.999969
 40
14.999999
 50
336.421814
 51
23.578180
  0
ARC
  8
0
  6
PHANTOM
 10
278.250000
 20
33.499977
 40
2.000000
 50
90.000000
 51
180.000000
  0
ARC
  8
0
  6
PHANTOM
 10
281.750000
 20
33.499977
 40
2.000000
 50
0.000000
 51
90.000000
  0
ARC
  8
0
  6
PHANTOM
 10
168.000000
 20
66.499977
 40
1.000000
 50
270.000000
 51
90.000000
  0
ARC
  8
0
  6
PHANTOM
 10
72.000000
 20
66.499977
 40
1.000000
 50
90.000000
 51
270.000000
  0
CIRCLE
  8
0
  6
PHANTOM
 10
100.000000
 20
77.999977
 40
2.250000
  0
CIRCLE
  8
0
  6
PHANTOM
 10
140.000000
 20
77.999977
 40
2.250000
  0
ARC
  8
0
  6
PHANTOM
 10
78.437393
 20
57.749977
 40
20.000000
 50
157.200989
 51
202.798996
  0
ARC
  8
0
  6
PHANTOM
 10
42.400299
 20
40.499977
 40
20.000000
 50
331.640656
 51
28.359350
  0
ARC
  8
0
  6
PHANTOM
 10
78.437393
 20
177.749969
 40
20.000002
 50
157.200974
 51
202.798981
  0
ARC
  8
0
  6
PHANTOM
 10
41.562592
 20
162.249969
 40
20.000000
 50
337.200958
 51
22.799032
  0
ARC
  8
0
  6
PHANTOM
 10
267.500000
 20
62.499977
 40
3.000000
 50
90.000000
 51
180.000000
  0
ARC
  8
0
  6
PHANTOM
 10
267.500000
 20
37.499977
 40
3.000000
 50
180.000000
 51
270.000000
  0
ARC
  8
0
  6
PHANTOM
 10
292.500000
 20
37.499977
 40
3.000000
 50
270.000000
 51
0.000000
  0
ARC
  8
0
  6
PHANTOM
 10
292.500000
 20
62.499977
 40
3.000000
 50
0.000000
 51
90.000000
  0
ARC
  8
0
  6
PHANTOM
 10
270.000000
 20
32.499977
 40
2.000000
 50
0.000000
 51
90.000000
  0
ARC
  8
0
  6
PHANTOM
 10
290.000000
 20
32.499977
 40
2.000000
 50
90.000000
 51
180.000000
  0
ARC
  8
0
  6
PHANTOM
 10
72.000000
 20
181.999969
 40
1.000000
 50
90.000000
 51
180.000000
  0
ARC
  8
0
  6
PHANTOM
 10
72.000000
 20
157.999969
 40
1.000000
 50
180.000000
 51
270.000000
  0
ARC
  8
0
  6
PHANTOM
 10
168.000000
 20
157.999969
 40
1.000000
 50
270.000000
 51
0.000000
  0
ARC
  8
0
  6
PHANTOM
 10
168.000000
 20
181.999969
 40
1.000000
 50
0.000000
 51
90.000000
  0
ARC
  8
0
  6
PHANTOM
 10
198.437393
 20
57.749977
 40
19.999996
 50
157.200989
 51
202.798996
  0
ARC
  8
0
  6
PHANTOM
 10
162.400299
 20
40.499977
 40
20.000000
 50
331.640656
 51
28.359350
  0
ARC
  8
0
  6
PHANTOM
 10
198.437393
 20
177.749969
 40
20.000000
 50
157.200974
 51
202.798996
  0
ARC
  8
0
  6
PHANTOM
 10
161.562592
 20
162.249969
 40
20.000000
 50
337.200958
 51
22.799032
  0
ARC
  8
0
  6
PHANTOM
 10
92.376434
 20
-214.058487
 40
2.000000
 50
90.000000
 51
180.000000
  0
ARC
  8
0
  6
PHANTOM
 10
95.876434
 20
-214.058487
 40
2.000000
 50
0.000000
 51
90.000000
  0
ARC
  8
0
  6
PHANTOM
 10
-155.873566
 20
-175.558487
 40
1.000000
 50
90.000000
 51
270.000000
  0
ARC
  8
0
  6
PHANTOM
 10
-35.873566
 20
-175.558487
 40
1.000000
 50
270.000000
 51
90.000000
  0
CIRCLE
  8
0
  6
PHANTOM
 10
-120.873566
 20
-161.558487
 40
2.750000
  0
CIRCLE
  8
0
  6
PHANTOM
 10
-70.873566
 20
-161.558487
 40
2.750000
  0
ARC
  8
0
  6
PHANTOM
 10
-97.873566
 20
-160.558487
 40
1.000002
 50
240.000076
 51
270.000000
  0
ARC
  8
0
  6
PHANTOM
 10
-93.873566
 20
-160.558487
 40
1.000000
 50
270.000000
 51
299.999939
  0
ARC
  8
0
  6
PHANTOM
 10
-35.873566
 20
-52.558479
 40
1.000000
 50
0.000000
 51
90.000000
  0
ARC
  8
0
  6
PHANTOM
 10
-35.873566
 20
-76.558479
 40
1.000000
 50
270.000000
 51
0.000000
  0
ARC
  8
0
  6
PHANTOM
 10
-155.873566
 20
-76.558479
 40
1.000000
 50
180.000000
 51
270.000000
  0
ARC
  8
0
  6
PHANTOM
 10
-155.873566
 20
-52.558479
 40
1.000000
 50
90.000000
 51
180.000000
  0
ARC
  8
0
  6
PHANTOM
 10
-147.549759
 20
-185.558487
 40
25.000000
 50
158.899811
 51
201.100159
  0
ARC
  8
0
  6
PHANTOM
 10
-193.323517
 20
-205.558487
 40
25.000006
 50
333.896118
 51
26.103874
  0
ARC
  8
0
  6
PHANTOM
 10
-147.549759
 20
-55.558479
 40
24.999998
 50
158.899811
 51
201.100159
  0
ARC
  8
0
  6
PHANTOM
 10
-194.197388
 20
-73.558479
 40
25.000000
 50
338.899811
 51
21.100197
  0
ARC
  8
0
  6
PHANTOM
 10
82.126434
 20
-182.558487
 40
6.000000
 50
90.000000
 51
180.000000
  0
ARC
  8
0
  6
PHANTOM
 10
82.126434
 20
-206.558487
 40
6.000000
 50
180.000000
 51
270.000000
  0
ARC
  8
0
  6
PHANTOM
 10
106.126434
 20
-206.558487
 40
6.000000
 50
270.000000
 51
0.000000
  0
ARC
  8
0
  6
PHANTOM
 10
106.126434
 20
-182.558487
 40
6.000000
 50
0.000000
 51
90.000000
  0
ARC
  8
0
  6
PHANTOM
 10
106.126434
 20
-215.558487
 40
3.000000
 50
90.000000
 51
180.000000
  0
ARC
  8
0
  6
PHANTOM
 10
82.126434
 20
-215.558487
 40
3.000000
 50
0.000000
 51
90.000000
  0
ARC
  8
0
  6
PHANTOM
 10
2.450241
 20
-185.558487
 40
25.000002
 50
158.899811
 51
201.100159
  0
ARC
  8
0
  6
PHANTOM
 10
-43.323517
 20
-205.558487
 40
25.000002
 50
333.896118
 51
26.103880
  0
ARC
  8
0
  6
PHANTOM
 10
2.450241
 20
-55.558479
 40
25.000002
 50
158.899811
 51
201.100159
  0
ARC
  8
0
  6
PHANTOM
 10
-44.197388
 20
-73.558479
 40
25.000000
 50
338.899811
 51
21.100197
  0
ARC
  8
0
 10
-250.873596
 20
74.999962
 40
3.500000
 50
64.623062
 51
115.376938
  0
ARC
  8
0
 10
-250.873596
 20
74.999962
 40
2.500000
 50
233.130096
 51
306.869904
  0
ARC
  8
0
 10
-250.873596
 20
74.999962
 40
2.500000
 50
53.130104
 51
126.869896
  0
ARC
  8
0
 10
-250.873596
 20
78.999962
 40
1.500000
 50
0.000000
 51
180.000000
  0
CIRCLE
  8
0
 10
-224.873566
 20
159.999954
 40
2.750000
  0
CIRCLE
  8
0
 10
-224.873566
 20
159.999954
 40
3.250000
  0
CIRCLE
  8
0
 10
-276.873566
 20
159.999954
 40
3.250000
  0
CIRCLE
  8
0
 10
-276.873566
 20
159.999954
 40
2.750000
  0
CIRCLE
  8
0
 10
-245.873566
 20
159.999954
 40
1.750000
  0
CIRCLE
  8
0
 10
-255.873566
 20
159.999954
 40
1.750000
  0
ARC
  8
0
 10
-86.273544
 20
75.399971
 40
0.400002
 50
270.000000
 51
0.000000
  0
ARC
  8
0
 10
-95.473557
 20
75.399971
 40
0.400002
 50
180.000000
 51
270.000000
  0
ARC
  8
0
 10
-86.273544
 20
79.599968
 40
0.400002
 50
0.000000
 51
90.000000
  0
ARC
  8
0
 10
-95.473557
 20
79.599968
 40
0.400002
 50
90.000000
 51
180.000000
  0
ARC
  8
0
 10
-82.373550
 20
79.999969
 40
4.000000
 50
0.000000
 51
90.000000
  0
ARC
  8
0
 10
-99.373550
 20
79.999969
 40
4.000000
 50
90.000000
 51
180.000000
  0
ARC
  8
0
 10
-99.373550
 20
79.999969
 40
2.000000
 50
90.000000
 51
180.000000
  0
ARC
  8
0
 10
-82.373550
 20
79.999969
 40
2.000000
 50
0.000000
 51
90.000000
  0
ARC
  8
0
 10
120.000008
 20
81.999985
 40
3.250000
 50
232.020126
 51
307.979889
  0
ARC
  8
0
 10
120.000008
 20
81.999985
 40
3.250000
 50
52.020123
 51
127.979881
  0
ARC
  8
0
 10
120.000008
 20
81.999985
 40
4.300005
 50
62.282291
 51
117.717705
  0
ARC
  8
0
 10
121.000008
 20
86.999985
 40
1.000000
 50
0.000000
 51
90.000000
  0
ARC
  8
0
 10
119.000008
 20
86.999985
 40
1.000000
 50
90.000000
 51
180.000000
  0
CIRCLE
  8
0
 10
152.500031
 20
170.000015
 40
3.500000
  0
CIRCLE
  8
0
 10
152.500031
 20
170.000015
 40
4.000000
  0
CIRCLE
  8
0
 10
87.500023
 20
170.000015
 40
4.000000
  0
CIRCLE
  8
0
 10
87.500023
 20
170.000015
 40
3.500000
  0
CIRCLE
  8
0
 10
126.500023
 20
170.000015
 40
2.250000
  0
CIRCLE
  8
0
 10
113.500023
 20
170.000015
 40
2.250000
  0
ARC
  8
0
 10
287.099915
 20
88.099960
 40
0.399994
 50
0.000000
 51
90.000000
  0
ARC
  8
0
 10
287.099915
 20
82.399963
 40
0.400002
 50
270.000000
 51
0.000000
  0
ARC
  8
0
 10
272.899902
 20
82.399963
 40
0.399994
 50
180.000000
 51
270.000000
  0
ARC
  8
0
 10
272.899902
 20
88.099960
 40
0.400002
 50
90.000000
 51
180.000000
  0
ARC
  8
0
 10
292.499908
 20
88.699951
 40
4.799988
 50
0.000000
 51
90.000000
  0
ARC
  8
0
 10
267.499908
 20
88.699951
 40
4.800003
 50
90.000000
 51
180.000000
  0
ARC
  8
0
 10
267.499908
 20
88.699951
 40
2.500000
 50
90.000000
 51
180.000000
  0
ARC
  8
0
 10
292.499908
 20
88.699951
 40
2.500000
 50
0.000000
 51
90.000000
  0
ARC
  8
0
 10
-95.873611
 20
-156.558533
 40
3.999999
 50
231.317795
 51
308.682190
  0
ARC
  8
0
 10
-95.873611
 20
-156.558533
 40
3.999999
 50
51.317799
 51
128.682205
  0
ARC
  8
0
 10
-95.873611
 20
-150.558533
 40
2.500000
 50
0.000000
 51
180.000000
  0
ARC
  8
0
 10
-95.873611
 20
-156.558533
 40
5.299996
 50
61.855400
 51
118.144600
  0
CIRCLE
  8
0
 10
-87.873550
 20
-64.558479
 40
2.750000
  0
CIRCLE
  8
0
 10
-103.873550
 20
-64.558479
 40
2.750000
  0
CIRCLE
  8
0
 10
-55.873550
 20
-64.558479
 40
5.000000
  0
CIRCLE
  8
0
 10
-55.873550
 20
-64.558479
 40
4.250000
  0
CIRCLE
  8
0
 10
-135.873550
 20
-64.558479
 40
4.250000
  0
CIRCLE
  8
0
 10
-135.873550
 20
-64.558479
 40
5.000000
  0
ARC
  8
0
 10
82.026428
 20
-148.958511
 40
6.399994
 50
90.000000
 51
180.000000
  0
ARC
  8
0
 10
106.226440
 20
-148.958511
 40
6.400002
 50
0.000000
 51
90.000000
  0
ARC
  8
0
 10
106.426437
 20
-148.758499
 40
3.000000
 50
0.000000
 51
90.000000
  0
ARC
  8
0
 10
81.826431
 20
-148.758499
 40
3.000000
 50
90.000000
 51
180.000000
  0
ARC
  8
0
 10
87.626434
 20
-155.558502
 40
1.000000
 50
180.000000
 51
270.000000
  0
ARC
  8
0
 10
100.626434
 20
-155.558502
 40
1.000000
 50
270.000000
 51
0.000000
  0
ARC
  8
0
 10
100.626434
 20
-149.558502
 40
1.000000
 50
0.000000
 51
90.000000
  0
ARC
  8
0
 10
87.626434
 20
-149.558502
 40
1.000000
 50
90.000000
 51
180.000000
  0
TEXT
  8
0
 10
226.462494
 20
233.607468
 40
8.500000
  1
DATE : OCT ,1991
 50
0.000000
 41
1.052631
 51
0.000000
  7
STANDARD
  0
TEXT
  8
0
 10
13.821430
 20
222.956390
 40
10.000000
  1
BORE : 20
 50
0.000000
 41
1.052632
 51
0.000000
  7
STANDARD
  0
TEXT
  8
0
 10
-207.052139
 20
222.956390
 40
10.000000
  1
BORE : 16
 50
0.000000
 41
1.052632
 51
0.000000
  7
STANDARD
  0
TEXT
  8
0
 10
-357.052124
 20
-36.602112
 40
10.000000
  1
BORE : 25
 50
0.000000
 41
1.052632
 51
0.000000
  7
STANDARD
  0
TEXT
  8
0
 10
-355.779907
 20
232.257462
 40
10.000000
  1
ORCA M MOUNT
 50
0.000000
 41
1.052632
 51
0.000000
  7
STANDARD
  0
ENDSEC
  0
EOF
