  0
SECTION
  2
HEADER
  0
ENDSEC
  0
SECTION
  2
TABLES
  0
TABLE
  2
LTYPE
 70
     4
  0
LTYPE
  2
CONTINUOUS
 70
    64
  3
Solid line
 72
    65
 73
     0
 40
0.000000
  0
LTYPE
  2
DASHED
 70
    64
  3
__ __ __ __ __ __ __ __ __ __ __ __ __ __ __
 72
    65
 73
     2
 40
3.500000
 49
2.000000
 49
-1.500000
  0
LTYPE
  2
CENTER
 70
    64
  3
____ _ ____ _ ____ _ ____ _ ____ _ ____ _ ____
 72
    65
 73
     4
 40
17.500000
 49
13.000000
 49
-1.500000
 49
1.500000
 49
-1.500000
  0
LTYPE
  2
PHANTOM
 70
    64
  3
_____ _ _ _____ _ _ _____ _ _ _____ _ _ ____  
 72
    65
 73
     6
 40
15.500000
 49
8.000000
 49
-1.500000
 49
1.500000
 49
-1.500000
 49
1.500000
 49
-1.500000
  0
LTYPE
  2
DASHED1
 70
    64
  3
__ __ __ __ __ __ __ __ __ __ __ __ __ __ __
 72
    65
 73
     2
 40
1.500000
 49
1.000000
 49
-0.500000
  0
LTYPE
  2
DASHED2
 70
    64
  3
__ __ __ __ __ __ __ __ __ __ __ __ __ __ __
 72
    65
 73
     2
 40
3.500000
 49
2.500000
 49
-1.000000
  0
LTYPE
  2
DASHED3
 70
    64
  3
__ __ __ __ __ __ __ __ __ __ __ __ __ __ __
 72
    65
 73
     2
 40
6.000000
 49
4.000000
 49
-2.000000
  0
LTYPE
  2
DASHED4
 70
    64
  3
__ __ __ __ __ __ __ __ __ __ __ __ __ __ __
 72
    65
 73
     2
 40
12.000000
 49
10.000000
 49
-2.000000
  0
LTYPE
  2
DASHED5
 70
    64
  3
__ __ __ __ __ __ __ __ __ __ __ __ __ __ __
 72
    65
 73
     2
 40
17.000000
 49
15.000000
 49
-2.000000
  0
LTYPE
  2
DASHED6
 70
    64
  3
__ __ __ __ __ __ __ __ __ __ __ __ __ __ __
 72
    65
 73
     2
 40
29.000000
 49
27.000000
 49
-2.000000
  0
LTYPE
  2
PHANTOM1
 70
    64
  3
_____ _ _ _____ _ _ _____ _ _ _____ _ _ ____  
 72
    65
 73
     6
 40
31.000000
 49
25.000000
 49
-1.500000
 49
1.000000
 49
-1.000000
 49
1.000000
 49
-1.500000
  0
LTYPE
  2
PHANTOM2
 70
    64
  3
_____ _ _ _____ _ _ _____ _ _ _____ _ _ ____  
 72
    65
 73
     6
 40
36.000000
 49
27.000000
 49
-1.500000
 49
2.500000
 49
-1.000000
 49
2.500000
 49
-1.500000
  0
LTYPE
  2
PHANTOM3
 70
    64
  3
_____ _ _ _____ _ _ _____ _ _ _____ _ _ ____  
 72
    65
 73
     6
 40
78.000000
 49
64.000000
 49
-2.000000
 49
4.000000
 49
-2.000000
 49
4.000000
 49
-2.000000
  0
LTYPE
  2
CENTER1
 70
    64
  3
____ _ ____ _ ____ _ ____ _ ____ _ ____ _ ____
 72
    65
 73
     4
 40
19.000000
 49
14.000000
 49
-1.000000
 49
3.000000
 49
-1.000000
  0
LTYPE
  2
CENTER2
 70
    64
  3
____ _ ____ _ ____ _ ____ _ ____ _ ____ _ ____
 72
    65
 73
     4
 40
28.500000
 49
25.000000
 49
-1.000000
 49
1.500000
 49
-1.000000
  0
LTYPE
  2
CENTER3
 70
    64
  3
____ _ ____ _ ____ _ ____ _ ____ _ ____ _ ____
 72
    65
 73
     4
 40
31.500000
 49
27.000000
 49
-1.000000
 49
2.500000
 49
-1.000000
  0
LTYPE
  2
CENTER4
 70
    64
  3
____ _ ____ _ ____ _ ____ _ ____ _ ____ _ ____
 72
    65
 73
     4
 40
50.000000
 49
45.000000
 49
-1.000000
 49
3.000000
 49
-1.000000
  0
LTYPE
  2
CENTER5
 70
    64
  3
____ _ ____ _ ____ _ ____ _ ____ _ ____ _ ____
 72
    65
 73
     4
 40
100.000000
 49
92.000000
 49
-2.000000
 49
4.000000
 49
-2.000000
  0
LTYPE
  2
SBK1
 70
    64
  3
______ _ _ _ ______ _ _ _ ______ _ _ _ _____  
 72
    65
 73
     8
 40
60.500000
 49
45.000000
 49
-2.000000
 49
2.500000
 49
-2.000000
 49
2.500000
 49
-2.000000
 49
2.500000
 49
-2.000000
  0
LTYPE
  2
SBK2
 70
    64
  3
______ _ _ _ ______ _ _ _ ______ _ _ _ _____  
 72
    65
 73
     8
 40
84.000000
 49
64.000000
 49
-2.000000
 49
4.000000
 49
-2.000000
 49
4.000000
 49
-2.000000
 49
4.000000
 49
-2.000000
  0
LTYPE
  2
STCH
 70
    64
  3
__ __ __ __ __ __ __ __ __ __ __ __ __ __ __
 72
    65
 73
     2
 40
3.000000
 49
1.000000
 49
-2.000000
  0
LTYPE
  2
MTCH
 70
    64
  3
_____ _ _ _____ _ _ _____ _ _ _____ _ _ ____  
 72
    65
 73
     6
 40
80.000000
 49
66.000000
 49
-2.000000
 49
4.000000
 49
-2.000000
 49
4.000000
 49
-2.000000
  0
ENDTAB
  0
TABLE
  2
LAYER
 70
     1
  0
LAYER
  2
0
 70
     0
 62
     7
  6
CONTINUOUS
  0
ENDTAB
  0
TABLE
  2
STYLE
 70
     1
  0
STYLE
  2
STANDARD
 70
     0
 40
0.000000
 41
1.000000
 50
0.000000
 71
     0
 42
0.200000
  3
txt
  4
BIGFONT
  0
ENDTAB
  0
TABLE
  2
VIEW
 70
     0
  0
ENDTAB
  0
ENDSEC
  0
SECTION
  2
BLOCKS
  0
ENDSEC
  0
SECTION
  2
ENTITIES
  0
POINT
  8
0
 10
-235.873566
 20
49.999977
  0
POINT
  8
0
 10
-235.873566
 20
144.999969
  0
POINT
  8
0
 10
-221.873535
 20
144.999969
  0
POINT
  8
0
 10
-221.873535
 20
49.999977
  0
POINT
  8
0
 10
-115.873566
 20
49.999977
  0
POINT
  8
0
 10
-102.373566
 20
49.999977
  0
POINT
  8
0
 10
145.000000
 20
49.999977
  0
POINT
  8
0
 10
163.000092
 20
49.999977
  0
POINT
  8
0
 10
163.000092
 20
159.999969
  0
POINT
  8
0
 10
145.000000
 20
159.999969
  0
POINT
  8
0
 10
260.000000
 20
49.999977
  0
POINT
  8
0
 10
277.000000
 20
49.999977
  0
POINT
  8
0
 10
74.126434
 20
-194.558487
  0
POINT
  8
0
 10
94.126434
 20
-194.558487
  0
POINT
  8
0
 10
-53.873566
 20
-74.558479
  0
POINT
  8
0
 10
-53.873566
 20
-194.558487
  0
POINT
  8
0
 10
-75.873566
 20
-194.558487
  0
POINT
  8
0
 10
-75.873566
 20
-74.558479
  0
LINE
  8
0
 62
     3
 10
218.329163
 20
-225.956436
 11
370.873566
 21
-225.956436
  0
LINE
  8
0
 62
     3
 10
-218.329163
 20
225.956390
 11
-218.329163
 21
254.558487
  0
LINE
  8
0
 62
     3
 10
-370.873566
 20
225.956390
 11
-218.329163
 21
225.956390
  0
LINE
  8
0
 62
     3
 10
-370.873566
 20
254.558487
 11
370.873566
 21
254.558487
  0
LINE
  8
0
 62
     3
 10
-370.873566
 20
-254.558487
 11
370.873566
 21
-254.558487
  0
LINE
  8
0
 62
     3
 10
370.873566
 20
254.558487
 11
370.873566
 21
-254.558487
  0
LINE
  8
0
 62
     3
 10
-370.873566
 20
-254.558487
 11
-370.873566
 21
254.558487
  0
LINE
  8
0
 62
     3
 10
218.329163
 20
-225.956436
 11
218.329163
 21
-254.558487
  0
LINE
  8
0
 62
     3
 10
218.329163
 20
254.558487
 11
218.329163
 21
225.956390
  0
LINE
  8
0
 62
     3
 10
218.329163
 20
225.956390
 11
370.873566
 21
225.956390
  0
LINE
  8
0
 62
     5
 10
258.381622
 20
-232.833740
 11
258.381622
 21
-236.151566
  0
LINE
  8
0
 62
     5
 10
258.381622
 20
-236.151566
 11
270.823547
 21
-236.151566
  0
LINE
  8
0
 62
     5
 10
258.381622
 20
-249.146469
 11
275.247345
 21
-249.146469
  0
LINE
  8
0
 62
     5
 10
258.381622
 20
-245.828644
 11
270.823547
 21
-245.828644
  0
LINE
  8
0
 62
     5
 10
258.381622
 20
-232.833740
 11
273.035400
 21
-232.833740
  0
LINE
  8
0
 62
     5
 10
270.823547
 20
-236.151566
 11
270.823547
 21
-245.828644
  0
LINE
  8
0
 62
     5
 10
275.247345
 20
-235.045654
 11
275.247345
 21
-249.146469
  0
LINE
  8
0
 62
     5
 10
258.381622
 20
-245.828644
 11
258.381622
 21
-249.146469
  0
LINE
  8
0
 62
     5
 10
293.495392
 20
-236.151566
 11
293.495392
 21
-246.934647
  0
LINE
  8
0
 62
     5
 10
277.735657
 20
-232.833740
 11
277.735657
 21
-236.151566
  0
LINE
  8
0
 62
     5
 10
293.937836
 20
-232.584961
 11
295.513824
 21
-232.584961
  0
LINE
  8
0
 62
     5
 10
293.937836
 20
-230.373016
 11
295.513824
 21
-230.373016
  0
LINE
  8
0
 62
     5
 10
295.513824
 20
-230.373016
 11
295.513824
 21
-232.584961
  0
LINE
  8
0
 62
     5
 10
293.937836
 20
-230.373016
 11
293.937836
 21
-232.584961
  0
LINE
  8
0
 62
     5
 10
293.108276
 20
-230.373016
 11
293.108276
 21
-232.584961
  0
LINE
  8
0
 62
     5
 10
282.766052
 20
-230.373016
 11
286.200897
 21
-230.373016
  0
LINE
  8
0
 62
     5
 10
285.541260
 20
-232.833466
 11
286.200562
 21
-230.372711
  0
LINE
  8
0
 62
     5
 10
282.106689
 20
-232.833710
 11
282.766022
 21
-230.372986
  0
LINE
  8
0
 62
     5
 10
285.541565
 20
-232.833740
 11
290.177551
 21
-232.833740
  0
LINE
  8
0
 62
     5
 10
284.652557
 20
-236.151566
 11
289.071625
 21
-236.151566
  0
LINE
  8
0
 62
     5
 10
286.642853
 20
-249.146469
 11
291.283569
 21
-249.146469
  0
LINE
  8
0
 62
     5
 10
285.753693
 20
-245.828583
 11
286.642731
 21
-249.146347
  0
LINE
  8
0
 62
     5
 10
285.753754
 20
-245.828644
 11
289.071625
 21
-245.828644
  0
LINE
  8
0
 62
     5
 10
281.170746
 20
-249.146637
 11
284.652679
 21
-236.151733
  0
LINE
  8
0
 62
     5
 10
277.735657
 20
-236.151566
 11
281.217682
 21
-236.151566
  0
LINE
  8
0
 62
     5
 10
277.735413
 20
-249.146210
 11
281.217468
 21
-236.151337
  0
LINE
  8
0
 62
     5
 10
277.735657
 20
-249.146469
 11
281.170593
 21
-249.146469
  0
LINE
  8
0
 62
     5
 10
277.735657
 20
-232.833740
 11
282.106689
 21
-232.833740
  0
LINE
  8
0
 62
     5
 10
289.071625
 20
-236.151566
 11
289.071625
 21
-245.828644
  0
LINE
  8
0
 62
     5
 10
291.532288
 20
-230.373016
 11
293.108276
 21
-230.373016
  0
LINE
  8
0
 62
     5
 10
291.532288
 20
-232.584961
 11
293.108276
 21
-232.584961
  0
LINE
  8
0
 62
     5
 10
291.532288
 20
-230.373016
 11
291.532288
 21
-232.584961
  0
LINE
  8
0
 62
     5
 10
301.513550
 20
-230.373016
 11
305.937286
 21
-230.373016
  0
LINE
  8
0
 62
     5
 10
308.342316
 20
-240.195053
 11
311.296204
 21
-238.817642
  0
LINE
  8
0
 62
     5
 10
305.937286
 20
-242.734406
 11
305.937286
 21
-249.146469
  0
LINE
  8
0
 62
     5
 10
301.513550
 20
-243.379044
 11
301.513550
 21
-249.146469
  0
LINE
  8
0
 62
     5
 10
305.937286
 20
-232.833740
 11
310.361115
 21
-232.833740
  0
LINE
  8
0
 62
     5
 10
305.937286
 20
-230.373016
 11
305.937286
 21
-232.833740
  0
LINE
  8
0
 62
     5
 10
301.513550
 20
-230.373016
 11
301.513550
 21
-232.833740
  0
LINE
  8
0
 62
     5
 10
312.572998
 20
-235.045654
 11
312.572998
 21
-236.812775
  0
LINE
  8
0
 62
     5
 10
308.342377
 20
-240.195038
 11
312.573395
 21
-242.168030
  0
LINE
  8
0
 62
     5
 10
305.937256
 20
-242.734329
 11
312.573059
 21
-245.828613
  0
LINE
  8
0
 62
     5
 10
296.260284
 20
-242.167801
 11
296.260284
 21
-245.828644
  0
LINE
  8
0
 62
     5
 10
296.260742
 20
-242.168167
 11
309.162567
 21
-236.151932
  0
LINE
  8
0
 62
     5
 10
296.260254
 20
-245.828598
 11
301.513580
 21
-243.378937
  0
LINE
  8
0
 62
     5
 10
312.572998
 20
-242.167801
 11
312.572998
 21
-245.828644
  0
LINE
  8
0
 62
     5
 10
296.260284
 20
-232.833740
 11
296.260284
 21
-236.151566
  0
LINE
  8
0
 62
     5
 10
301.513550
 20
-249.146469
 11
305.937286
 21
-249.146469
  0
LINE
  8
0
 62
     5
 10
296.260284
 20
-236.151566
 11
309.162079
 21
-236.151566
  0
LINE
  8
0
 62
     5
 10
296.260284
 20
-232.833740
 11
301.513550
 21
-232.833740
  0
LINE
  8
0
 62
     5
 10
327.503998
 20
-236.404739
 11
328.730042
 21
-235.917068
  0
LINE
  8
0
 62
     5
 10
327.503357
 20
-236.404404
 11
327.503357
 21
-249.146469
  0
LINE
  8
0
 62
     5
 10
323.079498
 20
-249.146469
 11
327.503357
 21
-249.146469
  0
LINE
  8
0
 62
     5
 10
313.955292
 20
-241.792511
 11
323.079376
 21
-238.163742
  0
LINE
  8
0
 62
     5
 10
313.955536
 20
-238.221954
 11
326.806152
 21
-233.111084
  0
LINE
  8
0
 62
     5
 10
323.079498
 20
-238.163773
 11
323.079498
 21
-249.146469
  0
LINE
  8
0
 62
     5
 10
327.503357
 20
-231.368408
 11
327.503357
 21
-232.083389
  0
LINE
  8
0
 62
     5
 10
330.821106
 20
-231.368408
 11
330.821106
 21
-232.833755
  0
LINE
  8
0
 62
     5
 10
313.955444
 20
-238.221893
 11
313.955444
 21
-241.792496
  0
LINE
  8
0
 62
     5
 10
327.503357
 20
-231.368408
 11
330.821106
 21
-231.368408
  0
LINE
  8
0
 10
-370.873566
 20
-0.000023
 11
370.873566
 21
-0.000023
  0
LINE
  8
0
 10
0.000000
 20
-0.000023
 11
0.000000
 21
254.558487
  0
LINE
  8
0
  6
CENTER
 10
-285.873566
 20
144.999969
 11
-216.873566
 21
144.999969
  0
LINE
  8
0
  6
CENTER
 10
-115.873566
 20
29.999977
 11
-115.873566
 21
68.499977
  0
LINE
  8
0
  6
CENTER
 10
-134.373566
 20
49.999977
 11
-97.373566
 21
49.999977
  0
LINE
  8
0
  6
PHANTOM
 10
-235.873566
 20
131.499969
 11
-235.873566
 21
131.999969
  0
LINE
  8
0
  6
PHANTOM
 10
-102.373566
 20
40.999977
 11
-102.373566
 21
58.999977
  0
LINE
  8
0
  6
PHANTOM
 10
-129.373566
 20
40.999977
 11
-129.373566
 21
58.999977
  0
LINE
  8
0
  6
PHANTOM
 10
-124.873566
 20
63.499977
 11
-106.873566
 21
63.499977
  0
LINE
  8
0
  6
PHANTOM
 10
-250.873566
 20
131.499969
 11
-250.873566
 21
158.499969
  0
LINE
  8
0
  6
PHANTOM
 10
-250.873566
 20
158.499969
 11
-235.873566
 21
158.499969
  0
LINE
  8
0
  6
PHANTOM
 10
-250.873566
 20
131.499969
 11
-235.873566
 21
131.499969
  0
LINE
  8
0
  6
PHANTOM
 10
-280.873566
 20
34.999977
 11
-250.873566
 21
34.999977
  0
LINE
  8
0
  6
PHANTOM
 10
-280.873566
 20
61.999977
 11
-250.873566
 21
61.999977
  0
LINE
  8
0
  6
PHANTOM
 10
-279.554871
 20
37.999977
 11
-250.873566
 21
37.999977
  0
LINE
  8
0
  6
CENTER
 10
-285.873566
 20
49.999977
 11
-230.873566
 21
49.999977
  0
LINE
  8
0
  6
PHANTOM
 10
-235.873566
 20
36.499977
 11
-235.873566
 21
37.599976
  0
LINE
  8
0
  6
PHANTOM
 10
-250.873566
 20
63.499977
 11
-235.873566
 21
63.499977
  0
LINE
  8
0
  6
PHANTOM
 10
-250.873566
 20
36.499977
 11
-235.873566
 21
36.499977
  0
LINE
  8
0
  6
PHANTOM
 10
-250.873566
 20
34.999977
 11
-250.873566
 21
63.499977
  0
LINE
  8
0
  6
PHANTOM
 10
-279.554871
 20
132.999969
 11
-250.873566
 21
132.999969
  0
LINE
  8
0
  6
PHANTOM
 10
-280.873566
 20
156.999969
 11
-250.873566
 21
156.999969
  0
LINE
  8
0
  6
PHANTOM
 10
-282.069397
 20
149.699982
 11
-250.873566
 21
149.699982
  0
LINE
  8
0
  6
PHANTOM
 10
-279.127594
 20
140.299988
 11
-250.873566
 21
140.299988
  0
LINE
  8
0
  6
PHANTOM
 10
-235.873566
 20
44.999977
 11
-235.873566
 21
63.499977
  0
LINE
  8
0
  6
PHANTOM
 10
-235.873566
 20
157.999969
 11
-235.873566
 21
158.499969
  0
LINE
  8
0
  6
CENTER
 10
80.000000
 20
49.999977
 11
150.000000
 21
49.999977
  0
LINE
  8
0
  6
CENTER
 10
80.000000
 20
159.999969
 11
168.000000
 21
159.999969
  0
LINE
  8
0
  6
CENTER
 10
238.000000
 20
49.999977
 11
282.000000
 21
49.999977
  0
LINE
  8
0
  6
PHANTOM
 10
145.000000
 20
32.999977
 11
145.000000
 21
33.999977
  0
LINE
  8
0
  6
CENTER
 10
260.000000
 20
25.999977
 11
260.000000
 21
71.999977
  0
LINE
  8
0
  6
PHANTOM
 10
277.000000
 20
37.999977
 11
277.000000
 21
61.999977
  0
LINE
  8
0
  6
PHANTOM
 10
243.000000
 20
37.999977
 11
243.000000
 21
61.999977
  0
LINE
  8
0
  6
PHANTOM
 10
248.000000
 20
66.999977
 11
273.000000
 21
66.999977
  0
LINE
  8
0
  6
PHANTOM
 10
126.000000
 20
30.999977
 11
126.000000
 21
66.999977
  0
LINE
  8
0
  6
PHANTOM
 10
126.000000
 20
66.999977
 11
145.000000
 21
66.999977
  0
LINE
  8
0
  6
PHANTOM
 10
126.000000
 20
32.999977
 11
145.000000
 21
32.999977
  0
LINE
  8
0
  6
PHANTOM
 10
85.000000
 20
30.999977
 11
126.000000
 21
30.999977
  0
LINE
  8
0
  6
PHANTOM
 10
85.000000
 20
65.499977
 11
126.000000
 21
65.499977
  0
LINE
  8
0
  6
PHANTOM
 10
86.479065
 20
34.499977
 11
126.000000
 21
34.499977
  0
LINE
  8
0
  6
PHANTOM
 10
145.000000
 20
142.999969
 11
145.000000
 21
143.499969
  0
LINE
  8
0
  6
PHANTOM
 10
126.000000
 20
142.999969
 11
126.000000
 21
176.999969
  0
LINE
  8
0
  6
PHANTOM
 10
126.000000
 20
176.999969
 11
145.000000
 21
176.999969
  0
LINE
  8
0
  6
PHANTOM
 10
126.000000
 20
142.999969
 11
145.000000
 21
142.999969
  0
LINE
  8
0
  6
PHANTOM
 10
85.000000
 20
144.499969
 11
126.000000
 21
144.499969
  0
LINE
  8
0
  6
PHANTOM
 10
85.000000
 20
175.499969
 11
126.000000
 21
175.499969
  0
LINE
  8
0
  6
PHANTOM
 10
83.444962
 20
167.199982
 11
126.000000
 21
167.199982
  0
LINE
  8
0
  6
PHANTOM
 10
86.555038
 20
152.799988
 11
126.000000
 21
152.799988
  0
LINE
  8
0
  6
PHANTOM
 10
145.000000
 20
43.999977
 11
145.000000
 21
66.999977
  0
LINE
  8
0
  6
PHANTOM
 10
145.000000
 20
176.499969
 11
145.000000
 21
176.999969
  0
LINE
  8
0
  6
CENTER
 10
-145.873566
 20
-74.558479
 11
-48.873566
 21
-74.558479
  0
LINE
  8
0
  6
CENTER
 10
-145.873566
 20
-194.558487
 11
-70.873566
 21
-194.558487
  0
LINE
  8
0
  6
CENTER
 10
74.126434
 20
-169.558487
 11
74.126434
 21
-221.558472
  0
LINE
  8
0
  6
CENTER
 10
49.126434
 20
-194.558487
 11
99.126434
 21
-194.558487
  0
LINE
  8
0
  6
PHANTOM
 10
-75.873566
 20
-174.558487
 11
-75.873566
 21
-200.558487
  0
LINE
  8
0
  6
PHANTOM
 10
54.126434
 20
-181.058487
 11
54.126434
 21
-208.058487
  0
LINE
  8
0
  6
PHANTOM
 10
94.126434
 20
-181.058487
 11
94.126434
 21
-208.058487
  0
LINE
  8
0
  6
PHANTOM
 10
60.626434
 20
-174.558487
 11
87.626434
 21
-174.558487
  0
LINE
  8
0
  6
PHANTOM
 10
-98.873566
 20
-174.558487
 11
-98.873566
 21
-216.558487
  0
LINE
  8
0
  6
PHANTOM
 10
-98.873566
 20
-174.558487
 11
-75.873566
 21
-174.558487
  0
LINE
  8
0
  6
PHANTOM
 10
-98.873566
 20
-214.558487
 11
-75.873566
 21
-214.558487
  0
LINE
  8
0
  6
PHANTOM
 10
-98.873566
 20
-54.558487
 11
-98.873566
 21
-94.558487
  0
LINE
  8
0
  6
PHANTOM
 10
-75.873566
 20
-54.558487
 11
-75.873566
 21
-55.058479
  0
LINE
  8
0
  6
PHANTOM
 10
-98.873566
 20
-54.558487
 11
-75.873566
 21
-54.558487
  0
LINE
  8
0
  6
PHANTOM
 10
-98.873566
 20
-94.558487
 11
-75.873566
 21
-94.558487
  0
LINE
  8
0
  6
PHANTOM
 10
-140.873566
 20
-216.558487
 11
-98.873566
 21
-216.558487
  0
LINE
  8
0
  6
PHANTOM
 10
-140.873566
 20
-176.558487
 11
-98.873566
 21
-176.558487
  0
LINE
  8
0
  6
PHANTOM
 10
-139.323517
 20
-212.558487
 11
-98.873566
 21
-212.558487
  0
LINE
  8
0
  6
PHANTOM
 10
-140.873566
 20
-56.558479
 11
-98.873566
 21
-56.558479
  0
LINE
  8
0
  6
PHANTOM
 10
-140.873566
 20
-92.558479
 11
-98.873566
 21
-92.558479
  0
LINE
  8
0
  6
PHANTOM
 10
-142.484863
 20
-67.358482
 11
-98.873566
 21
-67.358482
  0
LINE
  8
0
  6
PHANTOM
 10
-139.262268
 20
-81.758484
 11
-98.873566
 21
-81.758484
  0
LINE
  8
0
  6
PHANTOM
 10
-75.873566
 20
-212.958496
 11
-75.873566
 21
-214.558487
  0
LINE
  8
0
  6
PHANTOM
 10
-75.873566
 20
-94.058479
 11
-75.873566
 21
-94.558487
  0
LINE
  8
0
 10
-233.273529
 20
34.999981
 11
-221.873535
 21
34.999981
  0
LINE
  8
0
 10
-221.873535
 20
34.999981
 11
-221.873535
 21
36.599979
  0
LINE
  8
0
 10
-233.273529
 20
36.599979
 11
-221.873535
 21
36.599979
  0
LINE
  8
0
 10
-235.873535
 20
44.999981
 11
-234.273529
 21
44.999981
  0
LINE
  8
0
 10
-234.273529
 20
37.599979
 11
-234.273529
 21
44.999981
  0
LINE
  8
0
 10
-235.873535
 20
37.599979
 11
-235.873535
 21
44.999981
  0
LINE
  8
0
 10
-234.273529
 20
43.749981
 11
-231.573547
 21
43.749981
  0
LINE
  8
0
 10
-231.573563
 20
38.249996
 11
-231.273575
 21
38.549995
  0
LINE
  8
0
 10
-231.573593
 20
43.749962
 11
-231.273590
 21
43.449959
  0
LINE
  8
0
 10
-231.573547
 20
38.249981
 11
-231.573547
 21
43.749981
  0
LINE
  8
0
 10
-231.273529
 20
38.549984
 11
-231.273529
 21
43.449986
  0
LINE
  8
0
 10
-234.273529
 20
38.249981
 11
-231.573547
 21
38.249981
  0
LINE
  8
0
  6
CENTER
 10
-225.873535
 20
31.999981
 11
-225.873535
 21
39.599979
  0
LINE
  8
0
  6
CENTER
 10
-238.873535
 20
40.999981
 11
-228.273529
 21
40.999981
  0
LINE
  8
0
  6
DASHED
 10
-227.673523
 20
34.999981
 11
-227.673523
 21
36.599979
  0
LINE
  8
0
  6
DASHED
 10
-224.073547
 20
34.999981
 11
-224.073547
 21
36.599979
  0
LINE
  8
0
 10
-231.573547
 20
133.250000
 11
-231.573547
 21
138.750000
  0
LINE
  8
0
 10
-231.573593
 20
138.750046
 11
-231.273605
 21
138.450043
  0
LINE
  8
0
 10
-235.873535
 20
150.000000
 11
-234.273529
 21
150.000000
  0
LINE
  8
0
 10
-234.273529
 20
151.250000
 11
-231.573547
 21
151.250000
  0
LINE
  8
0
 10
-234.273529
 20
156.750000
 11
-231.573547
 21
156.750000
  0
LINE
  8
0
 10
-231.273529
 20
151.550018
 11
-231.273529
 21
156.450012
  0
LINE
  8
0
 10
-231.573547
 20
151.250000
 11
-231.573547
 21
156.750000
  0
LINE
  8
0
 10
-231.573578
 20
156.750015
 11
-231.273544
 21
156.449982
  0
LINE
  8
0
 10
-231.573563
 20
151.250061
 11
-231.273575
 21
151.550064
  0
LINE
  8
0
 10
-221.873535
 20
156.000000
 11
-221.873535
 21
134.000000
  0
LINE
  8
0
 10
-235.873535
 20
158.000000
 11
-223.873535
 21
158.000000
  0
LINE
  8
0
 10
-235.873535
 20
132.000000
 11
-223.873535
 21
132.000000
  0
LINE
  8
0
 10
-234.273529
 20
132.000000
 11
-234.273529
 21
158.000000
  0
LINE
  8
0
 10
-235.873535
 20
140.000000
 11
-234.273529
 21
140.000000
  0
LINE
  8
0
 10
-235.873535
 20
132.000000
 11
-235.873535
 21
158.000000
  0
LINE
  8
0
 10
-231.573608
 20
133.250107
 11
-231.273605
 21
133.550110
  0
LINE
  8
0
 10
-234.273529
 20
133.250000
 11
-231.573547
 21
133.250000
  0
LINE
  8
0
 10
-234.273529
 20
138.750000
 11
-231.573547
 21
138.750000
  0
LINE
  8
0
 10
-231.273529
 20
133.550018
 11
-231.273529
 21
138.450012
  0
LINE
  8
0
  6
CENTER
 10
-225.873535
 20
157.000000
 11
-225.873535
 21
151.000000
  0
LINE
  8
0
  6
CENTER
 10
-238.873535
 20
154.000000
 11
-221.073547
 21
154.000000
  0
LINE
  8
0
  6
CENTER
 10
-238.873535
 20
136.000000
 11
-221.073547
 21
136.000000
  0
LINE
  8
0
  6
CENTER
 10
-225.873535
 20
139.000000
 11
-225.873535
 21
133.000000
  0
LINE
  8
0
  6
CENTER
 10
-106.873604
 20
45.499958
 11
-106.873604
 21
31.999958
  0
LINE
  8
0
  6
CENTER
 10
-102.373604
 20
40.999958
 11
-111.373604
 21
40.999958
  0
LINE
  8
0
  6
DASHED
 10
-126.673607
 20
36.599957
 11
-126.673607
 21
34.999958
  0
LINE
  8
0
 10
-128.873596
 20
34.999958
 11
-102.873604
 21
34.999958
  0
LINE
  8
0
 10
-128.873596
 20
44.999958
 11
-122.873604
 21
44.999958
  0
LINE
  8
0
 10
-128.873596
 20
34.999958
 11
-128.873596
 21
44.999958
  0
LINE
  8
0
 10
-102.873604
 20
34.999958
 11
-102.873604
 21
42.999958
  0
LINE
  8
0
 10
-120.873604
 20
42.999958
 11
-120.873604
 21
42.999958
  0
LINE
  8
0
 10
-110.873604
 20
42.999958
 11
-110.873604
 21
42.999958
  0
LINE
  8
0
 10
-108.873604
 20
44.999958
 11
-104.873604
 21
44.999958
  0
LINE
  8
0
 10
-126.123627
 20
40.278259
 11
-124.873619
 21
39.556564
  0
LINE
  8
0
 10
-124.873604
 20
39.556583
 11
-123.623619
 21
40.278263
  0
LINE
  8
0
 10
-123.623604
 20
40.278263
 11
-123.623604
 21
41.721645
  0
LINE
  8
0
 10
-123.623642
 20
41.721653
 11
-124.873650
 21
42.443344
  0
LINE
  8
0
 10
-124.873627
 20
42.443352
 11
-126.123611
 21
41.721672
  0
LINE
  8
0
 10
-126.123604
 20
41.721638
 11
-126.123604
 21
40.278263
  0
LINE
  8
0
 10
-105.623604
 20
41.721638
 11
-105.623604
 21
40.278263
  0
LINE
  8
0
 10
-105.623604
 20
40.278259
 11
-106.873604
 21
39.556572
  0
LINE
  8
0
 10
-106.873611
 20
39.556580
 11
-108.123627
 21
40.278271
  0
LINE
  8
0
 10
-108.123604
 20
40.278263
 11
-108.123604
 21
41.721645
  0
LINE
  8
0
 10
-108.123581
 20
41.721634
 11
-106.873596
 21
42.443314
  0
LINE
  8
0
 10
-106.873596
 20
42.443336
 11
-105.623604
 21
41.721645
  0
LINE
  8
0
  6
CENTER
 10
-124.873604
 20
45.499958
 11
-124.873604
 21
31.999958
  0
LINE
  8
0
 10
-128.873596
 20
36.599957
 11
-102.873604
 21
36.599957
  0
LINE
  8
0
  6
DASHED
 10
-123.073601
 20
36.599957
 11
-123.073601
 21
34.999958
  0
LINE
  8
0
  6
CENTER
 10
-129.373596
 20
40.999958
 11
-120.373604
 21
40.999958
  0
LINE
  8
0
  6
DASHED
 10
-108.673607
 20
36.599957
 11
-108.673607
 21
34.999958
  0
LINE
  8
0
  6
DASHED
 10
-105.073601
 20
36.599957
 11
-105.073601
 21
34.999958
  0
LINE
  8
0
 10
145.000031
 20
43.999992
 11
147.000031
 21
43.999992
  0
LINE
  8
0
 10
148.000031
 20
30.999992
 11
163.000031
 21
30.999992
  0
LINE
  8
0
 10
163.000031
 20
30.999992
 11
163.000031
 21
32.999992
  0
LINE
  8
0
 10
148.000031
 20
32.999992
 11
163.000031
 21
32.999992
  0
LINE
  8
0
 10
145.000031
 20
33.999992
 11
145.000031
 21
43.999992
  0
LINE
  8
0
 10
147.000031
 20
34.499992
 11
150.600037
 21
34.499992
  0
LINE
  8
0
 10
150.600052
 20
34.499973
 11
151.000046
 21
34.899971
  0
LINE
  8
0
 10
150.599991
 20
41.499973
 11
151.000000
 21
41.099972
  0
LINE
  8
0
 10
150.600037
 20
34.499992
 11
150.600037
 21
41.499992
  0
LINE
  8
0
 10
151.000031
 20
34.899979
 11
151.000031
 21
41.099991
  0
LINE
  8
0
 10
147.000031
 20
33.999992
 11
147.000031
 21
43.999992
  0
LINE
  8
0
 10
147.000031
 20
41.499992
 11
150.600037
 21
41.499992
  0
LINE
  8
0
  6
CENTER
 10
140.000031
 20
37.999992
 11
154.000031
 21
37.999992
  0
LINE
  8
0
  6
CENTER
 10
158.000031
 20
27.999992
 11
158.000031
 21
35.999992
  0
LINE
  8
0
  6
DASHED
 10
155.700027
 20
30.999992
 11
155.700027
 21
32.999992
  0
LINE
  8
0
  6
DASHED
 10
160.300034
 20
30.999992
 11
160.300034
 21
32.999992
  0
LINE
  8
0
 10
145.000092
 20
176.500076
 11
160.500092
 21
176.500076
  0
LINE
  8
0
 10
145.000092
 20
153.291885
 11
147.000092
 21
153.291885
  0
LINE
  8
0
 10
145.000092
 20
166.708282
 11
147.000092
 21
166.708282
  0
LINE
  8
0
 10
147.000092
 20
175.500076
 11
150.600082
 21
175.500076
  0
LINE
  8
0
 10
147.000092
 20
168.500076
 11
150.600082
 21
168.500076
  0
LINE
  8
0
 10
151.000092
 20
168.900070
 11
151.000092
 21
175.100082
  0
LINE
  8
0
 10
150.600082
 20
168.500076
 11
150.600082
 21
175.500076
  0
LINE
  8
0
 10
150.600052
 20
175.500061
 11
151.000046
 21
175.100052
  0
LINE
  8
0
 10
150.600113
 20
168.500092
 11
151.000107
 21
168.900070
  0
LINE
  8
0
 10
163.000092
 20
174.000076
 11
163.000092
 21
146.000076
  0
LINE
  8
0
 10
145.000092
 20
143.500076
 11
145.000092
 21
176.500076
  0
LINE
  8
0
 10
147.000092
 20
143.500076
 11
147.000092
 21
176.500076
  0
LINE
  8
0
 10
147.000092
 20
151.500076
 11
150.600082
 21
151.500076
  0
LINE
  8
0
 10
147.000092
 20
144.500076
 11
150.600082
 21
144.500076
  0
LINE
  8
0
 10
151.000092
 20
144.900070
 11
151.000092
 21
151.100082
  0
LINE
  8
0
 10
150.600082
 20
144.500076
 11
150.600082
 21
151.500076
  0
LINE
  8
0
 10
150.600037
 20
151.500046
 11
151.000046
 21
151.100037
  0
LINE
  8
0
 10
150.600098
 20
144.500076
 11
151.000107
 21
144.900070
  0
LINE
  8
0
 10
145.000092
 20
143.500076
 11
160.500092
 21
143.500076
  0
LINE
  8
0
  6
CENTER
 10
142.000092
 20
172.000076
 11
162.000092
 21
172.000076
  0
LINE
  8
0
  6
CENTER
 10
142.000092
 20
148.000076
 11
162.000092
 21
148.000076
  0
LINE
  8
0
  6
CENTER
 10
158.000092
 20
152.000076
 11
158.000092
 21
144.000076
  0
LINE
  8
0
  6
CENTER
 10
158.000092
 20
168.000076
 11
158.000092
 21
176.000076
  0
LINE
  8
0
 10
243.500031
 20
30.999981
 11
276.500031
 21
30.999981
  0
LINE
  8
0
 10
244.500031
 20
43.999981
 11
253.291824
 21
43.999981
  0
LINE
  8
0
 10
243.500031
 20
30.999981
 11
243.500031
 21
42.999981
  0
LINE
  8
0
 10
276.500031
 20
30.999981
 11
276.500031
 21
42.999981
  0
LINE
  8
0
 10
246.500092
 20
37.133945
 11
248.000076
 21
36.267925
  0
LINE
  8
0
 10
248.000046
 20
36.267887
 11
249.500046
 21
37.133915
  0
LINE
  8
0
 10
249.500031
 20
37.133968
 11
249.500031
 21
38.866016
  0
LINE
  8
0
 10
249.500031
 20
38.866055
 11
248.000046
 21
39.732067
  0
LINE
  8
0
 10
248.000076
 20
39.731941
 11
246.500076
 21
38.865913
  0
LINE
  8
0
 10
246.500046
 20
38.865955
 11
246.500046
 21
37.133915
  0
LINE
  8
0
 10
270.500122
 20
38.865940
 11
272.000153
 21
39.731964
  0
LINE
  8
0
  6
CENTER
 10
272.000031
 20
43.499981
 11
272.000031
 21
27.999981
  0
LINE
  8
0
 10
272.000031
 20
39.731960
 11
273.500031
 21
38.865929
  0
LINE
  8
0
  6
CENTER
 10
277.500031
 20
37.999981
 11
266.500031
 21
37.999981
  0
LINE
  8
0
 10
273.500031
 20
38.865955
 11
273.500031
 21
37.133915
  0
LINE
  8
0
 10
273.500031
 20
37.133850
 11
272.000031
 21
36.267826
  0
LINE
  8
0
 10
272.000092
 20
36.267986
 11
270.500092
 21
37.134010
  0
LINE
  8
0
 10
270.500031
 20
37.133968
 11
270.500031
 21
38.866016
  0
LINE
  8
0
  6
CENTER
 10
242.500031
 20
37.999981
 11
253.500031
 21
37.999981
  0
LINE
  8
0
  6
CENTER
 10
248.000031
 20
43.499981
 11
248.000031
 21
27.999981
  0
LINE
  8
0
  6
DASHED
 10
245.700027
 20
32.999981
 11
245.700027
 21
30.999981
  0
LINE
  8
0
  6
DASHED
 10
250.300034
 20
32.999981
 11
250.300034
 21
30.999981
  0
LINE
  8
0
 10
266.708221
 20
43.999981
 11
275.500031
 21
43.999981
  0
LINE
  8
0
 10
243.500031
 20
32.999981
 11
276.500031
 21
32.999981
  0
LINE
  8
0
  6
DASHED
 10
269.700043
 20
32.999981
 11
269.700043
 21
30.999981
  0
LINE
  8
0
  6
DASHED
 10
274.300018
 20
32.999981
 11
274.300018
 21
30.999981
  0
LINE
  8
0
 10
-75.873497
 20
-200.558411
 11
-73.273491
 21
-200.558411
  0
LINE
  8
0
 10
-72.273491
 20
-216.558411
 11
-53.873497
 21
-216.558411
  0
LINE
  8
0
 10
-72.273491
 20
-213.958420
 11
-53.873497
 21
-213.958420
  0
LINE
  8
0
 10
-73.273491
 20
-200.558411
 11
-73.273491
 21
-212.958420
  0
LINE
  8
0
 10
-73.273491
 20
-203.808411
 11
-68.773491
 21
-203.808411
  0
LINE
  8
0
 10
-75.873497
 20
-200.558411
 11
-75.873497
 21
-212.958420
  0
LINE
  8
0
 10
-53.873497
 20
-213.958420
 11
-53.873497
 21
-216.558411
  0
LINE
  8
0
 10
-68.773483
 20
-203.808380
 11
-68.273499
 21
-204.308380
  0
LINE
  8
0
 10
-68.773521
 20
-212.308411
 11
-68.273506
 21
-211.808395
  0
LINE
  8
0
 10
-68.773491
 20
-203.808411
 11
-68.773491
 21
-212.308411
  0
LINE
  8
0
 10
-73.273491
 20
-212.308411
 11
-68.773491
 21
-212.308411
  0
LINE
  8
0
 10
-68.273491
 20
-204.308411
 11
-68.273491
 21
-211.808426
  0
LINE
  8
0
  6
CENTER
 10
-78.873497
 20
-208.058411
 11
-65.273491
 21
-208.058411
  0
LINE
  8
0
  6
CENTER
 10
-59.873497
 20
-210.958420
 11
-59.873497
 21
-219.558395
  0
LINE
  8
0
  6
DASHED
 10
-62.773491
 20
-213.958420
 11
-62.773491
 21
-216.558411
  0
LINE
  8
0
  6
DASHED
 10
-56.973503
 20
-213.958420
 11
-56.973503
 21
-216.558411
  0
LINE
  8
0
 10
-75.873566
 20
-55.058472
 11
-56.873566
 21
-55.058472
  0
LINE
  8
0
 10
-75.873566
 20
-64.558472
 11
-73.273560
 21
-64.558472
  0
LINE
  8
0
 10
-75.873566
 20
-55.058472
 11
-75.873566
 21
-94.058472
  0
LINE
  8
0
 10
-68.273560
 20
-57.308479
 11
-68.273560
 21
-64.808487
  0
LINE
  8
0
 10
-73.273560
 20
-56.808479
 11
-68.773560
 21
-56.808479
  0
LINE
  8
0
 10
-73.273560
 20
-65.308479
 11
-68.773560
 21
-65.308479
  0
LINE
  8
0
 10
-68.773560
 20
-56.808479
 11
-68.773560
 21
-65.308479
  0
LINE
  8
0
 10
-68.773552
 20
-65.308464
 11
-68.273560
 21
-64.808472
  0
LINE
  8
0
 10
-68.773544
 20
-56.808483
 11
-68.273552
 21
-57.308472
  0
LINE
  8
0
 10
-73.273560
 20
-55.058472
 11
-73.273560
 21
-94.058472
  0
LINE
  8
0
 10
-53.873566
 20
-58.058472
 11
-53.873566
 21
-91.058472
  0
LINE
  8
0
 10
-75.873566
 20
-84.558472
 11
-73.273560
 21
-84.558472
  0
LINE
  8
0
 10
-68.273560
 20
-84.308479
 11
-68.273560
 21
-91.808487
  0
LINE
  8
0
 10
-73.273560
 20
-83.808479
 11
-68.773560
 21
-83.808479
  0
LINE
  8
0
 10
-73.273560
 20
-92.308479
 11
-68.773560
 21
-92.308479
  0
LINE
  8
0
 10
-68.773560
 20
-83.808479
 11
-68.773560
 21
-92.308479
  0
LINE
  8
0
 10
-68.773567
 20
-92.308479
 11
-68.273560
 21
-91.808472
  0
LINE
  8
0
 10
-68.773529
 20
-83.808456
 11
-68.273537
 21
-84.308441
  0
LINE
  8
0
 10
-75.873566
 20
-94.058472
 11
-56.873566
 21
-94.058472
  0
LINE
  8
0
  6
CENTER
 10
-78.873566
 20
-61.058479
 11
-54.873566
 21
-61.058479
  0
LINE
  8
0
  6
CENTER
 10
-78.873566
 20
-88.058479
 11
-54.873566
 21
-88.058479
  0
LINE
  8
0
  6
CENTER
 10
-59.873566
 20
-93.058472
 11
-59.873566
 21
-83.058472
  0
LINE
  8
0
  6
CENTER
 10
-59.873566
 20
-56.058472
 11
-59.873566
 21
-66.058472
  0
LINE
  8
0
 10
54.626427
 20
-216.558380
 11
93.626427
 21
-216.558380
  0
LINE
  8
0
 10
57.626427
 20
-200.558380
 11
64.126427
 21
-200.558380
  0
LINE
  8
0
 10
93.626427
 20
-203.558380
 11
93.626427
 21
-216.558380
  0
LINE
  8
0
 10
54.626427
 20
-203.558380
 11
54.626427
 21
-216.558380
  0
LINE
  8
0
 10
54.626427
 20
-213.958389
 11
93.626427
 21
-213.958389
  0
LINE
  8
0
 10
58.626457
 20
-209.213074
 11
60.626472
 21
-210.367783
  0
LINE
  8
0
 10
60.626431
 20
-210.367813
 11
62.626419
 21
-209.213120
  0
LINE
  8
0
 10
62.626411
 20
-209.213089
 11
62.626411
 21
-206.903671
  0
LINE
  8
0
 10
62.626415
 20
-206.903717
 11
60.626411
 21
-205.749008
  0
LINE
  8
0
 10
60.626434
 20
-205.749084
 11
58.626446
 21
-206.903778
  0
LINE
  8
0
 10
58.626457
 20
-206.903687
 11
58.626457
 21
-209.213089
  0
LINE
  8
0
 10
89.626396
 20
-206.903687
 11
89.626396
 21
-209.213089
  0
LINE
  8
0
 10
85.626442
 20
-209.213089
 11
85.626442
 21
-206.903671
  0
LINE
  8
0
 10
87.626404
 20
-205.748947
 11
89.626404
 21
-206.903641
  0
LINE
  8
0
 10
84.126427
 20
-200.558380
 11
90.626427
 21
-200.558380
  0
LINE
  8
0
 10
89.626442
 20
-209.213074
 11
87.626427
 21
-210.367783
  0
LINE
  8
0
 10
87.626450
 20
-210.367706
 11
85.626450
 21
-209.212997
  0
LINE
  8
0
 10
85.626396
 20
-206.903610
 11
87.626396
 21
-205.748901
  0
LINE
  8
0
  6
CENTER
 10
60.626427
 20
-201.558380
 11
60.626427
 21
-219.558365
  0
LINE
  8
0
  6
CENTER
 10
54.126427
 20
-208.058380
 11
67.126427
 21
-208.058380
  0
LINE
  8
0
  6
DASHED
 10
57.726433
 20
-213.958389
 11
57.726433
 21
-216.558380
  0
LINE
  8
0
  6
DASHED
 10
63.526421
 20
-213.958389
 11
63.526421
 21
-216.558380
  0
LINE
  8
0
  6
DASHED
 10
84.726433
 20
-213.958389
 11
84.726433
 21
-216.558380
  0
LINE
  8
0
  6
CENTER
 10
87.626427
 20
-201.558380
 11
87.626427
 21
-219.558365
  0
LINE
  8
0
  6
DASHED
 10
90.526421
 20
-213.958389
 11
90.526421
 21
-216.558380
  0
LINE
  8
0
  6
CENTER
 10
94.126427
 20
-208.058380
 11
81.126427
 21
-208.058380
  0
ARC
  8
0
 62
     5
 10
273.035400
 20
-235.045654
 40
2.211884
 50
0.000000
 51
90.000000
  0
ARC
  8
0
 62
     5
 10
291.283569
 20
-246.934647
 40
2.211899
 50
270.000000
 51
0.000000
  0
ARC
  8
0
 62
     5
 10
290.177551
 20
-236.151566
 40
3.317841
 50
0.000000
 51
90.000000
  0
ARC
  8
0
 62
     5
 10
310.361115
 20
-236.812775
 40
2.211890
 50
294.999969
 51
0.000000
  0
ARC
  8
0
 62
     5
 10
310.361115
 20
-235.045654
 40
2.211884
 50
0.000000
 51
90.000000
  0
ARC
  8
0
 62
     5
 10
327.503357
 20
-232.833755
 40
3.317840
 50
291.688385
 51
0.000000
  0
ARC
  8
0
 62
     5
 10
326.397308
 20
-232.083389
 40
1.105946
 50
291.688965
 51
0.000000
  0
ARC
  8
0
  6
PHANTOM
 10
-124.873566
 20
58.999977
 40
4.500000
 50
90.000000
 51
179.999954
  0
ARC
  8
0
  6
PHANTOM
 10
-106.873566
 20
58.999977
 40
4.500000
 50
0.000000
 51
90.000000
  0
ARC
  8
0
  6
PHANTOM
 10
-124.873566
 20
40.999977
 40
4.500000
 50
180.000000
 51
207.266052
  0
ARC
  8
0
  6
PHANTOM
 10
-106.873566
 20
40.999977
 40
4.500000
 50
332.733948
 51
0.000000
  0
ARC
  8
0
  6
PHANTOM
 10
-267.125824
 20
150.999969
 40
15.000013
 50
156.421844
 51
203.578110
  0
ARC
  8
0
  6
PHANTOM
 10
-293.863953
 20
137.499969
 40
14.999994
 50
342.542389
 51
29.999989
  0
ARC
  8
0
  6
PHANTOM
 10
-267.125824
 20
55.999977
 40
15.000011
 50
156.421860
 51
203.578125
  0
ARC
  8
0
  6
PHANTOM
 10
-293.863953
 20
42.499977
 40
15.000005
 50
330.000000
 51
29.999989
  0
ARC
  8
0
  6
PHANTOM
 10
248.000000
 20
37.999977
 40
5.000000
 50
180.000000
 51
205.841949
  0
ARC
  8
0
  6
PHANTOM
 10
272.000000
 20
37.999977
 40
5.000000
 50
334.158051
 51
0.000000
  0
ARC
  8
0
  6
PHANTOM
 10
248.000000
 20
61.999977
 40
5.000000
 50
90.000000
 51
179.999954
  0
ARC
  8
0
  6
PHANTOM
 10
272.000000
 20
61.999977
 40
5.000000
 50
0.000000
 51
90.000000
  0
ARC
  8
0
  6
PHANTOM
 10
103.437393
 20
167.749969
 40
20.000000
 50
157.200974
 51
202.798981
  0
ARC
  8
0
  6
PHANTOM
 10
66.562607
 20
152.249969
 40
20.000000
 50
337.200958
 51
22.799032
  0
ARC
  8
0
  6
PHANTOM
 10
103.437393
 20
57.749977
 40
19.999996
 50
157.200989
 51
202.798996
  0
ARC
  8
0
  6
PHANTOM
 10
67.400284
 20
40.499977
 40
20.000000
 50
331.640656
 51
28.359350
  0
ARC
  8
0
  6
PHANTOM
 10
60.626434
 20
-181.058487
 40
6.500000
 50
89.999969
 51
180.000000
  0
ARC
  8
0
  6
PHANTOM
 10
60.626434
 20
-208.058487
 40
6.500000
 50
180.000000
 51
202.619858
  0
ARC
  8
0
  6
PHANTOM
 10
87.626434
 20
-208.058487
 40
6.500000
 50
337.380127
 51
0.000000
  0
ARC
  8
0
  6
PHANTOM
 10
87.626434
 20
-181.058487
 40
6.500000
 50
0.000000
 51
90.000000
  0
ARC
  8
0
  6
PHANTOM
 10
-117.549744
 20
-185.558487
 40
25.000000
 50
158.899811
 51
201.100159
  0
ARC
  8
0
  6
PHANTOM
 10
-163.323517
 20
-205.558487
 40
25.000006
 50
333.896118
 51
26.103874
  0
ARC
  8
0
  6
PHANTOM
 10
-117.549744
 20
-65.558479
 40
24.999998
 50
158.899811
 51
201.100159
  0
ARC
  8
0
  6
PHANTOM
 10
-164.197388
 20
-83.558479
 40
25.000000
 50
338.899811
 51
21.100197
  0
ARC
  8
0
 10
-233.273529
 20
37.599979
 40
2.600006
 50
180.000000
 51
270.000000
  0
ARC
  8
0
 10
-233.273529
 20
37.599979
 40
1.000000
 50
180.000000
 51
270.000000
  0
ARC
  8
0
 10
-223.873535
 20
156.000000
 40
2.000000
 50
0.000000
 51
90.000000
  0
ARC
  8
0
 10
-223.873535
 20
134.000000
 40
2.000000
 50
270.000000
 51
0.000000
  0
CIRCLE
  8
0
 10
-225.873535
 20
136.000000
 40
1.800000
  0
CIRCLE
  8
0
 10
-225.873535
 20
154.000000
 40
1.800000
  0
CIRCLE
  8
0
 10
-124.873604
 20
40.999958
 40
2.450005
  0
CIRCLE
  8
0
 10
-124.873604
 20
40.999958
 40
2.750000
  0
ARC
  8
0
 10
-108.873604
 20
42.999958
 40
2.000000
 50
90.000000
 51
180.000000
  0
ARC
  8
0
 10
-122.873604
 20
42.999958
 40
2.000000
 50
0.000000
 51
90.000000
  0
ARC
  8
0
 10
-115.873604
 20
42.999958
 40
5.000000
 50
180.000000
 51
0.000000
  0
ARC
  8
0
 10
-104.873604
 20
42.999958
 40
2.000000
 50
0.000000
 51
90.000000
  0
CIRCLE
  8
0
 10
-106.873604
 20
40.999958
 40
2.450005
  0
CIRCLE
  8
0
 10
-106.873604
 20
40.999958
 40
2.750000
  0
ARC
  8
0
 10
148.000031
 20
33.999992
 40
3.000000
 50
180.000000
 51
270.000000
  0
ARC
  8
0
 10
148.000031
 20
33.999992
 40
1.000000
 50
180.000000
 51
270.000000
  0
CIRCLE
  8
0
 10
158.000092
 20
172.000076
 40
2.300000
  0
CIRCLE
  8
0
 10
158.000092
 20
148.000076
 40
2.300000
  0
ARC
  8
0
 10
160.500092
 20
146.000076
 40
2.500000
 50
270.000000
 51
0.000000
  0
ARC
  8
0
 10
160.500092
 20
174.000076
 40
2.500000
 50
0.000000
 51
90.000000
  0
ARC
  8
0
 10
260.000031
 20
45.999981
 40
7.000001
 50
196.601517
 51
343.398407
  0
CIRCLE
  8
0
 10
272.000031
 20
37.999981
 40
3.500000
  0
CIRCLE
  8
0
 10
248.000031
 20
37.999981
 40
3.500000
  0
ARC
  8
0
 10
275.500031
 20
42.999981
 40
1.000000
 50
0.000000
 51
90.000000
  0
ARC
  8
0
 10
244.500031
 20
42.999981
 40
1.000000
 50
90.000000
 51
180.000000
  0
ARC
  8
0
 10
-72.273491
 20
-212.958420
 40
3.599998
 50
180.000000
 51
270.000000
  0
ARC
  8
0
 10
-72.273491
 20
-212.958420
 40
1.000000
 50
180.000000
 51
270.000000
  0
CIRCLE
  8
0
 10
-59.873566
 20
-88.058472
 40
2.900000
  0
CIRCLE
  8
0
 10
-59.873566
 20
-61.058472
 40
2.900000
  0
ARC
  8
0
 10
-56.873566
 20
-91.058472
 40
3.000000
 50
270.000000
 51
0.000000
  0
ARC
  8
0
 10
-56.873566
 20
-58.058472
 40
3.000000
 50
0.000000
 51
90.000000
  0
ARC
  8
0
 10
74.126427
 20
-200.558380
 40
10.000000
 50
180.000000
 51
0.000000
  0
CIRCLE
  8
0
 10
87.626427
 20
-208.058380
 40
4.250000
  0
CIRCLE
  8
0
 10
60.626427
 20
-208.058380
 40
4.250000
  0
ARC
  8
0
 10
90.626427
 20
-203.558380
 40
3.000000
 50
0.000000
 51
90.000000
  0
ARC
  8
0
 10
57.626427
 20
-203.558380
 40
3.000000
 50
90.000000
 51
180.000000
  0
TEXT
  8
0
 10
226.462494
 20
233.607468
 40
8.500000
  1
DATE : OCT ,1991
 50
0.000000
 41
1.052631
 51
0.000000
  7
STANDARD
  0
TEXT
  8
0
 10
13.821430
 20
222.956390
 40
10.000000
  1
BORE : 20
 50
0.000000
 41
1.052632
 51
0.000000
  7
STANDARD
  0
TEXT
  8
0
 10
-357.052124
 20
197.956390
 40
10.000000
  1
BORE : 16
 50
0.000000
 41
1.052632
 51
0.000000
  7
STANDARD
  0
TEXT
  8
0
 10
-357.052124
 20
-36.602112
 40
10.000000
  1
BORE : 25
 50
0.000000
 41
1.052632
 51
0.000000
  7
STANDARD
  0
TEXT
  8
0
 10
-365.779907
 20
232.257462
 40
10.000000
  1
ORCA L SUPPORT
 50
0.000000
 41
1.052632
 51
0.000000
  7
STANDARD
  0
ENDSEC
  0
EOF
