  0
SECTION
  2
HEADER
  0
ENDSEC
  0
SECTION
  2
TABLES
  0
TABLE
  2
LTYPE
 70
     4
  0
LTYPE
  2
CONTINUOUS
 70
    64
  3
Solid line
 72
    65
 73
     0
 40
0.000000
  0
LTYPE
  2
DASHED
 70
    64
  3
__ __ __ __ __ __ __ __ __ __ __ __ __ __ __
 72
    65
 73
     2
 40
3.500000
 49
2.000000
 49
-1.500000
  0
LTYPE
  2
CENTER
 70
    64
  3
____ _ ____ _ ____ _ ____ _ ____ _ ____ _ ____
 72
    65
 73
     4
 40
17.500000
 49
13.000000
 49
-1.500000
 49
1.500000
 49
-1.500000
  0
LTYPE
  2
PHANTOM
 70
    64
  3
_____ _ _ _____ _ _ _____ _ _ _____ _ _ ____  
 72
    65
 73
     6
 40
15.500000
 49
8.000000
 49
-1.500000
 49
1.500000
 49
-1.500000
 49
1.500000
 49
-1.500000
  0
LTYPE
  2
DASHED1
 70
    64
  3
__ __ __ __ __ __ __ __ __ __ __ __ __ __ __
 72
    65
 73
     2
 40
1.500000
 49
1.000000
 49
-0.500000
  0
LTYPE
  2
DASHED2
 70
    64
  3
__ __ __ __ __ __ __ __ __ __ __ __ __ __ __
 72
    65
 73
     2
 40
3.500000
 49
2.500000
 49
-1.000000
  0
LTYPE
  2
DASHED3
 70
    64
  3
__ __ __ __ __ __ __ __ __ __ __ __ __ __ __
 72
    65
 73
     2
 40
6.000000
 49
4.000000
 49
-2.000000
  0
LTYPE
  2
DASHED4
 70
    64
  3
__ __ __ __ __ __ __ __ __ __ __ __ __ __ __
 72
    65
 73
     2
 40
12.000000
 49
10.000000
 49
-2.000000
  0
LTYPE
  2
DASHED5
 70
    64
  3
__ __ __ __ __ __ __ __ __ __ __ __ __ __ __
 72
    65
 73
     2
 40
17.000000
 49
15.000000
 49
-2.000000
  0
LTYPE
  2
DASHED6
 70
    64
  3
__ __ __ __ __ __ __ __ __ __ __ __ __ __ __
 72
    65
 73
     2
 40
29.000000
 49
27.000000
 49
-2.000000
  0
LTYPE
  2
PHANTOM1
 70
    64
  3
_____ _ _ _____ _ _ _____ _ _ _____ _ _ ____  
 72
    65
 73
     6
 40
31.000000
 49
25.000000
 49
-1.500000
 49
1.000000
 49
-1.000000
 49
1.000000
 49
-1.500000
  0
LTYPE
  2
PHANTOM2
 70
    64
  3
_____ _ _ _____ _ _ _____ _ _ _____ _ _ ____  
 72
    65
 73
     6
 40
36.000000
 49
27.000000
 49
-1.500000
 49
2.500000
 49
-1.000000
 49
2.500000
 49
-1.500000
  0
LTYPE
  2
PHANTOM3
 70
    64
  3
_____ _ _ _____ _ _ _____ _ _ _____ _ _ ____  
 72
    65
 73
     6
 40
78.000000
 49
64.000000
 49
-2.000000
 49
4.000000
 49
-2.000000
 49
4.000000
 49
-2.000000
  0
LTYPE
  2
CENTER1
 70
    64
  3
____ _ ____ _ ____ _ ____ _ ____ _ ____ _ ____
 72
    65
 73
     4
 40
19.000000
 49
14.000000
 49
-1.000000
 49
3.000000
 49
-1.000000
  0
LTYPE
  2
CENTER2
 70
    64
  3
____ _ ____ _ ____ _ ____ _ ____ _ ____ _ ____
 72
    65
 73
     4
 40
28.500000
 49
25.000000
 49
-1.000000
 49
1.500000
 49
-1.000000
  0
LTYPE
  2
CENTER3
 70
    64
  3
____ _ ____ _ ____ _ ____ _ ____ _ ____ _ ____
 72
    65
 73
     4
 40
31.500000
 49
27.000000
 49
-1.000000
 49
2.500000
 49
-1.000000
  0
LTYPE
  2
CENTER4
 70
    64
  3
____ _ ____ _ ____ _ ____ _ ____ _ ____ _ ____
 72
    65
 73
     4
 40
50.000000
 49
45.000000
 49
-1.000000
 49
3.000000
 49
-1.000000
  0
LTYPE
  2
CENTER5
 70
    64
  3
____ _ ____ _ ____ _ ____ _ ____ _ ____ _ ____
 72
    65
 73
     4
 40
100.000000
 49
92.000000
 49
-2.000000
 49
4.000000
 49
-2.000000
  0
LTYPE
  2
SBK1
 70
    64
  3
______ _ _ _ ______ _ _ _ ______ _ _ _ _____  
 72
    65
 73
     8
 40
60.500000
 49
45.000000
 49
-2.000000
 49
2.500000
 49
-2.000000
 49
2.500000
 49
-2.000000
 49
2.500000
 49
-2.000000
  0
LTYPE
  2
SBK2
 70
    64
  3
______ _ _ _ ______ _ _ _ ______ _ _ _ _____  
 72
    65
 73
     8
 40
84.000000
 49
64.000000
 49
-2.000000
 49
4.000000
 49
-2.000000
 49
4.000000
 49
-2.000000
 49
4.000000
 49
-2.000000
  0
LTYPE
  2
STCH
 70
    64
  3
__ __ __ __ __ __ __ __ __ __ __ __ __ __ __
 72
    65
 73
     2
 40
3.000000
 49
1.000000
 49
-2.000000
  0
LTYPE
  2
MTCH
 70
    64
  3
_____ _ _ _____ _ _ _____ _ _ _____ _ _ ____  
 72
    65
 73
     6
 40
80.000000
 49
66.000000
 49
-2.000000
 49
4.000000
 49
-2.000000
 49
4.000000
 49
-2.000000
  0
ENDTAB
  0
TABLE
  2
LAYER
 70
     1
  0
LAYER
  2
0
 70
     0
 62
     7
  6
CONTINUOUS
  0
ENDTAB
  0
TABLE
  2
STYLE
 70
     1
  0
STYLE
  2
STANDARD
 70
     0
 40
0.000000
 41
1.000000
 50
0.000000
 71
     0
 42
0.200000
  3
txt
  4
BIGFONT
  0
ENDTAB
  0
TABLE
  2
VIEW
 70
     0
  0
ENDTAB
  0
ENDSEC
  0
SECTION
  2
BLOCKS
  0
ENDSEC
  0
SECTION
  2
ENTITIES
  0
POINT
  8
0
 10
-491.750000
 20
284.999939
  0
POINT
  8
0
 10
-441.750000
 20
284.999939
  0
POINT
  8
0
 10
-491.750000
 20
99.999939
  0
POINT
  8
0
 10
-441.750000
 20
99.999939
  0
POINT
  8
0
 10
-185.749939
 20
99.999893
  0
POINT
  8
0
 10
-201.749939
 20
-159.114990
  0
POINT
  8
0
 10
-131.749969
 20
-159.114990
  0
POINT
  8
0
 10
-201.749939
 20
-374.114990
  0
POINT
  8
0
 10
-131.749954
 20
-374.114990
  0
POINT
  8
0
 10
205.249969
 20
-374.114960
  0
POINT
  8
0
 10
540.000000
 20
99.999908
  0
POINT
  8
0
 10
230.000000
 20
99.999939
  0
POINT
  8
0
 10
280.000000
 20
99.999939
  0
POINT
  8
0
 10
230.000000
 20
299.999939
  0
POINT
  8
0
 10
279.999969
 20
299.999939
  0
POINT
  8
0
 10
-211.749939
 20
99.999893
  0
POINT
  8
0
 10
510.000000
 20
99.999908
  0
POINT
  8
0
 10
168.249969
 20
-374.114960
  0
LINE
  8
0
 62
     3
 10
-741.750000
 20
-509.114990
 11
741.750000
 21
-509.114990
  0
LINE
  8
0
 62
     3
 10
-741.750000
 20
509.114990
 11
741.750000
 21
509.114990
  0
LINE
  8
0
 62
     3
 10
741.750000
 20
509.114990
 11
741.750000
 21
-509.114990
  0
LINE
  8
0
 62
     3
 10
-741.750000
 20
509.114990
 11
-741.750000
 21
-509.114990
  0
LINE
  8
0
 62
     5
 10
516.764709
 20
-465.668823
 11
546.072388
 21
-465.668823
  0
LINE
  8
0
 62
     5
 10
516.764709
 20
-491.658691
 11
541.648621
 21
-491.658691
  0
LINE
  8
0
 62
     5
 10
516.764709
 20
-498.294342
 11
550.496216
 21
-498.294342
  0
LINE
  8
0
 62
     5
 10
516.764709
 20
-472.304474
 11
541.648621
 21
-472.304474
  0
LINE
  8
0
 62
     5
 10
516.764709
 20
-465.668823
 11
516.764709
 21
-472.304474
  0
LINE
  8
0
 62
     5
 10
550.496216
 20
-470.092651
 11
550.496216
 21
-498.294342
  0
LINE
  8
0
 62
     5
 10
541.648621
 20
-472.304474
 11
541.648621
 21
-491.658691
  0
LINE
  8
0
 62
     5
 10
555.472900
 20
-465.668823
 11
555.472900
 21
-472.304474
  0
LINE
  8
0
 62
     5
 10
586.992432
 20
-472.304474
 11
586.992432
 21
-493.870697
  0
LINE
  8
0
 62
     5
 10
578.144897
 20
-472.304474
 11
578.144897
 21
-491.658691
  0
LINE
  8
0
 62
     5
 10
516.764709
 20
-491.658691
 11
516.764709
 21
-498.294342
  0
LINE
  8
0
 62
     5
 10
555.472900
 20
-465.668823
 11
564.214966
 21
-465.668823
  0
LINE
  8
0
 62
     5
 10
555.472900
 20
-498.294342
 11
562.342773
 21
-498.294342
  0
LINE
  8
0
 62
     5
 10
555.472717
 20
-498.294098
 11
562.436890
 21
-472.304413
  0
LINE
  8
0
 62
     5
 10
555.472900
 20
-472.304474
 11
562.436951
 21
-472.304474
  0
LINE
  8
0
 62
     5
 10
562.343140
 20
-498.294647
 11
569.307007
 21
-472.304871
  0
LINE
  8
0
 62
     5
 10
571.509094
 20
-491.658691
 11
578.144897
 21
-491.658691
  0
LINE
  8
0
 62
     5
 10
571.508972
 20
-491.658600
 11
573.286804
 21
-498.294128
  0
LINE
  8
0
 62
     5
 10
573.287354
 20
-498.294342
 11
582.568787
 21
-498.294342
  0
LINE
  8
0
 62
     5
 10
569.306763
 20
-472.304474
 11
578.144897
 21
-472.304474
  0
LINE
  8
0
 62
     5
 10
571.084717
 20
-465.668823
 11
580.356750
 21
-465.668823
  0
LINE
  8
0
 62
     5
 10
564.215088
 20
-465.668854
 11
565.533630
 21
-460.747498
  0
LINE
  8
0
 62
     5
 10
571.084290
 20
-465.668488
 11
572.402893
 21
-460.746979
  0
LINE
  8
0
 62
     5
 10
592.522278
 20
-465.668823
 11
603.028809
 21
-465.668823
  0
LINE
  8
0
 62
     5
 10
592.522278
 20
-472.304474
 11
618.325867
 21
-472.304474
  0
LINE
  8
0
 62
     5
 10
603.028809
 20
-498.294342
 11
611.876221
 21
-498.294342
  0
LINE
  8
0
 62
     5
 10
592.522278
 20
-465.668823
 11
592.522278
 21
-472.304474
  0
LINE
  8
0
 62
     5
 10
625.147827
 20
-484.336975
 11
625.147827
 21
-491.658691
  0
LINE
  8
0
 62
     5
 10
592.521790
 20
-491.658447
 11
603.028564
 21
-486.759003
  0
LINE
  8
0
 62
     5
 10
592.522827
 20
-484.337433
 11
618.326355
 21
-472.304932
  0
LINE
  8
0
 62
     5
 10
592.522278
 20
-484.336975
 11
592.522278
 21
-491.658691
  0
LINE
  8
0
 62
     5
 10
611.876038
 20
-485.469879
 11
625.147766
 21
-491.658478
  0
LINE
  8
0
 62
     5
 10
616.686646
 20
-480.391724
 11
625.148682
 21
-484.337585
  0
LINE
  8
0
 62
     5
 10
625.147827
 20
-470.092651
 11
625.147827
 21
-473.626892
  0
LINE
  8
0
 62
     5
 10
603.028809
 20
-460.747406
 11
603.028809
 21
-465.668823
  0
LINE
  8
0
 62
     5
 10
611.876221
 20
-460.747406
 11
611.876221
 21
-465.668823
  0
LINE
  8
0
 62
     5
 10
611.876221
 20
-465.668823
 11
620.723999
 21
-465.668823
  0
LINE
  8
0
 62
     5
 10
603.028809
 20
-486.759460
 11
603.028809
 21
-498.294342
  0
LINE
  8
0
 62
     5
 10
611.876221
 20
-485.470184
 11
611.876221
 21
-498.294342
  0
LINE
  8
0
 62
     5
 10
616.686707
 20
-480.391937
 11
622.594543
 21
-477.637115
  0
LINE
  8
0
 62
     5
 10
655.008484
 20
-462.738159
 11
661.644043
 21
-462.738159
  0
LINE
  8
0
 62
     5
 10
627.912720
 20
-476.445160
 11
627.912720
 21
-483.586365
  0
LINE
  8
0
 62
     5
 10
661.644043
 20
-462.738159
 11
661.644043
 21
-465.668823
  0
LINE
  8
0
 62
     5
 10
655.008484
 20
-462.738159
 11
655.008484
 21
-464.168060
  0
LINE
  8
0
 62
     5
 10
646.160828
 20
-476.328888
 11
646.160828
 21
-498.294342
  0
LINE
  8
0
 62
     5
 10
627.912903
 20
-476.445496
 11
653.614319
 21
-466.223785
  0
LINE
  8
0
 62
     5
 10
627.912598
 20
-483.586365
 11
646.160706
 21
-476.328796
  0
LINE
  8
0
 62
     5
 10
646.160828
 20
-498.294342
 11
655.008484
 21
-498.294342
  0
LINE
  8
0
 62
     5
 10
655.008484
 20
-472.810120
 11
655.008484
 21
-498.294342
  0
LINE
  8
0
 62
     5
 10
655.009155
 20
-472.810547
 11
657.461609
 21
-471.835114
  0
LINE
  8
0
 62
     5
 10
565.533691
 20
-460.747406
 11
572.403381
 21
-460.747406
  0
LINE
  8
0
 62
     5
 10
583.398193
 20
-460.747406
 11
586.218201
 21
-460.747406
  0
LINE
  8
0
 62
     5
 10
603.028809
 20
-460.747406
 11
611.876221
 21
-460.747406
  0
LINE
  8
0
 62
     5
 10
583.398193
 20
-465.171234
 11
586.218201
 21
-465.171234
  0
LINE
  8
0
 62
     5
 10
583.398193
 20
-460.747406
 11
583.398193
 21
-465.171234
  0
LINE
  8
0
 62
     5
 10
586.218201
 20
-460.747406
 11
586.218201
 21
-465.171234
  0
LINE
  8
0
 62
     5
 10
587.877319
 20
-460.747406
 11
587.877319
 21
-465.171234
  0
LINE
  8
0
 62
     5
 10
591.029297
 20
-460.747406
 11
591.029297
 21
-465.171234
  0
LINE
  8
0
 62
     5
 10
587.877319
 20
-460.747406
 11
591.029297
 21
-460.747406
  0
LINE
  8
0
 62
     5
 10
587.877319
 20
-465.171234
 11
591.029297
 21
-465.171234
  0
LINE
  8
0
 62
     3
 10
436.659546
 20
-451.914154
 11
436.659546
 21
-509.118408
  0
LINE
  8
0
 62
     3
 10
436.659546
 20
-451.914154
 11
741.749207
 21
-451.914154
  0
LINE
  8
0
 62
     3
 10
436.659546
 20
509.118408
 11
436.659546
 21
451.914032
  0
LINE
  8
0
 62
     3
 10
436.659546
 20
451.914032
 11
741.749207
 21
451.914032
  0
LINE
  8
0
 62
     3
 10
-317.483978
 20
451.914032
 11
-317.483978
 21
509.118408
  0
LINE
  8
0
 62
     3
 10
-741.749207
 20
451.914032
 11
-317.483978
 21
451.914032
  0
LINE
  8
0
 10
-741.749207
 20
-0.000061
 11
741.750000
 21
-0.000061
  0
LINE
  8
0
 10
0.000000
 20
509.114990
 11
0.000000
 21
-0.000061
  0
LINE
  8
0
  6
PHANTOM
 10
-541.750000
 20
69.999962
 11
-516.750000
 21
69.999962
  0
LINE
  8
0
  6
PHANTOM
 10
-541.313538
 20
123.999962
 11
-441.313507
 21
123.999962
  0
LINE
  8
0
  6
CENTER
 10
-491.750000
 20
127.999962
 11
-491.750000
 21
58.999962
  0
LINE
  8
0
  6
CENTER
 10
-546.750000
 20
99.999939
 11
-436.750000
 21
99.999939
  0
LINE
  8
0
  6
PHANTOM
 10
-539.112610
 20
75.999939
 11
-439.112610
 21
75.999939
  0
LINE
  8
0
  6
PHANTOM
 10
-466.750000
 20
69.999962
 11
-441.750000
 21
69.999962
  0
LINE
  8
0
  6
CENTER
 10
-546.750000
 20
284.999939
 11
-436.750000
 21
284.999939
  0
LINE
  8
0
  6
PHANTOM
 10
-541.750000
 20
260.999939
 11
-441.750000
 21
260.999939
  0
LINE
  8
0
  6
PHANTOM
 10
-541.750000
 20
308.999939
 11
-441.750000
 21
308.999939
  0
LINE
  8
0
  6
CENTER
 10
-491.750000
 20
325.999939
 11
-491.750000
 21
243.999939
  0
LINE
  8
0
  6
PHANTOM
 10
-444.049683
 20
293.499939
 11
-544.049683
 21
293.499939
  0
LINE
  8
0
  6
PHANTOM
 10
-439.450317
 20
276.499939
 11
-539.450317
 21
276.499939
  0
LINE
  8
0
  6
CENTER
 10
-242.749939
 20
99.999893
 11
-180.749939
 21
99.999893
  0
LINE
  8
0
  6
CENTER
 10
-211.749939
 20
130.999893
 11
-211.749939
 21
58.999962
  0
LINE
  8
0
  6
PHANTOM
 10
-198.749939
 20
75.999893
 11
-198.749939
 21
69.999924
  0
LINE
  8
0
  6
PHANTOM
 10
-224.749939
 20
75.999893
 11
-224.749939
 21
69.999863
  0
LINE
  8
0
  6
PHANTOM
 10
-206.499939
 20
76.299896
 11
-206.499939
 21
74.999893
  0
LINE
  8
0
  6
PHANTOM
 10
-216.999939
 20
76.299896
 11
-216.999939
 21
74.999893
  0
LINE
  8
0
  6
PHANTOM
 10
-208.499939
 20
71.999901
 11
-208.499939
 21
69.999901
  0
LINE
  8
0
  6
PHANTOM
 10
-214.999939
 20
71.999886
 11
-214.999939
 21
69.999886
  0
LINE
  8
0
  6
PHANTOM
 10
-216.999878
 20
76.299896
 11
-206.499878
 21
76.299896
  0
LINE
  8
0
  6
PHANTOM
 10
-235.749939
 20
119.999893
 11
-235.749939
 21
79.999893
  0
LINE
  8
0
  6
PHANTOM
 10
-187.749939
 20
119.999893
 11
-187.749939
 21
79.999893
  0
LINE
  8
0
  6
PHANTOM
 10
180.000000
 20
64.999908
 11
205.000000
 21
64.999908
  0
LINE
  8
0
  6
CENTER
 10
230.000000
 20
132.999908
 11
230.000000
 21
55.999908
  0
LINE
  8
0
  6
CENTER
 10
175.000000
 20
99.999939
 11
285.000000
 21
99.999939
  0
LINE
  8
0
  6
PHANTOM
 10
255.000000
 20
64.999908
 11
280.000000
 21
64.999908
  0
LINE
  8
0
  6
CENTER
 10
175.000000
 20
299.999939
 11
285.000000
 21
299.999939
  0
LINE
  8
0
  6
CENTER
 10
230.000000
 20
345.999939
 11
230.000000
 21
253.999939
  0
LINE
  8
0
  6
PHANTOM
 10
180.000000
 20
270.999939
 11
280.000000
 21
270.999939
  0
LINE
  8
0
  6
PHANTOM
 10
180.000000
 20
328.999939
 11
279.999969
 21
328.999939
  0
LINE
  8
0
  6
PHANTOM
 10
282.340729
 20
290.999939
 11
182.340729
 21
290.999939
  0
LINE
  8
0
  6
PHANTOM
 10
277.659271
 20
308.999939
 11
177.659271
 21
308.999939
  0
LINE
  8
0
  6
PHANTOM
 10
504.750031
 20
71.299866
 11
515.250000
 21
71.299866
  0
LINE
  8
0
  6
PHANTOM
 10
504.750031
 20
71.299866
 11
504.750031
 21
69.999855
  0
LINE
  8
0
  6
PHANTOM
 10
515.250000
 20
71.299866
 11
515.250000
 21
69.999855
  0
LINE
  8
0
  6
PHANTOM
 10
513.250000
 20
66.999863
 11
513.250000
 21
64.999863
  0
LINE
  8
0
  6
PHANTOM
 10
506.750031
 20
66.999863
 11
506.750031
 21
64.999863
  0
LINE
  8
0
  6
PHANTOM
 10
495.000031
 20
70.999908
 11
495.000031
 21
64.999855
  0
LINE
  8
0
  6
PHANTOM
 10
525.000000
 20
70.999908
 11
525.000000
 21
64.999870
  0
LINE
  8
0
  6
CENTER
 10
510.000000
 20
134.999908
 11
510.000000
 21
55.999908
  0
LINE
  8
0
  6
CENTER
 10
475.000031
 20
99.999908
 11
545.000000
 21
99.999908
  0
LINE
  8
0
  6
PHANTOM
 10
539.000000
 20
119.999908
 11
539.000000
 21
78.999908
  0
LINE
  8
0
  6
PHANTOM
 10
481.000000
 20
119.999908
 11
481.000000
 21
78.999908
  0
LINE
  8
0
  6
PHANTOM
 10
-271.749939
 20
-414.114960
 11
-234.249939
 21
-414.114960
  0
LINE
  8
0
  6
PHANTOM
 10
-271.749939
 20
-339.114960
 11
-131.749939
 21
-339.114960
  0
LINE
  8
0
  6
PHANTOM
 10
-269.878723
 20
-409.114960
 11
-129.878723
 21
-409.114960
  0
LINE
  8
0
  6
CENTER
 10
-201.749939
 20
-334.114960
 11
-201.749939
 21
-427.114960
  0
LINE
  8
0
  6
CENTER
 10
-276.749939
 20
-374.114990
 11
-126.749939
 21
-374.114990
  0
LINE
  8
0
  6
PHANTOM
 10
-169.249939
 20
-414.114960
 11
-131.749939
 21
-414.114960
  0
LINE
  8
0
  6
CENTER
 10
-276.749939
 20
-159.114990
 11
-126.749939
 21
-159.114990
  0
LINE
  8
0
  6
PHANTOM
 10
-271.749939
 20
-194.114990
 11
-131.749939
 21
-194.114990
  0
LINE
  8
0
  6
PHANTOM
 10
-271.749939
 20
-124.114990
 11
-131.749939
 21
-124.114990
  0
LINE
  8
0
  6
CENTER
 10
-201.749939
 20
-104.114990
 11
-201.749939
 21
-214.114990
  0
LINE
  8
0
  6
PHANTOM
 10
-129.498230
 20
-167.114990
 11
-269.498230
 21
-167.114990
  0
LINE
  8
0
  6
PHANTOM
 10
-134.001648
 20
-151.114990
 11
-274.001648
 21
-151.114990
  0
LINE
  8
0
  6
CENTER
 10
126.249969
 20
-374.114960
 11
210.249969
 21
-374.114960
  0
LINE
  8
0
  6
CENTER
 10
168.249969
 20
-332.114960
 11
168.249969
 21
-427.114960
  0
LINE
  8
0
  6
PHANTOM
 10
163.999969
 20
-412.114960
 11
163.999969
 21
-414.114960
  0
LINE
  8
0
  6
PHANTOM
 10
172.499969
 20
-412.114960
 11
172.499969
 21
-414.114960
  0
LINE
  8
0
  6
PHANTOM
 10
161.499969
 20
-406.814972
 11
161.499969
 21
-409.114960
  0
LINE
  8
0
  6
PHANTOM
 10
174.999969
 20
-406.814972
 11
174.999969
 21
-409.114960
  0
LINE
  8
0
  6
PHANTOM
 10
188.249969
 20
-409.114960
 11
188.249969
 21
-414.114990
  0
LINE
  8
0
  6
PHANTOM
 10
148.249969
 20
-409.114960
 11
148.249969
 21
-414.114929
  0
LINE
  8
0
  6
PHANTOM
 10
133.249969
 20
-347.114960
 11
133.249969
 21
-401.114960
  0
LINE
  8
0
  6
PHANTOM
 10
203.249969
 20
-347.114960
 11
203.249969
 21
-401.114960
  0
LINE
  8
0
  6
PHANTOM
 10
141.249969
 20
-339.114960
 11
195.249969
 21
-339.114960
  0
LINE
  8
0
  6
PHANTOM
 10
141.249969
 20
-409.114960
 11
148.249969
 21
-409.114960
  0
LINE
  8
0
  6
PHANTOM
 10
188.249969
 20
-409.114960
 11
195.249969
 21
-409.114960
  0
LINE
  8
0
  6
PHANTOM
 10
161.499969
 20
-406.814972
 11
174.999893
 21
-406.814972
  0
LINE
  8
0
  6
PHANTOM
 10
-231.749939
 20
75.999893
 11
-224.749939
 21
75.999893
  0
LINE
  8
0
  6
PHANTOM
 10
-231.749939
 20
123.999893
 11
-191.749939
 21
123.999893
  0
LINE
  8
0
  6
PHANTOM
 10
-198.749939
 20
75.999893
 11
-191.749939
 21
75.999893
  0
LINE
  8
0
  6
PHANTOM
 10
182.342514
 20
70.999939
 11
282.342529
 21
70.999939
  0
LINE
  8
0
  6
PHANTOM
 10
180.000015
 20
127.999939
 11
280.000000
 21
127.999939
  0
LINE
  8
0
  6
PHANTOM
 10
489.000000
 20
70.999908
 11
495.000031
 21
70.999908
  0
LINE
  8
0
  6
PHANTOM
 10
489.000000
 20
127.999908
 11
531.000000
 21
127.999908
  0
LINE
  8
0
  6
PHANTOM
 10
525.000000
 20
70.999908
 11
531.000000
 21
70.999908
  0
LINE
  8
0
 10
-516.750122
 20
69.999954
 11
-516.750122
 21
63.999954
  0
LINE
  8
0
 10
-516.750122
 20
63.999954
 11
-466.750092
 21
63.999954
  0
LINE
  8
0
 10
-516.750122
 20
69.999954
 11
-466.750092
 21
69.999954
  0
LINE
  8
0
 10
-466.750092
 20
69.999954
 11
-466.750092
 21
63.999954
  0
LINE
  8
0
  6
DASHED
 10
-510.050049
 20
69.999954
 11
-510.050049
 21
63.999954
  0
LINE
  8
0
  6
CENTER
 10
-506.750122
 20
74.999954
 11
-506.750122
 21
58.999954
  0
LINE
  8
0
  6
DASHED
 10
-503.450073
 20
69.999954
 11
-503.450073
 21
63.999954
  0
LINE
  8
0
  6
DASHED
 10
-480.050079
 20
69.999954
 11
-480.050079
 21
63.999954
  0
LINE
  8
0
  6
CENTER
 10
-476.750092
 20
74.999954
 11
-476.750092
 21
58.999954
  0
LINE
  8
0
  6
DASHED
 10
-473.450104
 20
69.999954
 11
-473.450104
 21
63.999954
  0
LINE
  8
0
  6
CENTER
 10
-512.250183
 20
314.999969
 11
-501.250183
 21
314.999969
  0
LINE
  8
0
 10
-516.750183
 20
248.999969
 11
-466.750183
 21
248.999969
  0
LINE
  8
0
 10
-516.750183
 20
260.999969
 11
-516.750183
 21
248.999969
  0
LINE
  8
0
 10
-466.750183
 20
260.999969
 11
-466.750183
 21
248.999969
  0
LINE
  8
0
 10
-466.750183
 20
320.999969
 11
-466.750183
 21
308.999969
  0
LINE
  8
0
 10
-516.750183
 20
320.999969
 11
-516.750183
 21
308.999969
  0
LINE
  8
0
  6
CENTER
 10
-512.250183
 20
254.999969
 11
-501.250183
 21
254.999969
  0
LINE
  8
0
  6
CENTER
 10
-506.750183
 20
249.499969
 11
-506.750183
 21
260.499969
  0
LINE
  8
0
  6
CENTER
 10
-471.250183
 20
254.999969
 11
-482.250183
 21
254.999969
  0
LINE
  8
0
  6
CENTER
 10
-476.750183
 20
249.499969
 11
-476.750183
 21
260.499969
  0
LINE
  8
0
  6
CENTER
 10
-476.750183
 20
320.499969
 11
-476.750183
 21
309.499969
  0
LINE
  8
0
  6
CENTER
 10
-471.250183
 20
314.999969
 11
-482.250183
 21
314.999969
  0
LINE
  8
0
 10
-516.750183
 20
320.999969
 11
-466.750183
 21
320.999969
  0
LINE
  8
0
  6
CENTER
 10
-506.750183
 20
320.499969
 11
-506.750183
 21
309.499969
  0
LINE
  8
0
 10
-216.999985
 20
71.999893
 11
-206.499924
 21
71.999893
  0
LINE
  8
0
 10
-247.749985
 20
69.999893
 11
-247.749985
 21
63.999893
  0
LINE
  8
0
 10
-206.499985
 20
74.999893
 11
-206.499985
 21
71.999908
  0
LINE
  8
0
 10
-216.999985
 20
74.999893
 11
-216.999985
 21
71.999878
  0
LINE
  8
0
 10
-175.749985
 20
69.999893
 11
-175.749985
 21
63.999893
  0
LINE
  8
0
 10
-216.999985
 20
74.999893
 11
-206.499985
 21
74.999893
  0
LINE
  8
0
 10
-209.291489
 20
71.999893
 11
-209.291489
 21
69.999893
  0
LINE
  8
0
 10
-208.749985
 20
71.999893
 11
-208.749985
 21
69.999893
  0
LINE
  8
0
 10
-247.749985
 20
69.999893
 11
-175.749985
 21
69.999893
  0
LINE
  8
0
 10
-214.749985
 20
71.999893
 11
-214.749985
 21
69.999893
  0
LINE
  8
0
 10
-207.500000
 20
75.999886
 11
-206.500000
 21
74.999886
  0
LINE
  8
0
 10
-216.999969
 20
74.999886
 11
-215.999969
 21
75.999886
  0
LINE
  8
0
 10
-215.999985
 20
75.999893
 11
-207.499985
 21
75.999893
  0
LINE
  8
0
 10
-247.749985
 20
63.999893
 11
-175.749985
 21
63.999893
  0
LINE
  8
0
  6
DASHED
 10
-245.049973
 20
69.999893
 11
-245.049973
 21
63.999893
  0
LINE
  8
0
  6
CENTER
 10
-241.749985
 20
74.999893
 11
-241.749985
 21
58.999962
  0
LINE
  8
0
  6
DASHED
 10
-238.449997
 20
69.999893
 11
-238.449997
 21
63.999893
  0
LINE
  8
0
  6
DASHED
 10
-185.049988
 20
69.999893
 11
-185.049988
 21
63.999893
  0
LINE
  8
0
  6
CENTER
 10
-181.749985
 20
74.999893
 11
-181.749985
 21
58.999962
  0
LINE
  8
0
  6
DASHED
 10
-178.449982
 20
69.999893
 11
-178.449982
 21
63.999893
  0
LINE
  8
0
 10
-214.208481
 20
71.999893
 11
-214.208481
 21
69.999893
  0
LINE
  8
0
 10
205.000000
 20
66.999908
 11
205.000000
 21
60.999908
  0
LINE
  8
0
 10
205.000000
 20
60.999908
 11
255.000000
 21
60.999908
  0
LINE
  8
0
 10
205.000000
 20
66.999908
 11
255.000000
 21
66.999908
  0
LINE
  8
0
 10
255.000000
 20
66.999908
 11
255.000000
 21
60.999908
  0
LINE
  8
0
  6
DASHED
 10
211.699997
 20
66.999908
 11
211.699997
 21
60.999908
  0
LINE
  8
0
  6
CENTER
 10
215.000000
 20
71.999939
 11
215.000000
 21
55.999908
  0
LINE
  8
0
  6
DASHED
 10
218.300003
 20
66.999908
 11
218.300003
 21
60.999908
  0
LINE
  8
0
  6
DASHED
 10
241.699997
 20
66.999908
 11
241.699997
 21
60.999908
  0
LINE
  8
0
  6
CENTER
 10
245.000000
 20
71.999939
 11
245.000000
 21
55.999908
  0
LINE
  8
0
  6
DASHED
 10
248.300003
 20
66.999908
 11
248.300003
 21
60.999908
  0
LINE
  8
0
  6
CENTER
 10
209.500015
 20
265.000000
 11
220.500015
 21
265.000000
  0
LINE
  8
0
 10
205.000015
 20
341.000000
 11
205.000015
 21
329.000000
  0
LINE
  8
0
 10
255.000015
 20
341.000000
 11
255.000015
 21
329.000000
  0
LINE
  8
0
 10
205.000015
 20
271.000000
 11
205.000015
 21
259.000000
  0
LINE
  8
0
 10
255.000015
 20
271.000000
 11
255.000015
 21
259.000000
  0
LINE
  8
0
 10
205.000015
 20
259.000000
 11
255.000015
 21
259.000000
  0
LINE
  8
0
 10
205.000015
 20
341.000000
 11
255.000015
 21
341.000000
  0
LINE
  8
0
  6
CENTER
 10
215.000015
 20
259.500000
 11
215.000015
 21
270.500000
  0
LINE
  8
0
  6
CENTER
 10
250.500015
 20
265.000000
 11
239.500015
 21
265.000000
  0
LINE
  8
0
  6
CENTER
 10
245.000015
 20
259.500000
 11
245.000015
 21
270.500000
  0
LINE
  8
0
  6
CENTER
 10
250.500015
 20
335.000000
 11
239.500015
 21
335.000000
  0
LINE
  8
0
  6
CENTER
 10
245.000015
 20
340.500000
 11
245.000015
 21
329.500000
  0
LINE
  8
0
  6
CENTER
 10
209.500015
 20
335.000000
 11
220.500015
 21
335.000000
  0
LINE
  8
0
  6
CENTER
 10
215.000015
 20
340.500000
 11
215.000015
 21
329.500000
  0
LINE
  8
0
 10
551.000122
 20
66.999962
 11
551.000122
 21
60.999962
  0
LINE
  8
0
 10
526.000122
 20
66.999962
 11
526.000122
 21
64.999916
  0
LINE
  8
0
 10
526.000122
 20
66.999962
 11
551.000122
 21
66.999962
  0
LINE
  8
0
 10
515.250122
 20
69.999908
 11
515.250122
 21
66.999916
  0
LINE
  8
0
 10
504.750153
 20
69.999908
 11
504.750153
 21
66.999916
  0
LINE
  8
0
 10
507.541626
 20
66.999916
 11
507.541626
 21
64.999916
  0
LINE
  8
0
 10
512.458618
 20
66.999916
 11
512.458618
 21
64.999916
  0
LINE
  8
0
 10
507.000122
 20
66.999916
 11
507.000122
 21
64.999916
  0
LINE
  8
0
 10
513.000122
 20
66.999916
 11
513.000122
 21
64.999916
  0
LINE
  8
0
 10
504.750122
 20
69.999908
 11
515.250122
 21
69.999908
  0
LINE
  8
0
 10
494.000122
 20
64.999916
 11
526.000122
 21
64.999916
  0
LINE
  8
0
 10
514.250061
 20
70.999893
 11
515.250061
 21
69.999893
  0
LINE
  8
0
 10
504.750092
 20
69.999924
 11
505.750092
 21
70.999924
  0
LINE
  8
0
 10
505.750153
 20
70.999916
 11
514.250122
 21
70.999916
  0
LINE
  8
0
 10
469.000122
 20
60.999962
 11
551.000122
 21
60.999962
  0
LINE
  8
0
 10
494.000122
 20
66.999962
 11
494.000122
 21
64.999916
  0
LINE
  8
0
 10
504.750153
 20
66.999916
 11
515.250183
 21
66.999916
  0
LINE
  8
0
 10
469.000122
 20
66.999962
 11
469.000122
 21
60.999962
  0
LINE
  8
0
 10
469.000122
 20
66.999962
 11
494.000122
 21
66.999962
  0
LINE
  8
0
  6
DASHED
 10
471.700134
 20
66.999962
 11
471.700134
 21
60.999962
  0
LINE
  8
0
  6
CENTER
 10
475.000122
 20
71.999962
 11
475.000122
 21
55.999962
  0
LINE
  8
0
  6
DASHED
 10
478.300110
 20
66.999962
 11
478.300110
 21
60.999962
  0
LINE
  8
0
  6
DASHED
 10
541.700134
 20
66.999962
 11
541.700134
 21
60.999962
  0
LINE
  8
0
  6
CENTER
 10
545.000122
 20
71.999962
 11
545.000122
 21
55.999962
  0
LINE
  8
0
  6
DASHED
 10
548.300110
 20
66.999962
 11
548.300110
 21
60.999962
  0
LINE
  8
0
  6
DASHED
 10
-217.249908
 20
-413.114960
 11
-217.249908
 21
-422.114960
  0
LINE
  8
0
  6
DASHED
 10
-226.249908
 20
-413.114960
 11
-226.249908
 21
-422.114960
  0
LINE
  8
0
  6
DASHED
 10
-177.249908
 20
-413.114960
 11
-177.249908
 21
-422.114960
  0
LINE
  8
0
 10
-234.249908
 20
-422.114960
 11
-169.249908
 21
-422.114960
  0
LINE
  8
0
 10
-234.249908
 20
-413.114960
 11
-169.249908
 21
-413.114960
  0
LINE
  8
0
 10
-234.249908
 20
-413.114960
 11
-234.249908
 21
-422.114960
  0
LINE
  8
0
 10
-169.249908
 20
-413.114960
 11
-169.249908
 21
-422.114960
  0
LINE
  8
0
  6
DASHED
 10
-186.249908
 20
-413.114960
 11
-186.249908
 21
-422.114960
  0
LINE
  8
0
  6
CENTER
 10
-181.749908
 20
-408.114960
 11
-181.749908
 21
-427.114960
  0
LINE
  8
0
  6
CENTER
 10
-221.749908
 20
-408.114960
 11
-221.749908
 21
-427.114960
  0
LINE
  8
0
  6
CENTER
 10
-181.749908
 20
-125.114960
 11
-181.749908
 21
-108.114960
  0
LINE
  8
0
  6
CENTER
 10
-221.749908
 20
-125.114960
 11
-221.749908
 21
-108.114960
  0
LINE
  8
0
  6
CENTER
 10
-213.249908
 20
-116.614960
 11
-230.249908
 21
-116.614960
  0
LINE
  8
0
 10
-169.249908
 20
-109.114960
 11
-169.249908
 21
-124.114960
  0
LINE
  8
0
 10
-234.249908
 20
-109.114960
 11
-234.249908
 21
-124.114960
  0
LINE
  8
0
 10
-234.249908
 20
-209.114960
 11
-169.249908
 21
-209.114960
  0
LINE
  8
0
 10
-234.249908
 20
-109.114960
 11
-169.249908
 21
-109.114960
  0
LINE
  8
0
 10
-234.249908
 20
-194.114960
 11
-234.249908
 21
-209.114960
  0
LINE
  8
0
 10
-169.249908
 20
-194.114960
 11
-169.249908
 21
-209.114960
  0
LINE
  8
0
  6
CENTER
 10
-181.749908
 20
-193.114960
 11
-181.749908
 21
-210.114960
  0
LINE
  8
0
  6
CENTER
 10
-190.249908
 20
-201.614960
 11
-173.249908
 21
-201.614960
  0
LINE
  8
0
  6
CENTER
 10
-213.249908
 20
-201.614960
 11
-230.249908
 21
-201.614960
  0
LINE
  8
0
  6
CENTER
 10
-221.749908
 20
-193.114960
 11
-221.749908
 21
-210.114960
  0
LINE
  8
0
  6
CENTER
 10
-190.249908
 20
-116.614960
 11
-173.249908
 21
-116.614960
  0
LINE
  8
0
 10
189.249985
 20
-413.115082
 11
189.249985
 21
-414.115082
  0
LINE
  8
0
 10
147.249985
 20
-413.115082
 11
147.249985
 21
-414.115082
  0
LINE
  8
0
 10
118.249985
 20
-413.115082
 11
147.249985
 21
-413.115082
  0
LINE
  8
0
 10
172.249985
 20
-412.115082
 11
172.249985
 21
-414.115082
  0
LINE
  8
0
 10
164.249985
 20
-412.115082
 11
164.249985
 21
-414.115082
  0
LINE
  8
0
 10
171.573486
 20
-412.115082
 11
171.573486
 21
-414.115082
  0
LINE
  8
0
 10
164.926483
 20
-412.115082
 11
164.926483
 21
-414.115082
  0
LINE
  8
0
 10
174.999985
 20
-409.115082
 11
174.999985
 21
-412.115082
  0
LINE
  8
0
 10
161.499985
 20
-409.115082
 11
161.499985
 21
-412.115082
  0
LINE
  8
0
 10
161.499985
 20
-409.115082
 11
174.999985
 21
-409.115082
  0
LINE
  8
0
 10
173.499817
 20
-407.615326
 11
174.999817
 21
-409.115326
  0
LINE
  8
0
 10
161.500031
 20
-409.115143
 11
163.000061
 21
-407.615143
  0
LINE
  8
0
 10
163.000000
 20
-407.615082
 11
173.499985
 21
-407.615082
  0
LINE
  8
0
 10
189.249985
 20
-413.115082
 11
218.249985
 21
-413.115082
  0
LINE
  8
0
 10
118.249985
 20
-413.115082
 11
118.249985
 21
-422.115082
  0
LINE
  8
0
 10
118.249985
 20
-422.115082
 11
218.249985
 21
-422.115082
  0
LINE
  8
0
 10
218.249985
 20
-413.115082
 11
218.249985
 21
-422.115082
  0
LINE
  8
0
 10
147.249985
 20
-414.115082
 11
189.249985
 21
-414.115082
  0
LINE
  8
0
 10
161.499985
 20
-412.115082
 11
174.999908
 21
-412.115082
  0
LINE
  8
0
  6
DASHED
 10
121.249985
 20
-413.115082
 11
121.249985
 21
-422.115082
  0
LINE
  8
0
  6
CENTER
 10
125.749985
 20
-408.115082
 11
125.749985
 21
-427.115082
  0
LINE
  8
0
  6
DASHED
 10
130.249985
 20
-413.115082
 11
130.249985
 21
-422.115082
  0
LINE
  8
0
  6
DASHED
 10
206.249985
 20
-413.115082
 11
206.249985
 21
-422.115082
  0
LINE
  8
0
  6
CENTER
 10
210.749985
 20
-408.115082
 11
210.749985
 21
-427.115082
  0
LINE
  8
0
  6
DASHED
 10
215.249985
 20
-413.115082
 11
215.249985
 21
-422.115082
  0
ARC
  8
0
 62
     5
 10
655.008484
 20
-465.668823
 40
6.635708
 50
291.688293
 51
0.000000
  0
ARC
  8
0
 62
     5
 10
652.796448
 20
-464.168060
 40
2.211920
 50
291.688660
 51
0.000000
  0
ARC
  8
0
 62
     5
 10
546.072388
 20
-470.092651
 40
4.423828
 50
0.000000
 51
90.000000
  0
ARC
  8
0
 62
     5
 10
582.568787
 20
-493.870697
 40
4.423798
 50
270.000000
 51
0.000000
  0
ARC
  8
0
 62
     5
 10
580.356750
 20
-472.304474
 40
6.635681
 50
0.000000
 51
90.000000
  0
ARC
  8
0
 62
     5
 10
620.723999
 20
-470.092651
 40
4.423828
 50
0.000000
 51
90.000000
  0
ARC
  8
0
 62
     5
 10
620.723999
 20
-473.626892
 40
4.423808
 50
294.999786
 51
0.000000
  0
ARC
  8
0
  6
PHANTOM
 10
-514.041748
 20
111.499954
 40
30.000006
 50
155.375702
 51
202.540268
  0
ARC
  8
0
  6
PHANTOM
 10
-414.041718
 20
111.499954
 40
30.000006
 50
155.375702
 51
202.540268
  0
ARC
  8
0
  6
PHANTOM
 10
-467.730774
 20
84.999954
 40
30.000002
 50
330.000031
 51
29.999964
  0
ARC
  8
0
  6
PHANTOM
 10
-567.730774
 20
84.999954
 40
30.000002
 50
330.000031
 51
29.999964
  0
ARC
  8
0
  6
PHANTOM
 10
-514.254517
 20
296.999939
 40
30.000027
 50
156.421844
 51
203.578110
  0
ARC
  8
0
  6
PHANTOM
 10
-414.254547
 20
296.999939
 40
29.999998
 50
156.421814
 51
203.578125
  0
ARC
  8
0
  6
PHANTOM
 10
-469.245453
 20
272.999939
 40
29.999998
 50
336.421814
 51
23.578180
  0
ARC
  8
0
  6
PHANTOM
 10
-569.245483
 20
272.999939
 40
30.000027
 50
336.421844
 51
23.578156
  0
ARC
  8
0
  6
PHANTOM
 10
217.470001
 20
113.999924
 40
40.000000
 50
159.512680
 51
200.487259
  0
ARC
  8
0
  6
PHANTOM
 10
317.470001
 20
113.999924
 40
39.999985
 50
159.512665
 51
200.487259
  0
ARC
  8
0
  6
PHANTOM
 10
244.031281
 20
82.499924
 40
39.999992
 50
334.055481
 51
25.944510
  0
ARC
  8
0
  6
PHANTOM
 10
144.031281
 20
82.499924
 40
40.000004
 50
334.055511
 51
25.944500
  0
ARC
  8
0
  6
PHANTOM
 10
317.279327
 20
314.499939
 40
39.999996
 50
158.746231
 51
201.253769
  0
ARC
  8
0
  6
PHANTOM
 10
217.279358
 20
314.499939
 40
39.999996
 50
158.746231
 51
201.253769
  0
ARC
  8
0
  6
PHANTOM
 10
242.720642
 20
285.499939
 40
40.000008
 50
338.746185
 51
21.253805
  0
ARC
  8
0
  6
PHANTOM
 10
142.720642
 20
285.499939
 40
40.000008
 50
338.746185
 51
21.253805
  0
ARC
  8
0
  6
PHANTOM
 10
-224.912476
 20
-356.614960
 40
50.000008
 50
159.512695
 51
200.487305
  0
ARC
  8
0
  6
PHANTOM
 10
-84.912476
 20
-356.614960
 40
49.999992
 50
159.512680
 51
200.487305
  0
ARC
  8
0
  6
PHANTOM
 10
-177.575684
 20
-394.114960
 40
50.000004
 50
336.421814
 51
23.578176
  0
ARC
  8
0
  6
PHANTOM
 10
-317.575684
 20
-394.114960
 40
50.000015
 50
336.421844
 51
23.578171
  0
ARC
  8
0
  6
PHANTOM
 10
-224.912476
 20
-141.614990
 40
50.000004
 50
159.512711
 51
200.487274
  0
ARC
  8
0
  6
PHANTOM
 10
-84.912476
 20
-141.614990
 40
50.000004
 50
159.512711
 51
200.487274
  0
ARC
  8
0
  6
PHANTOM
 10
-178.587402
 20
-176.614990
 40
49.999992
 50
339.512695
 51
20.487318
  0
ARC
  8
0
  6
PHANTOM
 10
-318.587402
 20
-176.614990
 40
50.000008
 50
339.512695
 51
20.487312
  0
ARC
  8
0
  6
PHANTOM
 10
141.249969
 20
-347.114960
 40
8.000000
 50
90.000000
 51
180.000000
  0
ARC
  8
0
  6
PHANTOM
 10
195.249969
 20
-347.114960
 40
8.000000
 50
0.000000
 51
90.000000
  0
ARC
  8
0
  6
PHANTOM
 10
195.249969
 20
-401.114960
 40
8.000000
 50
270.000000
 51
0.000000
  0
ARC
  8
0
  6
PHANTOM
 10
141.249969
 20
-401.114960
 40
8.000000
 50
180.000000
 51
270.000000
  0
ARC
  8
0
  6
PHANTOM
 10
-191.749939
 20
79.999893
 40
4.000000
 50
270.000000
 51
0.000000
  0
ARC
  8
0
  6
PHANTOM
 10
-191.749939
 20
119.999893
 40
4.000000
 50
0.000000
 51
90.000000
  0
ARC
  8
0
  6
PHANTOM
 10
-231.749939
 20
119.999893
 40
4.000000
 50
90.000000
 51
180.000000
  0
ARC
  8
0
  6
PHANTOM
 10
-231.749939
 20
79.999893
 40
4.000000
 50
180.000000
 51
270.000000
  0
ARC
  8
0
  6
PHANTOM
 10
489.000000
 20
119.999908
 40
8.000000
 50
90.000000
 51
179.999939
  0
ARC
  8
0
  6
PHANTOM
 10
531.000000
 20
119.999908
 40
8.000000
 50
0.000000
 51
90.000000
  0
ARC
  8
0
  6
PHANTOM
 10
531.000000
 20
78.999908
 40
8.000000
 50
270.000000
 51
0.000000
  0
ARC
  8
0
  6
PHANTOM
 10
489.000000
 20
78.999908
 40
8.000000
 50
180.000000
 51
270.000000
  0
CIRCLE
  8
0
 10
-476.750183
 20
254.999969
 40
3.300000
  0
CIRCLE
  8
0
 10
-506.750183
 20
254.999969
 40
3.300000
  0
CIRCLE
  8
0
 10
-476.750183
 20
314.999969
 40
3.300000
  0
CIRCLE
  8
0
 10
-506.750183
 20
314.999969
 40
3.300000
  0
CIRCLE
  8
0
 10
245.000015
 20
265.000000
 40
3.300000
  0
CIRCLE
  8
0
 10
245.000015
 20
335.000000
 40
3.300000
  0
CIRCLE
  8
0
 10
215.000015
 20
335.000000
 40
3.300000
  0
CIRCLE
  8
0
 10
215.000015
 20
265.000000
 40
3.300000
  0
CIRCLE
  8
0
 10
-181.749908
 20
-201.614960
 40
4.500000
  0
CIRCLE
  8
0
 10
-181.749908
 20
-116.614960
 40
4.500000
  0
CIRCLE
  8
0
 10
-221.749908
 20
-116.614960
 40
4.500000
  0
CIRCLE
  8
0
 10
-221.749908
 20
-201.614960
 40
4.500000
  0
TEXT
  8
0
 10
452.676331
 20
466.216309
 40
17.000000
  1
DATE : MAY ,1991
 50
0.000000
 41
1.052631
 51
0.000000
  7
STANDARD
  0
TEXT
  8
0
 10
-672.223755
 20
463.516205
 40
20.000000
  1
ORCA F SUPPORT
 50
0.000000
 41
1.052632
 51
0.000000
  7
STANDARD
  0
TEXT
  8
0
 10
-704.357117
 20
384.914032
 40
20.000000
  1
BORE : 32
 50
0.000000
 41
1.052632
 51
0.000000
  7
STANDARD
  0
TEXT
  8
0
 10
37.392860
 20
424.914032
 40
20.000000
  1
BORE : 40
 50
0.000000
 41
1.052632
 51
0.000000
  7
STANDARD
  0
TEXT
  8
0
 10
-704.357117
 20
-67.000061
 40
20.000000
  1
BORE : 50
 50
0.000000
 41
1.052632
 51
0.000000
  7
STANDARD
  0
ENDSEC
  0
EOF
