  0
SECTION
  2
HEADER
  0
ENDSEC
  0
SECTION
  2
TABLES
  0
TABLE
  2
LTYPE
 70
     4
  0
LTYPE
  2
CONTINUOUS
 70
    64
  3
Solid line
 72
    65
 73
     0
 40
0.000000
  0
LTYPE
  2
DASHED
 70
    64
  3
__ __ __ __ __ __ __ __ __ __ __ __ __ __ __
 72
    65
 73
     2
 40
3.500000
 49
2.000000
 49
-1.500000
  0
LTYPE
  2
CENTER
 70
    64
  3
____ _ ____ _ ____ _ ____ _ ____ _ ____ _ ____
 72
    65
 73
     4
 40
17.500000
 49
13.000000
 49
-1.500000
 49
1.500000
 49
-1.500000
  0
LTYPE
  2
PHANTOM
 70
    64
  3
_____ _ _ _____ _ _ _____ _ _ _____ _ _ ____  
 72
    65
 73
     6
 40
15.500000
 49
8.000000
 49
-1.500000
 49
1.500000
 49
-1.500000
 49
1.500000
 49
-1.500000
  0
LTYPE
  2
DASHED1
 70
    64
  3
__ __ __ __ __ __ __ __ __ __ __ __ __ __ __
 72
    65
 73
     2
 40
1.500000
 49
1.000000
 49
-0.500000
  0
LTYPE
  2
DASHED2
 70
    64
  3
__ __ __ __ __ __ __ __ __ __ __ __ __ __ __
 72
    65
 73
     2
 40
3.500000
 49
2.500000
 49
-1.000000
  0
LTYPE
  2
DASHED3
 70
    64
  3
__ __ __ __ __ __ __ __ __ __ __ __ __ __ __
 72
    65
 73
     2
 40
6.000000
 49
4.000000
 49
-2.000000
  0
LTYPE
  2
DASHED4
 70
    64
  3
__ __ __ __ __ __ __ __ __ __ __ __ __ __ __
 72
    65
 73
     2
 40
12.000000
 49
10.000000
 49
-2.000000
  0
LTYPE
  2
DASHED5
 70
    64
  3
__ __ __ __ __ __ __ __ __ __ __ __ __ __ __
 72
    65
 73
     2
 40
17.000000
 49
15.000000
 49
-2.000000
  0
LTYPE
  2
DASHED6
 70
    64
  3
__ __ __ __ __ __ __ __ __ __ __ __ __ __ __
 72
    65
 73
     2
 40
29.000000
 49
27.000000
 49
-2.000000
  0
LTYPE
  2
PHANTOM1
 70
    64
  3
_____ _ _ _____ _ _ _____ _ _ _____ _ _ ____  
 72
    65
 73
     6
 40
31.000000
 49
25.000000
 49
-1.500000
 49
1.000000
 49
-1.000000
 49
1.000000
 49
-1.500000
  0
LTYPE
  2
PHANTOM2
 70
    64
  3
_____ _ _ _____ _ _ _____ _ _ _____ _ _ ____  
 72
    65
 73
     6
 40
36.000000
 49
27.000000
 49
-1.500000
 49
2.500000
 49
-1.000000
 49
2.500000
 49
-1.500000
  0
LTYPE
  2
PHANTOM3
 70
    64
  3
_____ _ _ _____ _ _ _____ _ _ _____ _ _ ____  
 72
    65
 73
     6
 40
78.000000
 49
64.000000
 49
-2.000000
 49
4.000000
 49
-2.000000
 49
4.000000
 49
-2.000000
  0
LTYPE
  2
CENTER1
 70
    64
  3
____ _ ____ _ ____ _ ____ _ ____ _ ____ _ ____
 72
    65
 73
     4
 40
19.000000
 49
14.000000
 49
-1.000000
 49
3.000000
 49
-1.000000
  0
LTYPE
  2
CENTER2
 70
    64
  3
____ _ ____ _ ____ _ ____ _ ____ _ ____ _ ____
 72
    65
 73
     4
 40
28.500000
 49
25.000000
 49
-1.000000
 49
1.500000
 49
-1.000000
  0
LTYPE
  2
CENTER3
 70
    64
  3
____ _ ____ _ ____ _ ____ _ ____ _ ____ _ ____
 72
    65
 73
     4
 40
31.500000
 49
27.000000
 49
-1.000000
 49
2.500000
 49
-1.000000
  0
LTYPE
  2
CENTER4
 70
    64
  3
____ _ ____ _ ____ _ ____ _ ____ _ ____ _ ____
 72
    65
 73
     4
 40
50.000000
 49
45.000000
 49
-1.000000
 49
3.000000
 49
-1.000000
  0
LTYPE
  2
CENTER5
 70
    64
  3
____ _ ____ _ ____ _ ____ _ ____ _ ____ _ ____
 72
    65
 73
     4
 40
100.000000
 49
92.000000
 49
-2.000000
 49
4.000000
 49
-2.000000
  0
LTYPE
  2
SBK1
 70
    64
  3
______ _ _ _ ______ _ _ _ ______ _ _ _ _____  
 72
    65
 73
     8
 40
60.500000
 49
45.000000
 49
-2.000000
 49
2.500000
 49
-2.000000
 49
2.500000
 49
-2.000000
 49
2.500000
 49
-2.000000
  0
LTYPE
  2
SBK2
 70
    64
  3
______ _ _ _ ______ _ _ _ ______ _ _ _ _____  
 72
    65
 73
     8
 40
84.000000
 49
64.000000
 49
-2.000000
 49
4.000000
 49
-2.000000
 49
4.000000
 49
-2.000000
 49
4.000000
 49
-2.000000
  0
LTYPE
  2
STCH
 70
    64
  3
__ __ __ __ __ __ __ __ __ __ __ __ __ __ __
 72
    65
 73
     2
 40
3.000000
 49
1.000000
 49
-2.000000
  0
LTYPE
  2
MTCH
 70
    64
  3
_____ _ _ _____ _ _ _____ _ _ _____ _ _ ____  
 72
    65
 73
     6
 40
80.000000
 49
66.000000
 49
-2.000000
 49
4.000000
 49
-2.000000
 49
4.000000
 49
-2.000000
  0
ENDTAB
  0
TABLE
  2
LAYER
 70
     1
  0
LAYER
  2
0
 70
     0
 62
     7
  6
CONTINUOUS
  0
ENDTAB
  0
TABLE
  2
STYLE
 70
     1
  0
STYLE
  2
STANDARD
 70
     0
 40
0.000000
 41
1.000000
 50
0.000000
 71
     0
 42
0.200000
  3
txt
  4
BIGFONT
  0
ENDTAB
  0
TABLE
  2
VIEW
 70
     0
  0
ENDTAB
  0
ENDSEC
  0
SECTION
  2
BLOCKS
  0
ENDSEC
  0
SECTION
  2
ENTITIES
  0
POINT
  8
0
 10
-250.873566
 20
154.999969
  0
POINT
  8
0
 10
-220.873566
 20
154.999969
  0
POINT
  8
0
 10
-250.873566
 20
49.999977
  0
POINT
  8
0
 10
-220.873566
 20
49.999977
  0
POINT
  8
0
 10
-97.373566
 20
49.999977
  0
POINT
  8
0
 10
120.000000
 20
159.999969
  0
POINT
  8
0
 10
160.000000
 20
159.999969
  0
POINT
  8
0
 10
120.000000
 20
59.999977
  0
POINT
  8
0
 10
160.000000
 20
59.999977
  0
POINT
  8
0
 10
287.000000
 20
59.999977
  0
POINT
  8
0
 10
104.126434
 20
-194.558487
  0
POINT
  8
0
 10
-90.873566
 20
-194.558487
  0
POINT
  8
0
 10
-50.873566
 20
-194.558487
  0
POINT
  8
0
 10
-90.873566
 20
-74.558479
  0
POINT
  8
0
 10
-50.873566
 20
-74.558479
  0
POINT
  8
0
 10
-110.873566
 20
49.999977
  0
POINT
  8
0
 10
270.000000
 20
59.999977
  0
POINT
  8
0
 10
84.126434
 20
-194.558487
  0
LINE
  8
0
 62
     3
 10
218.329163
 20
-225.956436
 11
370.873566
 21
-225.956436
  0
LINE
  8
0
 62
     3
 10
-218.329163
 20
225.956390
 11
-218.329163
 21
254.558487
  0
LINE
  8
0
 62
     3
 10
-370.873566
 20
225.956390
 11
-218.329163
 21
225.956390
  0
LINE
  8
0
 62
     3
 10
-370.873566
 20
254.558487
 11
370.873566
 21
254.558487
  0
LINE
  8
0
 62
     3
 10
-370.873566
 20
-254.558487
 11
370.873566
 21
-254.558487
  0
LINE
  8
0
 62
     3
 10
370.873566
 20
254.558487
 11
370.873566
 21
-254.558487
  0
LINE
  8
0
 62
     3
 10
-370.873566
 20
-254.558487
 11
-370.873566
 21
254.558487
  0
LINE
  8
0
 62
     3
 10
218.329163
 20
-225.956436
 11
218.329163
 21
-254.558487
  0
LINE
  8
0
 62
     3
 10
218.329163
 20
254.558487
 11
218.329163
 21
225.956390
  0
LINE
  8
0
 62
     3
 10
218.329163
 20
225.956390
 11
370.873566
 21
225.956390
  0
LINE
  8
0
 62
     5
 10
258.381622
 20
-232.833740
 11
258.381622
 21
-236.151566
  0
LINE
  8
0
 62
     5
 10
258.381622
 20
-236.151566
 11
270.823547
 21
-236.151566
  0
LINE
  8
0
 62
     5
 10
258.381622
 20
-249.146469
 11
275.247345
 21
-249.146469
  0
LINE
  8
0
 62
     5
 10
258.381622
 20
-245.828644
 11
270.823547
 21
-245.828644
  0
LINE
  8
0
 62
     5
 10
258.381622
 20
-232.833740
 11
273.035400
 21
-232.833740
  0
LINE
  8
0
 62
     5
 10
270.823547
 20
-236.151566
 11
270.823547
 21
-245.828644
  0
LINE
  8
0
 62
     5
 10
275.247345
 20
-235.045654
 11
275.247345
 21
-249.146469
  0
LINE
  8
0
 62
     5
 10
258.381622
 20
-245.828644
 11
258.381622
 21
-249.146469
  0
LINE
  8
0
 62
     5
 10
293.495392
 20
-236.151566
 11
293.495392
 21
-246.934647
  0
LINE
  8
0
 62
     5
 10
277.735657
 20
-232.833740
 11
277.735657
 21
-236.151566
  0
LINE
  8
0
 62
     5
 10
293.937836
 20
-232.584961
 11
295.513824
 21
-232.584961
  0
LINE
  8
0
 62
     5
 10
293.937836
 20
-230.373016
 11
295.513824
 21
-230.373016
  0
LINE
  8
0
 62
     5
 10
295.513824
 20
-230.373016
 11
295.513824
 21
-232.584961
  0
LINE
  8
0
 62
     5
 10
293.937836
 20
-230.373016
 11
293.937836
 21
-232.584961
  0
LINE
  8
0
 62
     5
 10
293.108276
 20
-230.373016
 11
293.108276
 21
-232.584961
  0
LINE
  8
0
 62
     5
 10
282.766052
 20
-230.373016
 11
286.200897
 21
-230.373016
  0
LINE
  8
0
 62
     5
 10
285.541260
 20
-232.833466
 11
286.200562
 21
-230.372711
  0
LINE
  8
0
 62
     5
 10
282.106689
 20
-232.833710
 11
282.766022
 21
-230.372986
  0
LINE
  8
0
 62
     5
 10
285.541565
 20
-232.833740
 11
290.177551
 21
-232.833740
  0
LINE
  8
0
 62
     5
 10
284.652557
 20
-236.151566
 11
289.071625
 21
-236.151566
  0
LINE
  8
0
 62
     5
 10
286.642853
 20
-249.146469
 11
291.283569
 21
-249.146469
  0
LINE
  8
0
 62
     5
 10
285.753693
 20
-245.828583
 11
286.642731
 21
-249.146347
  0
LINE
  8
0
 62
     5
 10
285.753754
 20
-245.828644
 11
289.071625
 21
-245.828644
  0
LINE
  8
0
 62
     5
 10
281.170746
 20
-249.146637
 11
284.652679
 21
-236.151733
  0
LINE
  8
0
 62
     5
 10
277.735657
 20
-236.151566
 11
281.217682
 21
-236.151566
  0
LINE
  8
0
 62
     5
 10
277.735413
 20
-249.146210
 11
281.217468
 21
-236.151337
  0
LINE
  8
0
 62
     5
 10
277.735657
 20
-249.146469
 11
281.170593
 21
-249.146469
  0
LINE
  8
0
 62
     5
 10
277.735657
 20
-232.833740
 11
282.106689
 21
-232.833740
  0
LINE
  8
0
 62
     5
 10
289.071625
 20
-236.151566
 11
289.071625
 21
-245.828644
  0
LINE
  8
0
 62
     5
 10
291.532288
 20
-230.373016
 11
293.108276
 21
-230.373016
  0
LINE
  8
0
 62
     5
 10
291.532288
 20
-232.584961
 11
293.108276
 21
-232.584961
  0
LINE
  8
0
 62
     5
 10
291.532288
 20
-230.373016
 11
291.532288
 21
-232.584961
  0
LINE
  8
0
 62
     5
 10
301.513550
 20
-230.373016
 11
305.937286
 21
-230.373016
  0
LINE
  8
0
 62
     5
 10
308.342316
 20
-240.195053
 11
311.296204
 21
-238.817642
  0
LINE
  8
0
 62
     5
 10
305.937286
 20
-242.734406
 11
305.937286
 21
-249.146469
  0
LINE
  8
0
 62
     5
 10
301.513550
 20
-243.379044
 11
301.513550
 21
-249.146469
  0
LINE
  8
0
 62
     5
 10
305.937286
 20
-232.833740
 11
310.361115
 21
-232.833740
  0
LINE
  8
0
 62
     5
 10
305.937286
 20
-230.373016
 11
305.937286
 21
-232.833740
  0
LINE
  8
0
 62
     5
 10
301.513550
 20
-230.373016
 11
301.513550
 21
-232.833740
  0
LINE
  8
0
 62
     5
 10
312.572998
 20
-235.045654
 11
312.572998
 21
-236.812775
  0
LINE
  8
0
 62
     5
 10
308.342377
 20
-240.195038
 11
312.573395
 21
-242.168030
  0
LINE
  8
0
 62
     5
 10
305.937256
 20
-242.734329
 11
312.573059
 21
-245.828613
  0
LINE
  8
0
 62
     5
 10
296.260284
 20
-242.167801
 11
296.260284
 21
-245.828644
  0
LINE
  8
0
 62
     5
 10
296.260742
 20
-242.168167
 11
309.162567
 21
-236.151932
  0
LINE
  8
0
 62
     5
 10
296.260254
 20
-245.828598
 11
301.513580
 21
-243.378937
  0
LINE
  8
0
 62
     5
 10
312.572998
 20
-242.167801
 11
312.572998
 21
-245.828644
  0
LINE
  8
0
 62
     5
 10
296.260284
 20
-232.833740
 11
296.260284
 21
-236.151566
  0
LINE
  8
0
 62
     5
 10
301.513550
 20
-249.146469
 11
305.937286
 21
-249.146469
  0
LINE
  8
0
 62
     5
 10
296.260284
 20
-236.151566
 11
309.162079
 21
-236.151566
  0
LINE
  8
0
 62
     5
 10
296.260284
 20
-232.833740
 11
301.513550
 21
-232.833740
  0
LINE
  8
0
 62
     5
 10
327.503998
 20
-236.404739
 11
328.730042
 21
-235.917068
  0
LINE
  8
0
 62
     5
 10
327.503357
 20
-236.404404
 11
327.503357
 21
-249.146469
  0
LINE
  8
0
 62
     5
 10
323.079498
 20
-249.146469
 11
327.503357
 21
-249.146469
  0
LINE
  8
0
 62
     5
 10
313.955292
 20
-241.792511
 11
323.079376
 21
-238.163742
  0
LINE
  8
0
 62
     5
 10
313.955536
 20
-238.221954
 11
326.806152
 21
-233.111084
  0
LINE
  8
0
 62
     5
 10
323.079498
 20
-238.163773
 11
323.079498
 21
-249.146469
  0
LINE
  8
0
 62
     5
 10
327.503357
 20
-231.368408
 11
327.503357
 21
-232.083389
  0
LINE
  8
0
 62
     5
 10
330.821106
 20
-231.368408
 11
330.821106
 21
-232.833755
  0
LINE
  8
0
 62
     5
 10
313.955444
 20
-238.221893
 11
313.955444
 21
-241.792496
  0
LINE
  8
0
 62
     5
 10
327.503357
 20
-231.368408
 11
330.821106
 21
-231.368408
  0
LINE
  8
0
 10
0.000000
 20
-0.000023
 11
0.000000
 21
254.558487
  0
LINE
  8
0
  6
CENTER
 10
-285.873566
 20
154.999969
 11
-215.873566
 21
154.999969
  0
LINE
  8
0
  6
CENTER
 10
-110.873566
 20
25.999977
 11
-110.873566
 21
66.999977
  0
LINE
  8
0
  6
CENTER
 10
-129.373566
 20
49.999977
 11
-92.373566
 21
49.999977
  0
LINE
  8
0
  6
PHANTOM
 10
-116.873566
 20
34.999977
 11
-116.873566
 21
35.999977
  0
LINE
  8
0
  6
PHANTOM
 10
-104.873566
 20
34.999977
 11
-104.873566
 21
35.999977
  0
LINE
  8
0
  6
PHANTOM
 10
-112.573563
 20
34.999977
 11
-112.573563
 21
35.999977
  0
LINE
  8
0
  6
PHANTOM
 10
-109.173569
 20
34.999977
 11
-109.173569
 21
35.999977
  0
LINE
  8
0
  6
PHANTOM
 10
-280.873566
 20
34.999977
 11
-263.373566
 21
34.999977
  0
LINE
  8
0
  6
PHANTOM
 10
-279.554871
 20
37.999977
 11
-219.554871
 21
37.999977
  0
LINE
  8
0
  6
CENTER
 10
-250.873566
 20
25.999977
 11
-250.873566
 21
66.999977
  0
LINE
  8
0
  6
CENTER
 10
-285.873566
 20
49.999977
 11
-215.873566
 21
49.999977
  0
LINE
  8
0
  6
PHANTOM
 10
-280.873566
 20
142.999969
 11
-220.873566
 21
142.999969
  0
LINE
  8
0
  6
PHANTOM
 10
-280.873566
 20
166.999969
 11
-220.873566
 21
166.999969
  0
LINE
  8
0
  6
CENTER
 10
-250.873566
 20
179.999969
 11
-250.873566
 21
129.999969
  0
LINE
  8
0
  6
PHANTOM
 10
-280.873566
 20
61.999977
 11
-220.873566
 21
61.999977
  0
LINE
  8
0
  6
PHANTOM
 10
-282.069397
 20
159.699982
 11
-222.069397
 21
159.699982
  0
LINE
  8
0
  6
PHANTOM
 10
-279.677734
 20
150.299988
 11
-219.677734
 21
150.299988
  0
LINE
  8
0
  6
PHANTOM
 10
-98.873566
 20
40.999977
 11
-98.873566
 21
58.999977
  0
LINE
  8
0
  6
PHANTOM
 10
-122.873566
 20
40.999977
 11
-122.873566
 21
58.999977
  0
LINE
  8
0
  6
PHANTOM
 10
-119.873566
 20
61.999977
 11
-101.873566
 21
61.999977
  0
LINE
  8
0
  6
PHANTOM
 10
-119.873566
 20
37.999977
 11
-118.873566
 21
37.999977
  0
LINE
  8
0
  6
PHANTOM
 10
-102.873566
 20
37.999977
 11
-101.873566
 21
37.999977
  0
LINE
  8
0
  6
PHANTOM
 10
-238.373566
 20
34.999977
 11
-220.873566
 21
34.999977
  0
LINE
  8
0
  6
CENTER
 10
75.000000
 20
59.999977
 11
165.000000
 21
59.999977
  0
LINE
  8
0
  6
CENTER
 10
75.000000
 20
159.999969
 11
165.000000
 21
159.999969
  0
LINE
  8
0
  6
CENTER
 10
248.000000
 20
59.999977
 11
292.000000
 21
59.999977
  0
LINE
  8
0
  6
CENTER
 10
270.000000
 20
29.999977
 11
270.000000
 21
80.499977
  0
LINE
  8
0
  6
PHANTOM
 10
272.200012
 20
40.999977
 11
272.200012
 21
41.999977
  0
LINE
  8
0
  6
PHANTOM
 10
267.799988
 20
40.999977
 11
267.799988
 21
41.999977
  0
LINE
  8
0
  6
PHANTOM
 10
262.000000
 20
40.999977
 11
262.000000
 21
42.499977
  0
LINE
  8
0
  6
PHANTOM
 10
278.000000
 20
40.999977
 11
278.000000
 21
42.499977
  0
LINE
  8
0
  6
PHANTOM
 10
80.000015
 20
40.999977
 11
101.000000
 21
40.999977
  0
LINE
  8
0
  6
PHANTOM
 10
81.479080
 20
44.499977
 11
161.479080
 21
44.499977
  0
LINE
  8
0
  6
CENTER
 10
120.000000
 20
29.999977
 11
120.000000
 21
80.499977
  0
LINE
  8
0
  6
PHANTOM
 10
80.000000
 20
75.499977
 11
160.000000
 21
75.499977
  0
LINE
  8
0
  6
PHANTOM
 10
285.500000
 20
47.499977
 11
285.500000
 21
72.499977
  0
LINE
  8
0
  6
PHANTOM
 10
254.500000
 20
47.499977
 11
254.500000
 21
72.499977
  0
LINE
  8
0
  6
PHANTOM
 10
257.000000
 20
75.499977
 11
283.000000
 21
75.499977
  0
LINE
  8
0
  6
PHANTOM
 10
257.500000
 20
44.499977
 11
260.000000
 21
44.499977
  0
LINE
  8
0
  6
PHANTOM
 10
280.000000
 20
44.499977
 11
282.500000
 21
44.499977
  0
LINE
  8
0
  6
PHANTOM
 10
139.000000
 20
40.999977
 11
160.000015
 21
40.999977
  0
LINE
  8
0
  6
CENTER
 10
120.000000
 20
189.499969
 11
120.000000
 21
130.499969
  0
LINE
  8
0
  6
PHANTOM
 10
80.000000
 20
175.499969
 11
160.000000
 21
175.499969
  0
LINE
  8
0
  6
PHANTOM
 10
78.444962
 20
167.199982
 11
158.444962
 21
167.199982
  0
LINE
  8
0
  6
PHANTOM
 10
81.555023
 20
152.799988
 11
161.555023
 21
152.799988
  0
LINE
  8
0
  6
PHANTOM
 10
79.999985
 20
144.499969
 11
159.999985
 21
144.499969
  0
LINE
  8
0
  6
CENTER
 10
-135.873566
 20
-74.558479
 11
-45.873566
 21
-74.558479
  0
LINE
  8
0
  6
CENTER
 10
-135.873566
 20
-194.558487
 11
-45.873566
 21
-194.558487
  0
LINE
  8
0
  6
CENTER
 10
84.126434
 20
-171.558487
 11
84.126434
 21
-229.058472
  0
LINE
  8
0
  6
CENTER
 10
59.126434
 20
-194.558487
 11
109.126434
 21
-194.558487
  0
LINE
  8
0
  6
PHANTOM
 10
86.326431
 20
-215.558487
 11
86.326431
 21
-216.558487
  0
LINE
  8
0
  6
PHANTOM
 10
81.926437
 20
-215.558487
 11
81.926437
 21
-216.558487
  0
LINE
  8
0
  6
PHANTOM
 10
93.126434
 20
-215.558487
 11
93.126434
 21
-216.558487
  0
LINE
  8
0
  6
PHANTOM
 10
75.126434
 20
-215.558487
 11
75.126434
 21
-216.558487
  0
LINE
  8
0
  6
PHANTOM
 10
-130.873566
 20
-216.558487
 11
-109.873566
 21
-216.558487
  0
LINE
  8
0
  6
PHANTOM
 10
-129.323517
 20
-212.558487
 11
-49.323517
 21
-212.558487
  0
LINE
  8
0
  6
CENTER
 10
-90.873566
 20
-171.558487
 11
-90.873566
 21
-229.058472
  0
LINE
  8
0
  6
CENTER
 10
-90.873566
 20
-41.558487
 11
-90.873566
 21
-107.558472
  0
LINE
  8
0
  6
PHANTOM
 10
72.126434
 20
-176.558487
 11
96.126434
 21
-176.558487
  0
LINE
  8
0
  6
PHANTOM
 10
72.126434
 20
-212.558487
 11
72.126434
 21
-212.558487
  0
LINE
  8
0
  6
PHANTOM
 10
102.126434
 20
-182.558487
 11
102.126434
 21
-206.558487
  0
LINE
  8
0
  6
PHANTOM
 10
66.126434
 20
-182.558487
 11
66.126434
 21
-206.558487
  0
LINE
  8
0
  6
PHANTOM
 10
96.126434
 20
-212.558487
 11
96.126434
 21
-212.558487
  0
LINE
  8
0
  6
PHANTOM
 10
-130.873566
 20
-176.558487
 11
-50.873566
 21
-176.558487
  0
LINE
  8
0
  6
PHANTOM
 10
-71.873566
 20
-216.558487
 11
-50.873573
 21
-216.558487
  0
LINE
  8
0
  6
PHANTOM
 10
-130.873566
 20
-56.558479
 11
-50.873566
 21
-56.558479
  0
LINE
  8
0
  6
PHANTOM
 10
-132.484879
 20
-67.358482
 11
-52.484879
 21
-67.358482
  0
LINE
  8
0
  6
PHANTOM
 10
-129.262268
 20
-81.758484
 11
-49.262268
 21
-81.758484
  0
LINE
  8
0
  6
PHANTOM
 10
-130.873581
 20
-92.558479
 11
-50.873581
 21
-92.558479
  0
LINE
  8
0
 10
-370.873566
 20
-0.000023
 11
370.873566
 21
-0.000023
  0
LINE
  8
0
 10
-263.373627
 20
35.500000
 11
-238.373627
 21
35.500000
  0
LINE
  8
0
 10
-238.373627
 20
31.000000
 11
-238.373627
 21
35.500000
  0
LINE
  8
0
 10
-263.373627
 20
31.000000
 11
-263.373627
 21
35.500000
  0
LINE
  8
0
 10
-263.373627
 20
31.000000
 11
-238.373627
 21
31.000000
  0
LINE
  8
0
  6
DASHED
 10
-260.123627
 20
31.000000
 11
-260.123627
 21
35.500000
  0
LINE
  8
0
  6
CENTER
 10
-258.373627
 20
28.000000
 11
-258.373627
 21
38.500000
  0
LINE
  8
0
  6
DASHED
 10
-256.623627
 20
31.000000
 11
-256.623627
 21
35.500000
  0
LINE
  8
0
  6
DASHED
 10
-245.123627
 20
31.000000
 11
-245.123627
 21
35.500000
  0
LINE
  8
0
  6
CENTER
 10
-243.373627
 20
28.000000
 11
-243.373627
 21
38.500000
  0
LINE
  8
0
  6
DASHED
 10
-241.623627
 20
31.000000
 11
-241.623627
 21
35.500000
  0
LINE
  8
0
 10
-263.373505
 20
135.000015
 11
-238.373505
 21
135.000015
  0
LINE
  8
0
 10
-263.373505
 20
143.000015
 11
-263.373505
 21
135.000015
  0
LINE
  8
0
 10
-238.373505
 20
143.000015
 11
-238.373505
 21
135.000015
  0
LINE
  8
0
 10
-263.373505
 20
175.000015
 11
-263.373505
 21
167.000015
  0
LINE
  8
0
 10
-238.373505
 20
175.000015
 11
-238.373505
 21
167.000015
  0
LINE
  8
0
 10
-263.373505
 20
175.000015
 11
-238.373505
 21
175.000015
  0
LINE
  8
0
  6
CENTER
 10
-255.373505
 20
139.000015
 11
-261.373505
 21
139.000015
  0
LINE
  8
0
  6
CENTER
 10
-258.373505
 20
142.000015
 11
-258.373505
 21
136.000015
  0
LINE
  8
0
  6
CENTER
 10
-243.373505
 20
142.000015
 11
-243.373505
 21
136.000015
  0
LINE
  8
0
  6
CENTER
 10
-246.373505
 20
139.000015
 11
-240.373505
 21
139.000015
  0
LINE
  8
0
  6
CENTER
 10
-255.373505
 20
171.000015
 11
-261.373505
 21
171.000015
  0
LINE
  8
0
  6
CENTER
 10
-258.373505
 20
168.000015
 11
-258.373505
 21
174.000015
  0
LINE
  8
0
  6
CENTER
 10
-243.373505
 20
168.000015
 11
-243.373505
 21
174.000015
  0
LINE
  8
0
  6
CENTER
 10
-246.373505
 20
171.000015
 11
-240.373505
 21
171.000015
  0
LINE
  8
0
 10
-103.873558
 20
34.999973
 11
-103.873558
 21
35.499973
  0
LINE
  8
0
 10
-117.873558
 20
34.999973
 11
-117.873558
 21
35.499973
  0
LINE
  8
0
 10
-112.373558
 20
34.999973
 11
-112.373558
 21
35.999973
  0
LINE
  8
0
 10
-109.373558
 20
34.999973
 11
-109.373558
 21
35.999973
  0
LINE
  8
0
 10
-103.873558
 20
35.499973
 11
-90.873558
 21
35.499973
  0
LINE
  8
0
 10
-117.873558
 20
34.999973
 11
-103.873558
 21
34.999973
  0
LINE
  8
0
 10
-112.873558
 20
38.499973
 11
-108.873558
 21
38.499973
  0
LINE
  8
0
 10
-113.873558
 20
35.999973
 11
-113.873558
 21
37.499973
  0
LINE
  8
0
 10
-107.873558
 20
35.999973
 11
-107.873558
 21
37.499973
  0
LINE
  8
0
 10
-113.873558
 20
35.999973
 11
-107.873558
 21
35.999973
  0
LINE
  8
0
 10
-113.873573
 20
37.499992
 11
-112.873573
 21
38.499992
  0
LINE
  8
0
 10
-108.873558
 20
38.499943
 11
-107.873558
 21
37.499939
  0
LINE
  8
0
 10
-112.103050
 20
34.999973
 11
-112.103050
 21
35.999973
  0
LINE
  8
0
 10
-109.644066
 20
34.999973
 11
-109.644066
 21
35.999973
  0
LINE
  8
0
 10
-130.873566
 20
30.999973
 11
-130.873566
 21
35.499973
  0
LINE
  8
0
 10
-90.873558
 20
30.999973
 11
-90.873558
 21
35.499973
  0
LINE
  8
0
 10
-130.873566
 20
30.999973
 11
-90.873558
 21
30.999973
  0
LINE
  8
0
 10
-130.873566
 20
35.499973
 11
-117.873558
 21
35.499973
  0
LINE
  8
0
  6
DASHED
 10
-128.623566
 20
30.999973
 11
-128.623566
 21
35.499973
  0
LINE
  8
0
  6
CENTER
 10
-126.873558
 20
27.999973
 11
-126.873558
 21
38.499973
  0
LINE
  8
0
  6
DASHED
 10
-125.123558
 20
30.999973
 11
-125.123558
 21
35.499973
  0
LINE
  8
0
  6
DASHED
 10
-96.623558
 20
30.999973
 11
-96.623558
 21
35.499973
  0
LINE
  8
0
  6
CENTER
 10
-94.873558
 20
27.999973
 11
-94.873558
 21
38.499973
  0
LINE
  8
0
  6
DASHED
 10
-93.123558
 20
30.999973
 11
-93.123558
 21
35.499973
  0
LINE
  8
0
 10
100.999962
 20
34.999954
 11
100.999962
 21
40.999954
  0
LINE
  8
0
 10
100.999962
 20
34.999954
 11
138.999969
 21
34.999954
  0
LINE
  8
0
 10
100.999962
 20
40.999954
 11
138.999969
 21
40.999954
  0
LINE
  8
0
 10
138.999969
 20
34.999954
 11
138.999969
 21
40.999954
  0
LINE
  8
0
  6
DASHED
 10
107.749962
 20
34.999954
 11
107.749962
 21
40.999954
  0
LINE
  8
0
  6
CENTER
 10
109.999962
 20
31.999954
 11
109.999962
 21
43.999954
  0
LINE
  8
0
  6
DASHED
 10
112.249962
 20
34.999954
 11
112.249962
 21
40.999954
  0
LINE
  8
0
  6
DASHED
 10
127.749962
 20
34.999954
 11
127.749962
 21
40.999954
  0
LINE
  8
0
  6
DASHED
 10
132.249969
 20
34.999954
 11
132.249969
 21
40.999954
  0
LINE
  8
0
  6
CENTER
 10
129.999969
 20
31.999954
 11
129.999969
 21
43.999954
  0
LINE
  8
0
 10
100.999954
 20
184.499954
 11
100.999954
 21
175.499954
  0
LINE
  8
0
 10
138.999954
 20
184.499954
 11
138.999954
 21
175.499954
  0
LINE
  8
0
 10
100.999954
 20
184.499954
 11
138.999954
 21
184.499954
  0
LINE
  8
0
 10
100.999954
 20
135.499954
 11
138.999954
 21
135.499954
  0
LINE
  8
0
 10
100.999954
 20
144.499954
 11
100.999954
 21
135.499954
  0
LINE
  8
0
 10
138.999954
 20
144.499954
 11
138.999954
 21
135.499954
  0
LINE
  8
0
  6
CENTER
 10
105.999954
 20
179.999954
 11
113.999954
 21
179.999954
  0
LINE
  8
0
  6
CENTER
 10
109.999954
 20
175.999954
 11
109.999954
 21
183.999954
  0
LINE
  8
0
  6
CENTER
 10
133.999954
 20
179.999954
 11
125.999954
 21
179.999954
  0
LINE
  8
0
  6
CENTER
 10
129.999954
 20
175.999954
 11
129.999954
 21
183.999954
  0
LINE
  8
0
  6
CENTER
 10
105.999954
 20
139.999954
 11
113.999954
 21
139.999954
  0
LINE
  8
0
  6
CENTER
 10
109.999954
 20
143.999954
 11
109.999954
 21
135.999954
  0
LINE
  8
0
  6
CENTER
 10
133.999954
 20
139.999954
 11
125.999954
 21
139.999954
  0
LINE
  8
0
  6
CENTER
 10
129.999954
 20
143.999954
 11
129.999954
 21
135.999954
  0
LINE
  8
0
 10
268.379059
 20
41.000000
 11
268.379059
 21
42.000000
  0
LINE
  8
0
 10
271.621063
 20
41.000000
 11
271.621063
 21
42.000000
  0
LINE
  8
0
 10
272.000061
 20
41.000000
 11
272.000061
 21
42.000000
  0
LINE
  8
0
 10
245.500061
 20
41.000000
 11
294.500061
 21
41.000000
  0
LINE
  8
0
 10
268.000061
 20
41.000000
 11
268.000061
 21
42.000000
  0
LINE
  8
0
 10
273.750061
 20
42.000000
 11
273.750061
 21
43.500000
  0
LINE
  8
0
 10
266.250061
 20
42.000000
 11
266.250061
 21
43.500000
  0
LINE
  8
0
 10
266.250061
 20
42.000000
 11
273.750061
 21
42.000000
  0
LINE
  8
0
 10
268.250061
 20
45.500000
 11
271.750061
 21
45.500000
  0
LINE
  8
0
 10
245.500061
 20
35.000000
 11
294.500061
 21
35.000000
  0
LINE
  8
0
 10
294.500061
 20
35.000000
 11
294.500061
 21
41.000000
  0
LINE
  8
0
 10
245.500061
 20
35.000000
 11
245.500061
 21
41.000000
  0
LINE
  8
0
  6
CENTER
 10
290.000061
 20
32.000000
 11
290.000061
 21
44.000000
  0
LINE
  8
0
  6
DASHED
 10
287.750061
 20
35.000000
 11
287.750061
 21
41.000000
  0
LINE
  8
0
  6
DASHED
 10
292.250061
 20
35.000000
 11
292.250061
 21
41.000000
  0
LINE
  8
0
  6
DASHED
 10
252.250061
 20
35.000000
 11
252.250061
 21
41.000000
  0
LINE
  8
0
  6
CENTER
 10
250.000061
 20
32.000000
 11
250.000061
 21
44.000000
  0
LINE
  8
0
  6
DASHED
 10
247.750061
 20
35.000000
 11
247.750061
 21
41.000000
  0
LINE
  8
0
 10
-109.873566
 20
-215.058472
 11
-109.873566
 21
-224.058472
  0
LINE
  8
0
 10
-109.873566
 20
-224.058472
 11
-71.873566
 21
-224.058472
  0
LINE
  8
0
 10
-109.873566
 20
-215.058472
 11
-71.873566
 21
-215.058472
  0
LINE
  8
0
 10
-71.873566
 20
-215.058472
 11
-71.873566
 21
-224.058472
  0
LINE
  8
0
  6
DASHED
 10
-106.123566
 20
-215.058472
 11
-106.123566
 21
-224.058472
  0
LINE
  8
0
  6
CENTER
 10
-103.373566
 20
-212.058472
 11
-103.373566
 21
-227.058472
  0
LINE
  8
0
  6
DASHED
 10
-100.623566
 20
-215.058472
 11
-100.623566
 21
-224.058472
  0
LINE
  8
0
  6
DASHED
 10
-81.123566
 20
-215.058472
 11
-81.123566
 21
-224.058472
  0
LINE
  8
0
  6
CENTER
 10
-78.373566
 20
-212.058472
 11
-78.373566
 21
-227.058472
  0
LINE
  8
0
  6
DASHED
 10
-75.623566
 20
-215.058472
 11
-75.623566
 21
-224.058472
  0
LINE
  8
0
 10
-109.873550
 20
-46.558472
 11
-109.873550
 21
-56.558464
  0
LINE
  8
0
 10
-71.873550
 20
-46.558472
 11
-71.873550
 21
-56.558464
  0
LINE
  8
0
  6
CENTER
 10
-98.373550
 20
-51.558464
 11
-108.373550
 21
-51.558464
  0
LINE
  8
0
 10
-109.873550
 20
-102.558456
 11
-71.873550
 21
-102.558456
  0
LINE
  8
0
 10
-109.873550
 20
-92.558464
 11
-109.873550
 21
-102.558456
  0
LINE
  8
0
 10
-71.873550
 20
-92.558464
 11
-71.873550
 21
-102.558456
  0
LINE
  8
0
  6
CENTER
 10
-98.373550
 20
-97.558464
 11
-108.373550
 21
-97.558464
  0
LINE
  8
0
  6
CENTER
 10
-103.373550
 20
-92.558464
 11
-103.373550
 21
-102.558456
  0
LINE
  8
0
  6
CENTER
 10
-83.373550
 20
-97.558464
 11
-73.373550
 21
-97.558464
  0
LINE
  8
0
  6
CENTER
 10
-78.373550
 20
-92.558464
 11
-78.373550
 21
-102.558456
  0
LINE
  8
0
 10
-109.873550
 20
-46.558472
 11
-71.873550
 21
-46.558472
  0
LINE
  8
0
  6
CENTER
 10
-103.373550
 20
-56.558464
 11
-103.373550
 21
-46.558472
  0
LINE
  8
0
  6
CENTER
 10
-78.373550
 20
-56.558464
 11
-78.373550
 21
-46.558472
  0
LINE
  8
0
  6
CENTER
 10
-83.373550
 20
-51.558464
 11
-73.373550
 21
-51.558464
  0
LINE
  8
0
 10
112.126434
 20
-215.058487
 11
112.126434
 21
-224.058487
  0
LINE
  8
0
 10
56.126434
 20
-215.058487
 11
56.126434
 21
-224.058487
  0
LINE
  8
0
 10
82.126434
 20
-215.558502
 11
82.126434
 21
-216.558502
  0
LINE
  8
0
 10
74.126434
 20
-216.558502
 11
94.126434
 21
-216.558502
  0
LINE
  8
0
 10
86.126434
 20
-215.558502
 11
86.126434
 21
-216.558502
  0
LINE
  8
0
 10
80.376434
 20
-215.558502
 11
87.876434
 21
-215.558502
  0
LINE
  8
0
 10
80.376434
 20
-214.058502
 11
80.376434
 21
-215.558502
  0
LINE
  8
0
 10
87.876434
 20
-214.058502
 11
87.876434
 21
-215.558502
  0
LINE
  8
0
 10
82.376434
 20
-212.058502
 11
85.876434
 21
-212.058502
  0
LINE
  8
0
 10
94.126434
 20
-215.058487
 11
112.126434
 21
-215.058487
  0
LINE
  8
0
 10
82.505432
 20
-215.558502
 11
82.505432
 21
-216.558502
  0
LINE
  8
0
 10
85.747437
 20
-215.558502
 11
85.747437
 21
-216.558502
  0
LINE
  8
0
 10
74.126434
 20
-215.058487
 11
74.126434
 21
-216.558502
  0
LINE
  8
0
 10
94.126434
 20
-215.058487
 11
94.126434
 21
-216.558502
  0
LINE
  8
0
 10
56.126434
 20
-224.058487
 11
112.126434
 21
-224.058487
  0
LINE
  8
0
 10
56.126434
 20
-215.058487
 11
74.126434
 21
-215.058487
  0
LINE
  8
0
  6
DASHED
 10
58.376434
 20
-215.058487
 11
58.376434
 21
-224.058487
  0
LINE
  8
0
  6
CENTER
 10
61.126434
 20
-212.058487
 11
61.126434
 21
-227.058487
  0
LINE
  8
0
  6
DASHED
 10
63.876434
 20
-215.058487
 11
63.876434
 21
-224.058487
  0
LINE
  8
0
  6
DASHED
 10
104.376434
 20
-215.058487
 11
104.376434
 21
-224.058487
  0
LINE
  8
0
  6
DASHED
 10
109.876434
 20
-215.058487
 11
109.876434
 21
-224.058487
  0
LINE
  8
0
  6
CENTER
 10
107.126434
 20
-212.058487
 11
107.126434
 21
-227.058487
  0
ARC
  8
0
 62
     5
 10
273.035400
 20
-235.045654
 40
2.211884
 50
0.000000
 51
90.000000
  0
ARC
  8
0
 62
     5
 10
291.283569
 20
-246.934647
 40
2.211899
 50
270.000000
 51
0.000000
  0
ARC
  8
0
 62
     5
 10
290.177551
 20
-236.151566
 40
3.317841
 50
0.000000
 51
90.000000
  0
ARC
  8
0
 62
     5
 10
310.361115
 20
-236.812775
 40
2.211890
 50
294.999969
 51
0.000000
  0
ARC
  8
0
 62
     5
 10
310.361115
 20
-235.045654
 40
2.211884
 50
0.000000
 51
90.000000
  0
ARC
  8
0
 62
     5
 10
327.503357
 20
-232.833755
 40
3.317840
 50
291.688385
 51
0.000000
  0
ARC
  8
0
 62
     5
 10
326.397308
 20
-232.083389
 40
1.105946
 50
291.688965
 51
0.000000
  0
ARC
  8
0
  6
PHANTOM
 10
-119.873566
 20
58.999977
 40
3.000000
 50
90.000000
 51
180.000000
  0
ARC
  8
0
  6
PHANTOM
 10
-119.873566
 20
40.999977
 40
3.000000
 50
180.000000
 51
270.000000
  0
ARC
  8
0
  6
PHANTOM
 10
-101.873566
 20
40.999977
 40
3.000000
 50
270.000000
 51
0.000000
  0
ARC
  8
0
  6
PHANTOM
 10
-101.873566
 20
58.999977
 40
3.000000
 50
0.000000
 51
90.000000
  0
ARC
  8
0
  6
PHANTOM
 10
-118.873566
 20
35.999977
 40
2.000000
 50
0.000000
 51
90.000000
  0
ARC
  8
0
  6
PHANTOM
 10
-102.873566
 20
35.999977
 40
2.000000
 50
90.000000
 51
180.000000
  0
ARC
  8
0
  6
PHANTOM
 10
-267.125854
 20
55.999977
 40
15.000011
 50
156.421860
 51
203.578125
  0
ARC
  8
0
  6
PHANTOM
 10
-293.863953
 20
42.499977
 40
15.000003
 50
330.000031
 51
29.999975
  0
ARC
  8
0
  6
PHANTOM
 10
-294.621277
 20
148.999969
 40
15.000013
 50
336.421844
 51
23.578156
  0
ARC
  8
0
  6
PHANTOM
 10
-267.125854
 20
160.999969
 40
15.000013
 50
156.421844
 51
203.578110
  0
ARC
  8
0
  6
PHANTOM
 10
-207.125839
 20
55.999977
 40
14.999998
 50
156.421829
 51
203.578156
  0
ARC
  8
0
  6
PHANTOM
 10
-233.863953
 20
42.499977
 40
15.000003
 50
330.000031
 51
29.999975
  0
ARC
  8
0
  6
PHANTOM
 10
-234.621277
 20
148.999969
 40
14.999999
 50
336.421814
 51
23.578180
  0
ARC
  8
0
  6
PHANTOM
 10
-207.125839
 20
160.999969
 40
14.999999
 50
156.421814
 51
203.578125
  0
ARC
  8
0
  6
PHANTOM
 10
178.437393
 20
67.749977
 40
19.999996
 50
157.200989
 51
202.798996
  0
ARC
  8
0
  6
PHANTOM
 10
142.400299
 20
50.499977
 40
20.000000
 50
331.640656
 51
28.359350
  0
ARC
  8
0
  6
PHANTOM
 10
178.437393
 20
167.749969
 40
20.000000
 50
157.200974
 51
202.798996
  0
ARC
  8
0
  6
PHANTOM
 10
141.562592
 20
152.249969
 40
20.000000
 50
337.200958
 51
22.799032
  0
ARC
  8
0
  6
PHANTOM
 10
62.400299
 20
50.499977
 40
20.000000
 50
331.640656
 51
28.359350
  0
ARC
  8
0
  6
PHANTOM
 10
98.437393
 20
67.749977
 40
19.999996
 50
157.200989
 51
202.798996
  0
ARC
  8
0
  6
PHANTOM
 10
61.562592
 20
152.249969
 40
20.000000
 50
337.200958
 51
22.799032
  0
ARC
  8
0
  6
PHANTOM
 10
98.437393
 20
167.749969
 40
20.000000
 50
157.200974
 51
202.798981
  0
ARC
  8
0
  6
PHANTOM
 10
257.500000
 20
72.499977
 40
3.000000
 50
90.000000
 51
180.000000
  0
ARC
  8
0
  6
PHANTOM
 10
257.500000
 20
47.499977
 40
3.000000
 50
180.000000
 51
270.000000
  0
ARC
  8
0
  6
PHANTOM
 10
282.500000
 20
47.499977
 40
3.000000
 50
270.000000
 51
0.000000
  0
ARC
  8
0
  6
PHANTOM
 10
282.500000
 20
72.499977
 40
3.000000
 50
0.000000
 51
90.000000
  0
ARC
  8
0
  6
PHANTOM
 10
260.000000
 20
42.499977
 40
2.000000
 50
0.000000
 51
90.000000
  0
ARC
  8
0
  6
PHANTOM
 10
280.000000
 20
42.499977
 40
2.000000
 50
90.000000
 51
180.000000
  0
ARC
  8
0
  6
PHANTOM
 10
-107.549759
 20
-185.558487
 40
25.000000
 50
158.899811
 51
201.100159
  0
ARC
  8
0
  6
PHANTOM
 10
-153.323517
 20
-205.558487
 40
25.000006
 50
333.896118
 51
26.103874
  0
ARC
  8
0
  6
PHANTOM
 10
-107.549759
 20
-65.558479
 40
24.999998
 50
158.899811
 51
201.100159
  0
ARC
  8
0
  6
PHANTOM
 10
-154.197388
 20
-83.558479
 40
25.000000
 50
338.899811
 51
21.100197
  0
ARC
  8
0
  6
PHANTOM
 10
72.126434
 20
-182.558487
 40
6.000000
 50
90.000000
 51
180.000000
  0
ARC
  8
0
  6
PHANTOM
 10
72.126434
 20
-206.558487
 40
6.000000
 50
180.000000
 51
270.000000
  0
ARC
  8
0
  6
PHANTOM
 10
96.126434
 20
-206.558487
 40
6.000000
 50
270.000000
 51
0.000000
  0
ARC
  8
0
  6
PHANTOM
 10
96.126434
 20
-182.558487
 40
6.000000
 50
0.000000
 51
90.000000
  0
ARC
  8
0
  6
PHANTOM
 10
96.126434
 20
-215.558487
 40
3.000000
 50
90.000000
 51
180.000000
  0
ARC
  8
0
  6
PHANTOM
 10
72.126434
 20
-215.558487
 40
3.000000
 50
0.000000
 51
90.000000
  0
ARC
  8
0
  6
PHANTOM
 10
-27.549759
 20
-185.558487
 40
25.000002
 50
158.899811
 51
201.100159
  0
ARC
  8
0
  6
PHANTOM
 10
-73.323517
 20
-205.558487
 40
25.000000
 50
333.896118
 51
26.103882
  0
ARC
  8
0
  6
PHANTOM
 10
-27.549759
 20
-65.558479
 40
25.000002
 50
158.899811
 51
201.100159
  0
ARC
  8
0
  6
PHANTOM
 10
-74.197388
 20
-83.558479
 40
25.000000
 50
338.899811
 51
21.100197
  0
CIRCLE
  8
0
 10
-258.373505
 20
171.000015
 40
1.750000
  0
CIRCLE
  8
0
 10
-243.373505
 20
171.000015
 40
1.750000
  0
CIRCLE
  8
0
 10
-258.373505
 20
139.000015
 40
1.750000
  0
CIRCLE
  8
0
 10
-243.373505
 20
139.000015
 40
1.750000
  0
CIRCLE
  8
0
 10
129.999954
 20
179.999954
 40
2.250000
  0
CIRCLE
  8
0
 10
109.999954
 20
179.999954
 40
2.250000
  0
CIRCLE
  8
0
 10
129.999954
 20
139.999954
 40
2.250000
  0
CIRCLE
  8
0
 10
109.999954
 20
139.999954
 40
2.250000
  0
ARC
  8
0
 10
271.750061
 20
43.500000
 40
2.000000
 50
0.000000
 51
90.000000
  0
ARC
  8
0
 10
268.250061
 20
43.500000
 40
2.000000
 50
90.000000
 51
180.000000
  0
CIRCLE
  8
0
 10
-103.373550
 20
-51.558464
 40
2.750000
  0
CIRCLE
  8
0
 10
-103.373550
 20
-97.558464
 40
2.750000
  0
CIRCLE
  8
0
 10
-78.373550
 20
-51.558464
 40
2.750000
  0
CIRCLE
  8
0
 10
-78.373550
 20
-97.558464
 40
2.750000
  0
ARC
  8
0
 10
85.876434
 20
-214.058502
 40
2.000000
 50
0.000000
 51
90.000000
  0
ARC
  8
0
 10
82.376434
 20
-214.058502
 40
2.000000
 50
90.000000
 51
180.000000
  0
TEXT
  8
0
 10
226.462494
 20
233.607468
 40
8.500000
  1
DATE : OCT ,1991
 50
0.000000
 41
1.052631
 51
0.000000
  7
STANDARD
  0
TEXT
  8
0
 10
13.821430
 20
222.956390
 40
10.000000
  1
BORE : 20
 50
0.000000
 41
1.052632
 51
0.000000
  7
STANDARD
  0
TEXT
  8
0
 10
-207.052139
 20
222.956390
 40
10.000000
  1
BORE : 16
 50
0.000000
 41
1.052632
 51
0.000000
  7
STANDARD
  0
TEXT
  8
0
 10
-357.052124
 20
-36.602112
 40
10.000000
  1
BORE : 25
 50
0.000000
 41
1.052632
 51
0.000000
  7
STANDARD
  0
TEXT
  8
0
 10
-365.779938
 20
232.257462
 40
10.000000
  1
ORCA F SUPPORT
 50
0.000000
 41
1.052632
 51
0.000000
  7
STANDARD
  0
ENDSEC
  0
EOF
