  0
SECTION
  2
HEADER
  0
ENDSEC
  0
SECTION
  2
TABLES
  0
TABLE
  2
LTYPE
 70
     4
  0
LTYPE
  2
CONTINUOUS
 70
    64
  3
Solid line
 72
    65
 73
     0
 40
0.000000
  0
LTYPE
  2
DASHED
 70
    64
  3
__ __ __ __ __ __ __ __ __ __ __ __ __ __ __
 72
    65
 73
     2
 40
3.500000
 49
2.000000
 49
-1.500000
  0
LTYPE
  2
CENTER
 70
    64
  3
____ _ ____ _ ____ _ ____ _ ____ _ ____ _ ____
 72
    65
 73
     4
 40
17.500000
 49
13.000000
 49
-1.500000
 49
1.500000
 49
-1.500000
  0
LTYPE
  2
PHANTOM
 70
    64
  3
_____ _ _ _____ _ _ _____ _ _ _____ _ _ ____  
 72
    65
 73
     6
 40
15.500000
 49
8.000000
 49
-1.500000
 49
1.500000
 49
-1.500000
 49
1.500000
 49
-1.500000
  0
LTYPE
  2
DASHED1
 70
    64
  3
__ __ __ __ __ __ __ __ __ __ __ __ __ __ __
 72
    65
 73
     2
 40
1.500000
 49
1.000000
 49
-0.500000
  0
LTYPE
  2
DASHED2
 70
    64
  3
__ __ __ __ __ __ __ __ __ __ __ __ __ __ __
 72
    65
 73
     2
 40
3.500000
 49
2.500000
 49
-1.000000
  0
LTYPE
  2
DASHED3
 70
    64
  3
__ __ __ __ __ __ __ __ __ __ __ __ __ __ __
 72
    65
 73
     2
 40
6.000000
 49
4.000000
 49
-2.000000
  0
LTYPE
  2
DASHED4
 70
    64
  3
__ __ __ __ __ __ __ __ __ __ __ __ __ __ __
 72
    65
 73
     2
 40
12.000000
 49
10.000000
 49
-2.000000
  0
LTYPE
  2
DASHED5
 70
    64
  3
__ __ __ __ __ __ __ __ __ __ __ __ __ __ __
 72
    65
 73
     2
 40
17.000000
 49
15.000000
 49
-2.000000
  0
LTYPE
  2
DASHED6
 70
    64
  3
__ __ __ __ __ __ __ __ __ __ __ __ __ __ __
 72
    65
 73
     2
 40
29.000000
 49
27.000000
 49
-2.000000
  0
LTYPE
  2
PHANTOM1
 70
    64
  3
_____ _ _ _____ _ _ _____ _ _ _____ _ _ ____  
 72
    65
 73
     6
 40
31.000000
 49
25.000000
 49
-1.500000
 49
1.000000
 49
-1.000000
 49
1.000000
 49
-1.500000
  0
LTYPE
  2
PHANTOM2
 70
    64
  3
_____ _ _ _____ _ _ _____ _ _ _____ _ _ ____  
 72
    65
 73
     6
 40
36.000000
 49
27.000000
 49
-1.500000
 49
2.500000
 49
-1.000000
 49
2.500000
 49
-1.500000
  0
LTYPE
  2
PHANTOM3
 70
    64
  3
_____ _ _ _____ _ _ _____ _ _ _____ _ _ ____  
 72
    65
 73
     6
 40
78.000000
 49
64.000000
 49
-2.000000
 49
4.000000
 49
-2.000000
 49
4.000000
 49
-2.000000
  0
LTYPE
  2
CENTER1
 70
    64
  3
____ _ ____ _ ____ _ ____ _ ____ _ ____ _ ____
 72
    65
 73
     4
 40
19.000000
 49
14.000000
 49
-1.000000
 49
3.000000
 49
-1.000000
  0
LTYPE
  2
CENTER2
 70
    64
  3
____ _ ____ _ ____ _ ____ _ ____ _ ____ _ ____
 72
    65
 73
     4
 40
28.500000
 49
25.000000
 49
-1.000000
 49
1.500000
 49
-1.000000
  0
LTYPE
  2
CENTER3
 70
    64
  3
____ _ ____ _ ____ _ ____ _ ____ _ ____ _ ____
 72
    65
 73
     4
 40
31.500000
 49
27.000000
 49
-1.000000
 49
2.500000
 49
-1.000000
  0
LTYPE
  2
CENTER4
 70
    64
  3
____ _ ____ _ ____ _ ____ _ ____ _ ____ _ ____
 72
    65
 73
     4
 40
50.000000
 49
45.000000
 49
-1.000000
 49
3.000000
 49
-1.000000
  0
LTYPE
  2
CENTER5
 70
    64
  3
____ _ ____ _ ____ _ ____ _ ____ _ ____ _ ____
 72
    65
 73
     4
 40
100.000000
 49
92.000000
 49
-2.000000
 49
4.000000
 49
-2.000000
  0
LTYPE
  2
SBK1
 70
    64
  3
______ _ _ _ ______ _ _ _ ______ _ _ _ _____  
 72
    65
 73
     8
 40
60.500000
 49
45.000000
 49
-2.000000
 49
2.500000
 49
-2.000000
 49
2.500000
 49
-2.000000
 49
2.500000
 49
-2.000000
  0
LTYPE
  2
SBK2
 70
    64
  3
______ _ _ _ ______ _ _ _ ______ _ _ _ _____  
 72
    65
 73
     8
 40
84.000000
 49
64.000000
 49
-2.000000
 49
4.000000
 49
-2.000000
 49
4.000000
 49
-2.000000
 49
4.000000
 49
-2.000000
  0
LTYPE
  2
STCH
 70
    64
  3
__ __ __ __ __ __ __ __ __ __ __ __ __ __ __
 72
    65
 73
     2
 40
3.000000
 49
1.000000
 49
-2.000000
  0
LTYPE
  2
MTCH
 70
    64
  3
_____ _ _ _____ _ _ _____ _ _ _____ _ _ ____  
 72
    65
 73
     6
 40
80.000000
 49
66.000000
 49
-2.000000
 49
4.000000
 49
-2.000000
 49
4.000000
 49
-2.000000
  0
ENDTAB
  0
TABLE
  2
LAYER
 70
     1
  0
LAYER
  2
0
 70
     0
 62
     7
  6
CONTINUOUS
  0
ENDTAB
  0
TABLE
  2
STYLE
 70
     1
  0
STYLE
  2
STANDARD
 70
     0
 40
0.000000
 41
1.000000
 50
0.000000
 71
     0
 42
0.200000
  3
txt
  4
BIGFONT
  0
ENDTAB
  0
TABLE
  2
VIEW
 70
     0
  0
ENDTAB
  0
ENDSEC
  0
SECTION
  2
BLOCKS
  0
ENDSEC
  0
SECTION
  2
ENTITIES
  0
POINT
  8
0
 10
-250.873596
 20
179.999969
  0
POINT
  8
0
 10
-200.873581
 20
179.999969
  0
POINT
  8
0
 10
-250.873596
 20
54.999977
  0
POINT
  8
0
 10
-200.873566
 20
54.999977
  0
POINT
  8
0
 10
-77.373581
 20
54.999977
  0
POINT
  8
0
 10
-95.873589
 20
-54.558495
  0
POINT
  8
0
 10
-20.873581
 20
-54.558495
  0
POINT
  8
0
 10
-95.873589
 20
-194.558487
  0
POINT
  8
0
 10
-20.873558
 20
-194.558487
  0
POINT
  8
0
 10
129.126404
 20
-194.558487
  0
POINT
  8
0
 10
110.000000
 20
179.999969
  0
POINT
  8
0
 10
170.000031
 20
179.999969
  0
POINT
  8
0
 10
110.000000
 20
54.999977
  0
POINT
  8
0
 10
170.000015
 20
54.999977
  0
POINT
  8
0
 10
292.000000
 20
54.999977
  0
POINT
  8
0
 10
-90.873581
 20
54.999977
  0
POINT
  8
0
 10
275.000000
 20
54.999977
  0
POINT
  8
0
 10
109.126404
 20
-194.558487
  0
LINE
  8
0
 62
     3
 10
218.329163
 20
-225.956436
 11
370.873566
 21
-225.956436
  0
LINE
  8
0
 62
     3
 10
-218.329163
 20
225.956390
 11
-218.329163
 21
254.558487
  0
LINE
  8
0
 62
     3
 10
-370.873566
 20
225.956390
 11
-218.329163
 21
225.956390
  0
LINE
  8
0
 62
     3
 10
-370.873566
 20
254.558487
 11
370.873566
 21
254.558487
  0
LINE
  8
0
 62
     3
 10
-370.873566
 20
-254.558487
 11
370.873566
 21
-254.558487
  0
LINE
  8
0
 62
     3
 10
370.873566
 20
254.558487
 11
370.873566
 21
-254.558487
  0
LINE
  8
0
 62
     3
 10
-370.873566
 20
-254.558487
 11
-370.873566
 21
254.558487
  0
LINE
  8
0
 62
     3
 10
218.329163
 20
-225.956436
 11
218.329163
 21
-254.558487
  0
LINE
  8
0
 62
     3
 10
218.329163
 20
254.558487
 11
218.329163
 21
225.956390
  0
LINE
  8
0
 62
     3
 10
218.329163
 20
225.956390
 11
370.873566
 21
225.956390
  0
LINE
  8
0
 62
     5
 10
258.381622
 20
-232.833740
 11
258.381622
 21
-236.151566
  0
LINE
  8
0
 62
     5
 10
258.381622
 20
-236.151566
 11
270.823547
 21
-236.151566
  0
LINE
  8
0
 62
     5
 10
258.381622
 20
-249.146469
 11
275.247345
 21
-249.146469
  0
LINE
  8
0
 62
     5
 10
258.381622
 20
-245.828644
 11
270.823547
 21
-245.828644
  0
LINE
  8
0
 62
     5
 10
258.381622
 20
-232.833740
 11
273.035400
 21
-232.833740
  0
LINE
  8
0
 62
     5
 10
270.823547
 20
-236.151566
 11
270.823547
 21
-245.828644
  0
LINE
  8
0
 62
     5
 10
275.247345
 20
-235.045654
 11
275.247345
 21
-249.146469
  0
LINE
  8
0
 62
     5
 10
258.381622
 20
-245.828644
 11
258.381622
 21
-249.146469
  0
LINE
  8
0
 62
     5
 10
293.495392
 20
-236.151566
 11
293.495392
 21
-246.934647
  0
LINE
  8
0
 62
     5
 10
277.735657
 20
-232.833740
 11
277.735657
 21
-236.151566
  0
LINE
  8
0
 62
     5
 10
293.937836
 20
-232.584961
 11
295.513824
 21
-232.584961
  0
LINE
  8
0
 62
     5
 10
293.937836
 20
-230.373016
 11
295.513824
 21
-230.373016
  0
LINE
  8
0
 62
     5
 10
295.513824
 20
-230.373016
 11
295.513824
 21
-232.584961
  0
LINE
  8
0
 62
     5
 10
293.937836
 20
-230.373016
 11
293.937836
 21
-232.584961
  0
LINE
  8
0
 62
     5
 10
293.108276
 20
-230.373016
 11
293.108276
 21
-232.584961
  0
LINE
  8
0
 62
     5
 10
282.766052
 20
-230.373016
 11
286.200897
 21
-230.373016
  0
LINE
  8
0
 62
     5
 10
285.541260
 20
-232.833466
 11
286.200562
 21
-230.372711
  0
LINE
  8
0
 62
     5
 10
282.106689
 20
-232.833710
 11
282.766022
 21
-230.372986
  0
LINE
  8
0
 62
     5
 10
285.541565
 20
-232.833740
 11
290.177551
 21
-232.833740
  0
LINE
  8
0
 62
     5
 10
284.652557
 20
-236.151566
 11
289.071625
 21
-236.151566
  0
LINE
  8
0
 62
     5
 10
286.642853
 20
-249.146469
 11
291.283569
 21
-249.146469
  0
LINE
  8
0
 62
     5
 10
285.753693
 20
-245.828583
 11
286.642731
 21
-249.146347
  0
LINE
  8
0
 62
     5
 10
285.753754
 20
-245.828644
 11
289.071625
 21
-245.828644
  0
LINE
  8
0
 62
     5
 10
281.170746
 20
-249.146637
 11
284.652679
 21
-236.151733
  0
LINE
  8
0
 62
     5
 10
277.735657
 20
-236.151566
 11
281.217682
 21
-236.151566
  0
LINE
  8
0
 62
     5
 10
277.735413
 20
-249.146210
 11
281.217468
 21
-236.151337
  0
LINE
  8
0
 62
     5
 10
277.735657
 20
-249.146469
 11
281.170593
 21
-249.146469
  0
LINE
  8
0
 62
     5
 10
277.735657
 20
-232.833740
 11
282.106689
 21
-232.833740
  0
LINE
  8
0
 62
     5
 10
289.071625
 20
-236.151566
 11
289.071625
 21
-245.828644
  0
LINE
  8
0
 62
     5
 10
291.532288
 20
-230.373016
 11
293.108276
 21
-230.373016
  0
LINE
  8
0
 62
     5
 10
291.532288
 20
-232.584961
 11
293.108276
 21
-232.584961
  0
LINE
  8
0
 62
     5
 10
291.532288
 20
-230.373016
 11
291.532288
 21
-232.584961
  0
LINE
  8
0
 62
     5
 10
301.513550
 20
-230.373016
 11
305.937286
 21
-230.373016
  0
LINE
  8
0
 62
     5
 10
308.342316
 20
-240.195053
 11
311.296204
 21
-238.817642
  0
LINE
  8
0
 62
     5
 10
305.937286
 20
-242.734406
 11
305.937286
 21
-249.146469
  0
LINE
  8
0
 62
     5
 10
301.513550
 20
-243.379044
 11
301.513550
 21
-249.146469
  0
LINE
  8
0
 62
     5
 10
305.937286
 20
-232.833740
 11
310.361115
 21
-232.833740
  0
LINE
  8
0
 62
     5
 10
305.937286
 20
-230.373016
 11
305.937286
 21
-232.833740
  0
LINE
  8
0
 62
     5
 10
301.513550
 20
-230.373016
 11
301.513550
 21
-232.833740
  0
LINE
  8
0
 62
     5
 10
312.572998
 20
-235.045654
 11
312.572998
 21
-236.812775
  0
LINE
  8
0
 62
     5
 10
308.342377
 20
-240.195038
 11
312.573395
 21
-242.168030
  0
LINE
  8
0
 62
     5
 10
305.937256
 20
-242.734329
 11
312.573059
 21
-245.828613
  0
LINE
  8
0
 62
     5
 10
296.260284
 20
-242.167801
 11
296.260284
 21
-245.828644
  0
LINE
  8
0
 62
     5
 10
296.260742
 20
-242.168167
 11
309.162567
 21
-236.151932
  0
LINE
  8
0
 62
     5
 10
296.260254
 20
-245.828598
 11
301.513580
 21
-243.378937
  0
LINE
  8
0
 62
     5
 10
312.572998
 20
-242.167801
 11
312.572998
 21
-245.828644
  0
LINE
  8
0
 62
     5
 10
296.260284
 20
-232.833740
 11
296.260284
 21
-236.151566
  0
LINE
  8
0
 62
     5
 10
301.513550
 20
-249.146469
 11
305.937286
 21
-249.146469
  0
LINE
  8
0
 62
     5
 10
296.260284
 20
-236.151566
 11
309.162079
 21
-236.151566
  0
LINE
  8
0
 62
     5
 10
296.260284
 20
-232.833740
 11
301.513550
 21
-232.833740
  0
LINE
  8
0
 62
     5
 10
327.503998
 20
-236.404739
 11
328.730042
 21
-235.917068
  0
LINE
  8
0
 62
     5
 10
327.503357
 20
-236.404404
 11
327.503357
 21
-249.146469
  0
LINE
  8
0
 62
     5
 10
323.079498
 20
-249.146469
 11
327.503357
 21
-249.146469
  0
LINE
  8
0
 62
     5
 10
313.955292
 20
-241.792511
 11
323.079376
 21
-238.163742
  0
LINE
  8
0
 62
     5
 10
313.955536
 20
-238.221954
 11
326.806152
 21
-233.111084
  0
LINE
  8
0
 62
     5
 10
323.079498
 20
-238.163773
 11
323.079498
 21
-249.146469
  0
LINE
  8
0
 62
     5
 10
327.503357
 20
-231.368408
 11
327.503357
 21
-232.083389
  0
LINE
  8
0
 62
     5
 10
330.821106
 20
-231.368408
 11
330.821106
 21
-232.833755
  0
LINE
  8
0
 62
     5
 10
313.955444
 20
-238.221893
 11
313.955444
 21
-241.792496
  0
LINE
  8
0
 62
     5
 10
327.503357
 20
-231.368408
 11
330.821106
 21
-231.368408
  0
LINE
  8
0
 10
0.000000
 20
-0.000023
 11
0.000000
 21
254.558487
  0
LINE
  8
0
 10
-370.873566
 20
-0.000023
 11
370.873566
 21
-0.000023
  0
LINE
  8
0
  6
CENTER
 10
-195.873581
 20
179.999969
 11
-305.873596
 21
179.999969
  0
LINE
  8
0
  6
CENTER
 10
-90.873581
 20
93.999969
 11
-90.873581
 21
24.999996
  0
LINE
  8
0
  6
CENTER
 10
-73.873581
 20
54.999977
 11
-107.873581
 21
54.999977
  0
LINE
  8
0
  6
PHANTOM
 10
-84.873581
 20
69.999985
 11
-84.873581
 21
68.999985
  0
LINE
  8
0
  6
PHANTOM
 10
-96.873581
 20
70.000000
 11
-96.873581
 21
69.000000
  0
LINE
  8
0
  6
PHANTOM
 10
-89.173584
 20
70.000000
 11
-89.173584
 21
69.000000
  0
LINE
  8
0
  6
PHANTOM
 10
-92.573593
 20
70.000000
 11
-92.573593
 21
69.000000
  0
LINE
  8
0
  6
PHANTOM
 10
-87.873581
 20
68.999977
 11
-89.173584
 21
68.999977
  0
LINE
  8
0
  6
PHANTOM
 10
-88.873581
 20
66.499977
 11
-92.873581
 21
66.499977
  0
LINE
  8
0
  6
PHANTOM
 10
-87.873581
 20
68.999985
 11
-87.873581
 21
67.499985
  0
LINE
  8
0
  6
PHANTOM
 10
-93.873581
 20
69.000000
 11
-93.873581
 21
67.500000
  0
LINE
  8
0
  6
PHANTOM
 10
-87.873558
 20
67.499969
 11
-88.873566
 21
66.499969
  0
LINE
  8
0
  6
PHANTOM
 10
-92.873573
 20
66.500031
 11
-93.873573
 21
67.500031
  0
LINE
  8
0
  6
PHANTOM
 10
-99.873581
 20
42.999996
 11
-99.873581
 21
39.999977
  0
LINE
  8
0
  6
PHANTOM
 10
-81.873581
 20
42.999989
 11
-81.873581
 21
36.175400
  0
LINE
  8
0
  6
CENTER
 10
-76.873581
 20
32.999977
 11
-107.873581
 21
32.999977
  0
LINE
  8
0
  6
PHANTOM
 10
-199.125839
 20
69.999977
 11
-218.373596
 21
69.999977
  0
LINE
  8
0
  6
PHANTOM
 10
-200.873581
 20
66.999977
 11
-218.373596
 21
66.999977
  0
LINE
  8
0
  6
PHANTOM
 10
-212.873581
 20
29.999975
 11
-218.373596
 21
29.999975
  0
LINE
  8
0
  6
CENTER
 10
-250.873596
 20
93.999977
 11
-250.873596
 21
24.999966
  0
LINE
  8
0
  6
PHANTOM
 10
-288.873596
 20
41.999981
 11
-288.873596
 21
29.999981
  0
LINE
  8
0
  6
PHANTOM
 10
-212.873581
 20
41.999966
 11
-212.873581
 21
29.999966
  0
LINE
  8
0
  6
PHANTOM
 10
-212.373581
 20
41.999977
 11
-218.373596
 21
41.999977
  0
LINE
  8
0
  6
CENTER
 10
-195.873581
 20
54.999977
 11
-305.873566
 21
54.999977
  0
LINE
  8
0
  6
PHANTOM
 10
-200.873581
 20
168.000000
 11
-218.373596
 21
168.000000
  0
LINE
  8
0
  6
PHANTOM
 10
-200.873581
 20
191.999969
 11
-240.873596
 21
191.999969
  0
LINE
  8
0
  6
CENTER
 10
-250.873596
 20
198.999969
 11
-250.873596
 21
143.999969
  0
LINE
  8
0
  6
PHANTOM
 10
-199.554886
 20
42.999977
 11
-218.373596
 21
42.999977
  0
LINE
  8
0
  6
PHANTOM
 10
-102.873581
 20
63.999996
 11
-102.873581
 21
45.999996
  0
LINE
  8
0
  6
PHANTOM
 10
-78.873581
 20
63.999989
 11
-78.873581
 21
45.999989
  0
LINE
  8
0
  6
PHANTOM
 10
-81.873581
 20
42.999977
 11
-99.873581
 21
42.999977
  0
LINE
  8
0
  6
PHANTOM
 10
-81.873581
 20
66.999977
 11
-82.873581
 21
66.999977
  0
LINE
  8
0
  6
PHANTOM
 10
-98.873581
 20
66.999977
 11
-99.873581
 21
66.999977
  0
LINE
  8
0
  6
PHANTOM
 10
-81.873581
 20
41.999977
 11
-99.873581
 21
41.999977
  0
LINE
  8
0
  6
PHANTOM
 10
-200.250870
 20
178.299988
 11
-218.373596
 21
178.299988
  0
LINE
  8
0
  6
PHANTOM
 10
-201.496307
 20
181.699982
 11
-218.373596
 21
181.699982
  0
LINE
  8
0
  6
PHANTOM
 10
-202.125854
 20
185.999969
 11
-218.373596
 21
185.999969
  0
LINE
  8
0
  6
PHANTOM
 10
-199.621323
 20
173.999969
 11
-218.373596
 21
173.999969
  0
LINE
  8
0
  6
PHANTOM
 10
-283.373596
 20
178.299988
 11
-300.250854
 21
178.299988
  0
LINE
  8
0
  6
PHANTOM
 10
-283.373596
 20
181.699982
 11
-301.496307
 21
181.699982
  0
LINE
  8
0
  6
PHANTOM
 10
-283.373596
 20
185.999969
 11
-302.125854
 21
185.999969
  0
LINE
  8
0
  6
PHANTOM
 10
-81.873581
 20
29.999975
 11
-99.873581
 21
29.999975
  0
LINE
  8
0
  6
PHANTOM
 10
-84.873581
 20
69.999977
 11
-89.173584
 21
69.999977
  0
LINE
  8
0
  6
PHANTOM
 10
-283.373596
 20
29.999975
 11
-288.873596
 21
29.999975
  0
LINE
  8
0
  6
PHANTOM
 10
-283.373596
 20
173.999969
 11
-299.621307
 21
173.999969
  0
LINE
  8
0
  6
PHANTOM
 10
-283.373596
 20
168.000000
 11
-300.873596
 21
168.000000
  0
LINE
  8
0
  6
PHANTOM
 10
-92.573593
 20
68.999977
 11
-93.873581
 21
68.999977
  0
LINE
  8
0
  6
PHANTOM
 10
-92.573593
 20
69.999977
 11
-96.873581
 21
69.999977
  0
LINE
  8
0
  6
PHANTOM
 10
-283.373596
 20
41.999977
 11
-289.373596
 21
41.999977
  0
LINE
  8
0
  6
PHANTOM
 10
-283.373596
 20
42.999977
 11
-300.873596
 21
42.999977
  0
LINE
  8
0
  6
PHANTOM
 10
-283.373596
 20
66.999977
 11
-302.192261
 21
66.999977
  0
LINE
  8
0
  6
PHANTOM
 10
-283.373596
 20
69.999977
 11
-300.873566
 21
69.999977
  0
LINE
  8
0
  6
PHANTOM
 10
-260.873596
 20
191.999969
 11
-300.873596
 21
191.999969
  0
LINE
  8
0
  6
CENTER
 10
175.000000
 20
54.999977
 11
45.000015
 21
54.999977
  0
LINE
  8
0
  6
CENTER
 10
175.000000
 20
179.999969
 11
45.000000
 21
179.999969
  0
LINE
  8
0
  6
CENTER
 10
295.500000
 20
54.999977
 11
254.500000
 21
54.999977
  0
LINE
  8
0
  6
CENTER
 10
275.000000
 20
103.499977
 11
275.000000
 21
17.999985
  0
LINE
  8
0
  6
PHANTOM
 10
283.000000
 20
73.999985
 11
277.200012
 21
73.999985
  0
LINE
  8
0
  6
PHANTOM
 10
288.000000
 20
22.999985
 11
262.000000
 21
22.999985
  0
LINE
  8
0
  6
PHANTOM
 10
272.799988
 20
73.999985
 11
272.799988
 21
72.999985
  0
LINE
  8
0
  6
PHANTOM
 10
277.200012
 20
73.999985
 11
277.200012
 21
72.999985
  0
LINE
  8
0
  6
PHANTOM
 10
283.000000
 20
73.999985
 11
283.000000
 21
72.499985
  0
LINE
  8
0
  6
PHANTOM
 10
267.000000
 20
73.999985
 11
267.000000
 21
72.499985
  0
LINE
  8
0
  6
PHANTOM
 10
271.250000
 20
72.999985
 11
271.250000
 21
71.499985
  0
LINE
  8
0
  6
PHANTOM
 10
278.750000
 20
72.999985
 11
278.750000
 21
71.499985
  0
LINE
  8
0
  6
PHANTOM
 10
278.750000
 20
72.999985
 11
277.200012
 21
72.999985
  0
LINE
  8
0
  6
PHANTOM
 10
276.750000
 20
69.499977
 11
273.250000
 21
69.499977
  0
LINE
  8
0
  6
PHANTOM
 10
262.000000
 20
39.499985
 11
262.000000
 21
36.499985
  0
LINE
  8
0
  6
PHANTOM
 10
288.000000
 20
39.499985
 11
288.000000
 21
31.041439
  0
LINE
  8
0
  6
CENTER
 10
293.799988
 20
26.999985
 11
251.000000
 21
26.999985
  0
LINE
  8
0
  6
PHANTOM
 10
170.000000
 20
73.999985
 11
150.000000
 21
73.999985
  0
LINE
  8
0
  6
PHANTOM
 10
168.520935
 20
70.499977
 11
150.000000
 21
70.499977
  0
LINE
  8
0
  6
CENTER
 10
110.000000
 20
103.499977
 11
110.000000
 21
17.999969
  0
LINE
  8
0
  6
PHANTOM
 10
158.000000
 20
37.499954
 11
158.000000
 21
22.999954
  0
LINE
  8
0
  6
PHANTOM
 10
62.000000
 20
37.499985
 11
62.000000
 21
22.999985
  0
LINE
  8
0
  6
PHANTOM
 10
158.000015
 20
37.499985
 11
150.000000
 21
37.499985
  0
LINE
  8
0
  6
PHANTOM
 10
170.000000
 20
164.499969
 11
150.000000
 21
164.499969
  0
LINE
  8
0
  6
CENTER
 10
110.000000
 20
138.499969
 11
110.000000
 21
204.299973
  0
LINE
  8
0
  6
PHANTOM
 10
170.000015
 20
39.499977
 11
150.000000
 21
39.499977
  0
LINE
  8
0
  6
PHANTOM
 10
259.500000
 20
67.499985
 11
259.500000
 21
42.499985
  0
LINE
  8
0
  6
PHANTOM
 10
290.500000
 20
67.499985
 11
290.500000
 21
42.499985
  0
LINE
  8
0
  6
PHANTOM
 10
288.000000
 20
39.499977
 11
262.000000
 21
39.499977
  0
LINE
  8
0
  6
PHANTOM
 10
287.500000
 20
70.499977
 11
285.000000
 21
70.499977
  0
LINE
  8
0
  6
PHANTOM
 10
265.000000
 20
70.499977
 11
262.500000
 21
70.499977
  0
LINE
  8
0
  6
PHANTOM
 10
288.000000
 20
37.499985
 11
262.000000
 21
37.499985
  0
LINE
  8
0
  6
PHANTOM
 10
169.222916
 20
182.199966
 11
150.000000
 21
182.199966
  0
LINE
  8
0
  6
PHANTOM
 10
170.777115
 20
177.799973
 11
150.000000
 21
177.799973
  0
LINE
  8
0
  6
PHANTOM
 10
171.561050
 20
171.999969
 11
150.000000
 21
171.999969
  0
LINE
  8
0
  6
PHANTOM
 10
168.438980
 20
187.999969
 11
150.000000
 21
187.999969
  0
LINE
  8
0
  6
PHANTOM
 10
70.000000
 20
73.999985
 11
50.000000
 21
73.999985
  0
LINE
  8
0
  6
PHANTOM
 10
70.000000
 20
70.499977
 11
48.520935
 21
70.499977
  0
LINE
  8
0
  6
PHANTOM
 10
70.000000
 20
171.999969
 11
51.561043
 21
171.999969
  0
LINE
  8
0
  6
PHANTOM
 10
70.000000
 20
177.799973
 11
50.777122
 21
177.799973
  0
LINE
  8
0
  6
PHANTOM
 10
70.000000
 20
182.199966
 11
49.222904
 21
182.199966
  0
LINE
  8
0
  6
PHANTOM
 10
158.000000
 20
22.999985
 11
150.000000
 21
22.999985
  0
LINE
  8
0
  6
PHANTOM
 10
70.000000
 20
22.999985
 11
62.000000
 21
22.999985
  0
LINE
  8
0
  6
PHANTOM
 10
70.000000
 20
187.999969
 11
48.438980
 21
187.999969
  0
LINE
  8
0
  6
PHANTOM
 10
170.000031
 20
195.499985
 11
123.000000
 21
195.499985
  0
LINE
  8
0
  6
PHANTOM
 10
70.000000
 20
39.499977
 11
50.000015
 21
39.499977
  0
LINE
  8
0
  6
PHANTOM
 10
70.000000
 20
37.499985
 11
62.000015
 21
37.499985
  0
LINE
  8
0
  6
PHANTOM
 10
272.799988
 20
73.999985
 11
267.000000
 21
73.999985
  0
LINE
  8
0
  6
PHANTOM
 10
272.799988
 20
72.999985
 11
271.250000
 21
72.999985
  0
LINE
  8
0
  6
PHANTOM
 10
97.000000
 20
195.499985
 11
50.000023
 21
195.499985
  0
LINE
  8
0
  6
CENTER
 10
-15.873596
 20
-54.558495
 11
-175.873596
 21
-54.558495
  0
LINE
  8
0
  6
CENTER
 10
-15.873596
 20
-194.558487
 11
-175.873566
 21
-194.558487
  0
LINE
  8
0
  6
CENTER
 10
109.126404
 20
-237.558472
 11
109.126404
 21
-137.558487
  0
LINE
  8
0
  6
CENTER
 10
132.126404
 20
-194.558487
 11
86.126404
 21
-194.558487
  0
LINE
  8
0
  6
PHANTOM
 10
118.126404
 20
-172.558487
 11
111.326416
 21
-172.558487
  0
LINE
  8
0
  6
PHANTOM
 10
122.126434
 20
-232.558502
 11
96.126404
 21
-232.558502
  0
LINE
  8
0
  6
PHANTOM
 10
122.126434
 20
-214.558487
 11
96.126434
 21
-214.558487
  0
LINE
  8
0
  6
PHANTOM
 10
122.126404
 20
-232.558472
 11
122.126404
 21
-232.177307
  0
LINE
  8
0
  6
CENTER
 10
128.626404
 20
-227.558502
 11
86.126404
 21
-227.558502
  0
LINE
  8
0
  6
PHANTOM
 10
106.926422
 20
-173.558472
 11
106.926422
 21
-172.558472
  0
LINE
  8
0
  6
PHANTOM
 10
111.326416
 20
-173.558472
 11
111.326416
 21
-172.558472
  0
LINE
  8
0
  6
PHANTOM
 10
106.926422
 20
-172.558487
 11
100.126434
 21
-172.558487
  0
LINE
  8
0
  6
PHANTOM
 10
100.126404
 20
-173.558472
 11
100.126404
 21
-172.558472
  0
LINE
  8
0
  6
PHANTOM
 10
118.126404
 20
-173.558472
 11
118.126404
 21
-172.558472
  0
LINE
  8
0
  6
PHANTOM
 10
112.876404
 20
-173.558487
 11
111.326416
 21
-173.558487
  0
LINE
  8
0
  6
PHANTOM
 10
112.876404
 20
-175.058472
 11
112.876404
 21
-173.558472
  0
LINE
  8
0
  6
PHANTOM
 10
105.376404
 20
-175.058472
 11
105.376404
 21
-173.558472
  0
LINE
  8
0
  6
PHANTOM
 10
110.876434
 20
-177.058487
 11
107.376434
 21
-177.058487
  0
LINE
  8
0
  6
PHANTOM
 10
-20.873566
 20
-172.558487
 11
-45.873589
 21
-172.558487
  0
LINE
  8
0
  6
PHANTOM
 10
-22.423615
 20
-176.558487
 11
-45.873589
 21
-176.558487
  0
LINE
  8
0
  6
CENTER
 10
-95.873589
 20
-237.558502
 11
-95.873589
 21
-137.558487
  0
LINE
  8
0
  6
PHANTOM
 10
-35.873566
 20
-232.558502
 11
-45.873589
 21
-232.558502
  0
LINE
  8
0
  6
PHANTOM
 10
-155.873596
 20
-232.558502
 11
-155.873596
 21
-214.558487
  0
LINE
  8
0
  6
PHANTOM
 10
-35.873596
 20
-232.558502
 11
-35.873596
 21
-214.558502
  0
LINE
  8
0
  6
PHANTOM
 10
-35.873566
 20
-214.558487
 11
-45.873589
 21
-214.558487
  0
LINE
  8
0
  6
PHANTOM
 10
-145.873596
 20
-232.558502
 11
-155.873566
 21
-232.558502
  0
LINE
  8
0
  6
PHANTOM
 10
-20.873596
 20
-72.558495
 11
-45.873589
 21
-72.558495
  0
LINE
  8
0
  6
PHANTOM
 10
-20.873566
 20
-36.558495
 11
-79.873589
 21
-36.558495
  0
LINE
  8
0
  6
CENTER
 10
-95.873589
 20
-99.558502
 11
-95.873589
 21
-28.558487
  0
LINE
  8
0
  6
PHANTOM
 10
122.126434
 20
-212.558487
 11
96.126434
 21
-212.558487
  0
LINE
  8
0
  6
PHANTOM
 10
121.126434
 20
-176.558487
 11
121.126434
 21
-176.558487
  0
LINE
  8
0
  6
PHANTOM
 10
91.126404
 20
-206.558472
 11
91.126404
 21
-182.558472
  0
LINE
  8
0
  6
PHANTOM
 10
127.126404
 20
-206.558472
 11
127.126404
 21
-182.558472
  0
LINE
  8
0
  6
PHANTOM
 10
97.126434
 20
-176.558487
 11
97.126434
 21
-176.558487
  0
LINE
  8
0
  6
PHANTOM
 10
-20.873566
 20
-212.558487
 11
-45.873589
 21
-212.558487
  0
LINE
  8
0
  6
PHANTOM
 10
-145.873596
 20
-172.558487
 11
-170.873566
 21
-172.558487
  0
LINE
  8
0
  6
PHANTOM
 10
-145.873596
 20
-176.558487
 11
-172.423615
 21
-176.558487
  0
LINE
  8
0
  6
PHANTOM
 10
-145.873596
 20
-212.558487
 11
-170.873566
 21
-212.558487
  0
LINE
  8
0
  6
PHANTOM
 10
-145.873596
 20
-214.558487
 11
-155.873566
 21
-214.558487
  0
LINE
  8
0
  6
PHANTOM
 10
-145.873596
 20
-72.558495
 11
-170.873596
 21
-72.558495
  0
LINE
  8
0
  6
PHANTOM
 10
122.126404
 20
-222.939697
 11
122.126404
 21
-212.558472
  0
LINE
  8
0
  6
PHANTOM
 10
96.126404
 20
-216.558502
 11
96.126404
 21
-212.558472
  0
LINE
  8
0
  6
PHANTOM
 10
-20.139954
 20
-56.758499
 11
-45.873589
 21
-56.758499
  0
LINE
  8
0
  6
PHANTOM
 10
-21.607208
 20
-52.358490
 11
-45.873589
 21
-52.358490
  0
LINE
  8
0
  6
PHANTOM
 10
-19.197388
 20
-63.558495
 11
-45.873589
 21
-63.558495
  0
LINE
  8
0
  6
PHANTOM
 10
-22.549774
 20
-45.558495
 11
-45.873589
 21
-45.558495
  0
LINE
  8
0
  6
PHANTOM
 10
-145.873596
 20
-45.558495
 11
-172.549774
 21
-45.558495
  0
LINE
  8
0
  6
PHANTOM
 10
-145.873596
 20
-52.358490
 11
-171.607193
 21
-52.358490
  0
LINE
  8
0
  6
PHANTOM
 10
-145.873596
 20
-56.758499
 11
-170.139969
 21
-56.758499
  0
LINE
  8
0
  6
PHANTOM
 10
-145.873596
 20
-63.558495
 11
-169.197388
 21
-63.558495
  0
LINE
  8
0
  6
PHANTOM
 10
106.926422
 20
-173.558487
 11
105.376434
 21
-173.558487
  0
LINE
  8
0
  6
PHANTOM
 10
-111.873596
 20
-36.558495
 11
-170.873566
 21
-36.558495
  0
LINE
  8
0
  6
PHANTOM
 10
50.000000
 20
164.499969
 11
70.000000
 21
164.499969
  0
LINE
  8
0
 10
-258.462006
 20
75.999954
 11
-252.373566
 21
75.999954
  0
LINE
  8
0
  6
CENTER
 10
-231.873566
 20
76.999954
 11
-237.873566
 21
76.999954
  0
LINE
  8
0
  6
CENTER
 10
-269.873566
 20
76.999954
 11
-263.873566
 21
76.999954
  0
LINE
  8
0
 10
-283.373566
 20
79.999954
 11
-259.533813
 21
79.999954
  0
LINE
  8
0
 10
-218.373566
 20
79.999954
 11
-218.373566
 21
29.999956
  0
LINE
  8
0
 10
-283.373566
 20
79.999954
 11
-283.373566
 21
29.999956
  0
LINE
  8
0
 10
-252.373566
 20
76.999954
 11
-249.373566
 21
76.999954
  0
LINE
  8
0
 10
-240.873566
 20
84.999954
 11
-240.873566
 21
88.999954
  0
LINE
  8
0
 10
-260.873566
 20
88.999954
 11
-240.873566
 21
88.999954
  0
LINE
  8
0
 10
-260.873566
 20
84.999954
 11
-260.873566
 21
88.999954
  0
LINE
  8
0
 10
-240.873566
 20
84.999954
 11
-218.373566
 21
84.999954
  0
LINE
  8
0
 10
-283.373566
 20
29.999956
 11
-218.373566
 21
29.999956
  0
LINE
  8
0
 10
-283.373566
 20
84.999954
 11
-260.873566
 21
84.999954
  0
LINE
  8
0
 10
-218.373566
 20
79.999954
 11
-218.373566
 21
84.999954
  0
LINE
  8
0
 10
-283.373566
 20
79.999954
 11
-283.373566
 21
84.999954
  0
LINE
  8
0
 10
-249.373566
 20
75.999954
 11
-243.285095
 21
75.999954
  0
LINE
  8
0
  6
CENTER
 10
-231.873566
 20
32.999958
 11
-237.873566
 21
32.999958
  0
LINE
  8
0
 10
-249.373566
 20
75.999954
 11
-249.373566
 21
83.999954
  0
LINE
  8
0
 10
-252.373566
 20
75.999954
 11
-252.373566
 21
83.999954
  0
LINE
  8
0
 10
-240.873489
 20
84.999939
 11
-243.285034
 21
75.999931
  0
LINE
  8
0
 10
-260.873749
 20
84.999908
 11
-258.462219
 21
75.999901
  0
LINE
  8
0
 10
-282.373566
 20
45.845215
 11
-219.373566
 21
45.845215
  0
LINE
  8
0
 10
-282.373566
 20
64.673813
 11
-219.373566
 21
64.673813
  0
LINE
  8
0
 10
-242.213287
 20
79.999954
 11
-218.373566
 21
79.999954
  0
LINE
  8
0
 10
-283.373566
 20
73.999954
 11
-218.373566
 21
73.999954
  0
LINE
  8
0
  6
CENTER
 10
-266.873566
 20
79.999954
 11
-266.873566
 21
73.999954
  0
LINE
  8
0
  6
CENTER
 10
-253.873566
 20
79.999954
 11
-247.873566
 21
79.999954
  0
LINE
  8
0
  6
CENTER
 10
-234.873566
 20
79.999954
 11
-234.873566
 21
73.999954
  0
LINE
  8
0
  6
CENTER
 10
-234.873566
 20
35.999958
 11
-234.873566
 21
29.999956
  0
LINE
  8
0
 10
-282.373566
 20
37.917984
 11
-219.373566
 21
37.917984
  0
LINE
  8
0
  6
CENTER
 10
-266.873566
 20
35.999958
 11
-266.873566
 21
29.999956
  0
LINE
  8
0
  6
CENTER
 10
-269.873566
 20
32.999958
 11
-263.873566
 21
32.999958
  0
LINE
  8
0
 10
-278.123566
 20
179.278290
 11
-276.873566
 21
178.556595
  0
LINE
  8
0
 10
-278.123596
 20
180.721649
 11
-278.123596
 21
179.278290
  0
LINE
  8
0
 10
-260.873596
 20
188.999969
 11
-283.373596
 21
188.999969
  0
LINE
  8
0
 10
-260.873596
 20
170.999969
 11
-283.373596
 21
170.999969
  0
LINE
  8
0
 10
-276.873718
 20
181.443604
 11
-278.123688
 21
180.721924
  0
LINE
  8
0
 10
-275.623596
 20
180.721680
 11
-276.873566
 21
181.443359
  0
LINE
  8
0
 10
-218.373596
 20
148.999969
 11
-283.373596
 21
148.999969
  0
LINE
  8
0
 10
-218.373596
 20
188.999969
 11
-240.873596
 21
188.999969
  0
LINE
  8
0
 10
-283.373596
 20
148.999969
 11
-283.373596
 21
188.999969
  0
LINE
  8
0
 10
-218.373596
 20
148.999969
 11
-218.373596
 21
188.999969
  0
LINE
  8
0
 10
-275.623596
 20
179.278290
 11
-275.623596
 21
180.721649
  0
LINE
  8
0
 10
-218.373596
 20
170.999969
 11
-240.873596
 21
170.999969
  0
LINE
  8
0
 10
-276.873596
 20
178.556686
 11
-275.623596
 21
179.278366
  0
LINE
  8
0
 10
-252.373596
 20
193.999969
 11
-249.373596
 21
193.999969
  0
LINE
  8
0
 10
-252.373596
 20
165.999969
 11
-249.373596
 21
165.999969
  0
LINE
  8
0
 10
-249.373596
 20
193.999969
 11
-249.373596
 21
192.499969
  0
LINE
  8
0
 10
-252.373596
 20
193.999969
 11
-252.373596
 21
192.499969
  0
LINE
  8
0
 10
-252.373596
 20
167.499969
 11
-252.373596
 21
165.999969
  0
LINE
  8
0
 10
-249.373596
 20
167.499969
 11
-249.373596
 21
165.999969
  0
LINE
  8
0
 10
-283.373596
 20
174.999969
 11
-260.873596
 21
174.999969
  0
LINE
  8
0
 10
-283.373596
 20
184.999969
 11
-260.873596
 21
184.999969
  0
LINE
  8
0
 10
-240.873596
 20
184.999969
 11
-218.373596
 21
184.999969
  0
LINE
  8
0
 10
-240.873596
 20
174.999969
 11
-218.373596
 21
174.999969
  0
LINE
  8
0
 10
-223.623596
 20
180.721649
 11
-223.623596
 21
179.278290
  0
LINE
  8
0
 10
-224.873566
 20
181.443405
 11
-223.623550
 21
180.721710
  0
LINE
  8
0
 10
-226.123550
 20
180.721634
 11
-224.873550
 21
181.443329
  0
LINE
  8
0
 10
-226.123596
 20
179.278290
 11
-226.123596
 21
180.721649
  0
LINE
  8
0
 10
-224.873566
 20
178.556595
 11
-226.123581
 21
179.278290
  0
LINE
  8
0
 10
-223.623520
 20
179.278259
 11
-224.873505
 21
178.556580
  0
LINE
  8
0
 10
-260.873596
 20
192.499969
 11
-260.873596
 21
167.499969
  0
LINE
  8
0
 10
-240.873596
 20
192.499969
 11
-240.873596
 21
167.499969
  0
LINE
  8
0
 10
-260.873596
 20
167.499969
 11
-240.873596
 21
167.499969
  0
LINE
  8
0
 10
-260.873596
 20
192.499969
 11
-240.873596
 21
192.499969
  0
LINE
  8
0
  6
CENTER
 10
-276.873596
 20
184.499969
 11
-276.873596
 21
175.499969
  0
LINE
  8
0
  6
CENTER
 10
-255.873596
 20
182.999969
 11
-255.873596
 21
176.999969
  0
LINE
  8
0
  6
CENTER
 10
-245.873596
 20
182.999969
 11
-245.873596
 21
176.999969
  0
LINE
  8
0
  6
CENTER
 10
-224.873596
 20
184.499969
 11
-224.873596
 21
175.499969
  0
LINE
  8
0
 10
-104.873535
 20
81.999954
 11
-103.373535
 21
81.999954
  0
LINE
  8
0
 10
-104.873535
 20
77.999954
 11
-103.373535
 21
77.999954
  0
LINE
  8
0
 10
-78.373535
 20
81.999954
 11
-76.873535
 21
81.999954
  0
LINE
  8
0
 10
-101.373535
 20
81.999954
 11
-95.873535
 21
81.999954
  0
LINE
  8
0
 10
-85.873535
 20
81.999954
 11
-80.373535
 21
81.999954
  0
LINE
  8
0
 10
-101.373535
 20
77.999954
 11
-99.873535
 21
77.999954
  0
LINE
  8
0
 10
-104.873535
 20
36.643841
 11
-104.873535
 21
29.999977
  0
LINE
  8
0
 10
-99.873535
 20
29.999956
 11
-104.873535
 21
29.999956
  0
LINE
  8
0
 10
-99.873535
 20
39.999958
 11
-99.873535
 21
29.999977
  0
LINE
  8
0
 10
-81.873535
 20
79.999954
 11
-99.873535
 21
79.999954
  0
LINE
  8
0
 10
-81.873535
 20
79.999954
 11
-81.873535
 21
73.999954
  0
LINE
  8
0
 10
-81.873535
 20
73.999954
 11
-94.873535
 21
73.999954
  0
LINE
  8
0
 10
-99.873535
 20
79.999954
 11
-99.873535
 21
73.999954
  0
LINE
  8
0
 10
-99.873535
 20
73.999954
 11
-101.873535
 21
73.999954
  0
LINE
  8
0
 10
-121.873535
 20
59.577244
 11
-121.873535
 21
50.941772
  0
LINE
  8
0
 10
-101.873528
 20
73.999931
 11
-117.254456
 21
66.827690
  0
LINE
  8
0
 10
-99.873520
 20
39.999950
 11
-115.563980
 21
47.316532
  0
LINE
  8
0
 10
-106.028328
 20
38.456474
 11
-117.254509
 21
43.691330
  0
LINE
  8
0
 10
-117.873535
 20
59.577244
 11
-117.873535
 21
50.941772
  0
LINE
  8
0
 10
-97.666344
 20
71.548256
 11
-115.563988
 21
63.202446
  0
LINE
  8
0
 10
-94.873543
 20
73.999985
 11
-96.528412
 21
72.345116
  0
LINE
  8
0
 10
-81.873535
 20
36.175381
 11
-81.873535
 21
29.824530
  0
LINE
  8
0
 10
-78.373535
 20
82.499954
 11
-76.873535
 21
82.499954
  0
LINE
  8
0
 10
-81.873535
 20
77.499954
 11
-80.373535
 21
77.499954
  0
LINE
  8
0
 10
-81.873535
 20
36.175381
 11
-80.119156
 21
36.175381
  0
LINE
  8
0
 10
-81.873535
 20
34.587669
 11
-80.119156
 21
34.587669
  0
LINE
  8
0
 10
-81.873535
 20
31.412243
 11
-80.119156
 21
31.412243
  0
LINE
  8
0
 10
-81.873535
 20
29.824530
 11
-80.119156
 21
29.824530
  0
LINE
  8
0
 10
-79.873535
 20
35.749958
 11
-79.873535
 21
30.249956
  0
LINE
  8
0
 10
-79.873550
 20
35.749958
 11
-80.119171
 21
36.175385
  0
LINE
  8
0
 10
-79.873528
 20
30.249960
 11
-80.119148
 21
29.824539
  0
LINE
  8
0
 10
-78.373535
 20
77.999954
 11
-76.873535
 21
77.999954
  0
LINE
  8
0
 10
-81.873535
 20
77.999954
 11
-80.373535
 21
77.999954
  0
LINE
  8
0
 10
-99.373535
 20
88.999954
 11
-82.373535
 21
88.999954
  0
LINE
  8
0
 10
-78.373535
 20
75.999954
 11
-78.373535
 21
84.999954
  0
LINE
  8
0
 10
-103.373535
 20
75.999954
 11
-103.373535
 21
84.999954
  0
LINE
  8
0
 10
-103.373535
 20
75.999954
 11
-101.373535
 21
75.999954
  0
LINE
  8
0
 10
-101.373535
 20
75.999954
 11
-101.373535
 21
84.999954
  0
LINE
  8
0
 10
-80.373535
 20
75.999954
 11
-80.373535
 21
84.999954
  0
LINE
  8
0
 10
-99.373535
 20
86.999954
 11
-82.373535
 21
86.999954
  0
LINE
  8
0
 10
-80.373535
 20
75.999954
 11
-78.373535
 21
75.999954
  0
LINE
  8
0
 10
-103.373535
 20
84.999954
 11
-101.373535
 21
84.999954
  0
LINE
  8
0
 10
-80.373535
 20
84.999954
 11
-78.373535
 21
84.999954
  0
LINE
  8
0
 10
-85.873535
 20
80.399963
 11
-85.873535
 21
84.599960
  0
LINE
  8
0
 10
-95.873535
 20
80.399963
 11
-95.873535
 21
84.599960
  0
LINE
  8
0
 10
-95.473541
 20
84.999954
 11
-86.273529
 21
84.999954
  0
LINE
  8
0
 10
-76.873535
 20
77.499954
 11
-76.873535
 21
82.499954
  0
LINE
  8
0
 10
-104.873535
 20
77.499954
 11
-104.873535
 21
82.499954
  0
LINE
  8
0
 10
-104.873535
 20
77.499954
 11
-103.373535
 21
77.499954
  0
LINE
  8
0
 10
-104.873535
 20
82.499954
 11
-103.373535
 21
82.499954
  0
LINE
  8
0
 10
-101.373535
 20
77.499954
 11
-99.873535
 21
77.499954
  0
LINE
  8
0
 10
-78.373535
 20
77.499954
 11
-76.873535
 21
77.499954
  0
LINE
  8
0
 10
-85.873535
 20
82.499954
 11
-80.373535
 21
82.499954
  0
LINE
  8
0
 10
-101.373535
 20
82.499954
 11
-95.873535
 21
82.499954
  0
LINE
  8
0
  6
CENTER
 10
-73.873535
 20
79.999954
 11
-107.873535
 21
79.999954
  0
LINE
  8
0
  6
CENTER
 10
86.000000
 20
26.999981
 11
94.000000
 21
26.999981
  0
LINE
  8
0
 10
150.000000
 20
22.999981
 11
70.000000
 21
22.999981
  0
LINE
  8
0
  6
CENTER
 10
90.000000
 20
30.999981
 11
90.000000
 21
22.999981
  0
LINE
  8
0
 10
70.000000
 20
86.999985
 11
99.009613
 21
86.999985
  0
LINE
  8
0
 10
150.000000
 20
93.499985
 11
150.000000
 21
22.999981
  0
LINE
  8
0
 10
70.000000
 20
93.499985
 11
70.000000
 21
22.999981
  0
LINE
  8
0
 10
100.349358
 20
81.999969
 11
108.000000
 21
81.999969
  0
LINE
  8
0
 10
122.732048
 20
93.499985
 11
150.000000
 21
93.499985
  0
LINE
  8
0
 10
109.000000
 20
92.999969
 11
111.000000
 21
92.999969
  0
LINE
  8
0
 10
108.000000
 20
83.199982
 11
112.000000
 21
83.199982
  0
LINE
  8
0
  6
CENTER
 10
134.500000
 20
82.999985
 11
125.500000
 21
82.999985
  0
LINE
  8
0
 10
108.000000
 20
91.999969
 11
108.000000
 21
81.999969
  0
LINE
  8
0
 10
112.000000
 20
91.999969
 11
112.000000
 21
81.999969
  0
LINE
  8
0
 10
112.000000
 20
81.999969
 11
119.650635
 21
81.999969
  0
LINE
  8
0
 10
123.000000
 20
94.499969
 11
119.650635
 21
81.999977
  0
LINE
  8
0
 10
97.000038
 20
94.499985
 11
100.349396
 21
81.999985
  0
LINE
  8
0
 10
123.000000
 20
98.499969
 11
123.000000
 21
94.499969
  0
LINE
  8
0
 10
97.000000
 20
98.499969
 11
97.000000
 21
94.499969
  0
LINE
  8
0
 10
71.000000
 20
78.499985
 11
149.000000
 21
78.499985
  0
LINE
  8
0
 10
71.000000
 20
33.780933
 11
149.000000
 21
33.780933
  0
LINE
  8
0
 10
71.000000
 20
41.941319
 11
149.000000
 21
41.941319
  0
LINE
  8
0
 10
71.000000
 20
67.541748
 11
149.000000
 21
67.541748
  0
LINE
  8
0
 10
70.000000
 20
93.499985
 11
97.267944
 21
93.499985
  0
LINE
  8
0
 10
97.000000
 20
98.499969
 11
123.000000
 21
98.499969
  0
LINE
  8
0
  6
CENTER
 10
130.000000
 20
30.999981
 11
130.000000
 21
22.999981
  0
LINE
  8
0
  6
CENTER
 10
134.000000
 20
26.999981
 11
126.000000
 21
26.999981
  0
LINE
  8
0
 10
120.990379
 20
86.999985
 11
150.000000
 21
86.999985
  0
LINE
  8
0
  6
CENTER
 10
130.000000
 20
87.499985
 11
130.000000
 21
78.499985
  0
LINE
  8
0
  6
CENTER
 10
85.500000
 20
82.999985
 11
94.500000
 21
82.999985
  0
LINE
  8
0
  6
CENTER
 10
90.000000
 20
87.499985
 11
90.000000
 21
78.499985
  0
LINE
  8
0
  6
CENTER
 10
105.000000
 20
86.999969
 11
115.000000
 21
86.999969
  0
LINE
  8
0
 10
112.000031
 20
199.300003
 11
108.000031
 21
199.300003
  0
LINE
  8
0
 10
112.000031
 20
160.700012
 11
108.000031
 21
160.700012
  0
LINE
  8
0
 10
108.000031
 20
199.300003
 11
108.000031
 21
197.300003
  0
LINE
  8
0
 10
112.000031
 20
199.300003
 11
112.000031
 21
197.300003
  0
LINE
  8
0
 10
108.000031
 20
162.700012
 11
108.000031
 21
160.700012
  0
LINE
  8
0
 10
112.000031
 20
162.700012
 11
112.000031
 21
160.700012
  0
LINE
  8
0
 10
141.000046
 20
179.133972
 11
141.000046
 21
180.866028
  0
LINE
  8
0
 10
97.000031
 20
197.300003
 11
97.000031
 21
162.700012
  0
LINE
  8
0
 10
123.000031
 20
197.300003
 11
123.000031
 21
162.700012
  0
LINE
  8
0
 10
123.000031
 20
197.300003
 11
97.000031
 21
197.300003
  0
LINE
  8
0
 10
97.000031
 20
167.000000
 11
70.000031
 21
167.000000
  0
LINE
  8
0
 10
150.000031
 20
167.000000
 11
123.000031
 21
167.000000
  0
LINE
  8
0
 10
70.000031
 20
193.000000
 11
70.000031
 21
143.500000
  0
LINE
  8
0
 10
150.000031
 20
193.000000
 11
150.000031
 21
143.500000
  0
LINE
  8
0
 10
97.000031
 20
172.500000
 11
70.000031
 21
172.500000
  0
LINE
  8
0
 10
97.000031
 20
187.500000
 11
70.000031
 21
187.500000
  0
LINE
  8
0
 10
150.000031
 20
193.000000
 11
123.000031
 21
193.000000
  0
LINE
  8
0
 10
150.000031
 20
143.500000
 11
70.000031
 21
143.500000
  0
LINE
  8
0
 10
150.000031
 20
187.500000
 11
123.000031
 21
187.500000
  0
LINE
  8
0
 10
150.000031
 20
172.500000
 11
123.000031
 21
172.500000
  0
LINE
  8
0
 10
97.000031
 20
193.000000
 11
70.000031
 21
193.000000
  0
LINE
  8
0
 10
76.000061
 20
179.134003
 11
77.500061
 21
178.267990
  0
LINE
  8
0
 10
77.500038
 20
178.267990
 11
79.000031
 21
179.134018
  0
LINE
  8
0
 10
79.000015
 20
179.133972
 11
79.000015
 21
180.866028
  0
LINE
  8
0
 10
79.000046
 20
180.866028
 11
77.500046
 21
181.732056
  0
LINE
  8
0
 10
77.500015
 20
181.732101
 11
76.000031
 21
180.866089
  0
LINE
  8
0
 10
76.000015
 20
180.866028
 11
76.000015
 21
179.133972
  0
LINE
  8
0
 10
141.000000
 20
180.866074
 11
142.500015
 21
181.732101
  0
LINE
  8
0
 10
142.500061
 20
181.732086
 11
144.000046
 21
180.866058
  0
LINE
  8
0
 10
144.000046
 20
180.866028
 11
144.000046
 21
179.133972
  0
LINE
  8
0
 10
144.000000
 20
179.133957
 11
142.500031
 21
178.267944
  0
LINE
  8
0
 10
123.000031
 20
162.700012
 11
97.000031
 21
162.700012
  0
LINE
  8
0
 10
142.500122
 20
178.268097
 11
141.000122
 21
179.134109
  0
LINE
  8
0
  6
CENTER
 10
77.500031
 20
186.000000
 11
77.500031
 21
174.000000
  0
LINE
  8
0
  6
CENTER
 10
103.500031
 20
184.500000
 11
103.500031
 21
175.500000
  0
LINE
  8
0
  6
CENTER
 10
116.500031
 20
184.500000
 11
116.500031
 21
175.500000
  0
LINE
  8
0
  6
CENTER
 10
142.500031
 20
186.000000
 11
142.500031
 21
174.000000
  0
LINE
  8
0
 10
292.300140
 20
84.438309
 11
294.300140
 21
84.438309
  0
LINE
  8
0
 10
255.700150
 20
89.561783
 11
257.700134
 21
89.561783
  0
LINE
  8
0
 10
255.700150
 20
84.438309
 11
257.700134
 21
84.438309
  0
LINE
  8
0
 10
260.000153
 20
89.561783
 11
267.500153
 21
89.561783
  0
LINE
  8
0
 10
260.000153
 20
84.438309
 11
262.000153
 21
84.438309
  0
LINE
  8
0
 10
282.500153
 20
89.561783
 11
290.000153
 21
89.561783
  0
LINE
  8
0
 10
288.000153
 20
84.438309
 11
290.000153
 21
84.438309
  0
LINE
  8
0
 10
288.000153
 20
31.041508
 11
290.487518
 21
31.041508
  0
LINE
  8
0
 10
290.800140
 20
30.500053
 11
290.800140
 21
23.500053
  0
LINE
  8
0
 10
288.000153
 20
29.020771
 11
290.487549
 21
29.020771
  0
LINE
  8
0
 10
288.000153
 20
24.979313
 11
290.487549
 21
24.979313
  0
LINE
  8
0
 10
290.800232
 20
30.500076
 11
290.487610
 21
31.041540
  0
LINE
  8
0
 10
290.800262
 20
23.500004
 11
290.487640
 21
22.958553
  0
LINE
  8
0
 10
288.000153
 20
22.958599
 11
290.487518
 21
22.958599
  0
LINE
  8
0
 10
288.000153
 20
31.041508
 11
288.000153
 21
22.958599
  0
LINE
  8
0
 10
288.000153
 20
87.000053
 11
262.000153
 21
87.000053
  0
LINE
  8
0
 10
256.000153
 20
32.506870
 11
256.000153
 21
23.000053
  0
LINE
  8
0
 10
262.000153
 20
23.000053
 11
256.000153
 21
23.000053
  0
LINE
  8
0
 10
288.000153
 20
87.000053
 11
288.000153
 21
79.000053
  0
LINE
  8
0
 10
238.500153
 20
61.171120
 11
238.500153
 21
48.312096
  0
LINE
  8
0
 10
288.000153
 20
79.000053
 11
268.000153
 21
79.000053
  0
LINE
  8
0
 10
262.000153
 20
87.000053
 11
262.000153
 21
79.137123
  0
LINE
  8
0
 10
263.002289
 20
74.002098
 11
268.000214
 21
79.000031
  0
LINE
  8
0
 10
244.274002
 20
70.234207
 11
261.422791
 21
78.230812
  0
LINE
  8
0
 10
246.387070
 20
66.254349
 11
263.002228
 21
74.002129
  0
LINE
  8
0
 10
243.500153
 20
61.722809
 11
243.500153
 21
48.312096
  0
LINE
  8
0
 10
246.387100
 20
43.780556
 11
262.000183
 21
36.500053
  0
LINE
  8
0
 10
262.000153
 20
36.500053
 11
262.000153
 21
23.000053
  0
LINE
  8
0
 10
244.273972
 20
39.249031
 11
254.845398
 21
34.319496
  0
LINE
  8
0
 10
292.300140
 20
89.561783
 11
294.300140
 21
89.561783
  0
LINE
  8
0
 10
290.000153
 20
83.750046
 11
288.000153
 21
83.750046
  0
LINE
  8
0
 10
267.900146
 20
93.500053
 11
282.100159
 21
93.500053
  0
LINE
  8
0
 10
282.500153
 20
93.100052
 11
282.500153
 21
87.400055
  0
LINE
  8
0
 10
267.500153
 20
93.100052
 11
267.500153
 21
87.400055
  0
LINE
  8
0
 10
287.500153
 20
98.500046
 11
262.500153
 21
98.500046
  0
LINE
  8
0
 10
257.767273
 20
94.500046
 11
260.131592
 21
94.500046
  0
LINE
  8
0
 10
257.700134
 20
82.000046
 11
260.000153
 21
82.000046
  0
LINE
  8
0
 10
292.300140
 20
93.700050
 11
292.300140
 21
82.000046
  0
LINE
  8
0
 10
257.700134
 20
93.700050
 11
257.700134
 21
82.000046
  0
LINE
  8
0
 10
260.000153
 20
93.700050
 11
260.000153
 21
82.000046
  0
LINE
  8
0
 10
290.000153
 20
93.700050
 11
290.000153
 21
82.000046
  0
LINE
  8
0
 10
287.500153
 20
96.200050
 11
262.500153
 21
96.200050
  0
LINE
  8
0
 10
290.000153
 20
82.000046
 11
292.300140
 21
82.000046
  0
LINE
  8
0
 10
289.868683
 20
94.500046
 11
292.233002
 21
94.500046
  0
LINE
  8
0
 10
290.000153
 20
90.250046
 11
282.500153
 21
90.250046
  0
LINE
  8
0
 10
255.700150
 20
90.250046
 11
255.700150
 21
83.750046
  0
LINE
  8
0
 10
294.300140
 20
90.250046
 11
294.300140
 21
83.750046
  0
LINE
  8
0
 10
294.300140
 20
83.750046
 11
292.300140
 21
83.750046
  0
LINE
  8
0
 10
294.300140
 20
90.250046
 11
292.300140
 21
90.250046
  0
LINE
  8
0
 10
257.700134
 20
90.250046
 11
255.700150
 21
90.250046
  0
LINE
  8
0
 10
257.700134
 20
83.750046
 11
255.700150
 21
83.750046
  0
LINE
  8
0
 10
267.500153
 20
90.250046
 11
260.000153
 21
90.250046
  0
LINE
  8
0
 10
262.000153
 20
83.750046
 11
260.000153
 21
83.750046
  0
LINE
  8
0
  6
CENTER
 10
297.300140
 20
87.000046
 11
252.700150
 21
87.000046
  0
LINE
  8
0
 10
-79.873581
 20
-147.558472
 11
-79.873581
 21
-142.558472
  0
LINE
  8
0
 10
-45.873581
 20
-232.558487
 11
-145.873596
 21
-232.558487
  0
LINE
  8
0
 10
-145.873596
 20
-156.558487
 11
-109.462036
 21
-156.558487
  0
LINE
  8
0
 10
-145.873596
 20
-166.558487
 11
-45.873581
 21
-166.558487
  0
LINE
  8
0
 10
-45.873581
 20
-232.558487
 11
-45.873581
 21
-148.558487
  0
LINE
  8
0
 10
-145.873596
 20
-232.558487
 11
-145.873596
 21
-148.558487
  0
LINE
  8
0
 10
-111.873581
 20
-147.558472
 11
-111.873581
 21
-142.558472
  0
LINE
  8
0
 10
-80.141533
 20
-148.558487
 11
-45.873581
 21
-148.558487
  0
LINE
  8
0
 10
-145.873596
 20
-148.558487
 11
-111.605621
 21
-148.558487
  0
LINE
  8
0
 10
-93.373581
 20
-162.558472
 11
-83.892815
 21
-162.558472
  0
LINE
  8
0
 10
-97.873581
 20
-161.558487
 11
-93.873581
 21
-161.558487
  0
LINE
  8
0
 10
-82.285126
 20
-156.558487
 11
-45.873581
 21
-156.558487
  0
LINE
  8
0
 10
-98.373581
 20
-162.558472
 11
-98.373581
 21
-150.558472
  0
LINE
  8
0
 10
-93.373581
 20
-162.558472
 11
-93.373581
 21
-150.558472
  0
LINE
  8
0
 10
-79.873581
 20
-147.558487
 11
-83.892815
 21
-162.558487
  0
LINE
  8
0
 10
-111.873611
 20
-147.558487
 11
-107.854378
 21
-162.558487
  0
LINE
  8
0
  6
CENTER
 10
-125.873581
 20
-227.558487
 11
-115.873581
 21
-227.558487
  0
LINE
  8
0
 10
-144.873596
 20
-211.011459
 11
-46.873581
 21
-211.011459
  0
LINE
  8
0
 10
-144.873596
 20
-178.682846
 11
-46.873581
 21
-178.682846
  0
LINE
  8
0
 10
-111.873581
 20
-142.558472
 11
-79.873581
 21
-142.558472
  0
LINE
  8
0
 10
-107.854347
 20
-162.558472
 11
-98.373581
 21
-162.558472
  0
LINE
  8
0
 10
-144.873596
 20
-222.558472
 11
-46.873581
 21
-222.558472
  0
LINE
  8
0
  6
CENTER
 10
-120.873581
 20
-222.558487
 11
-120.873581
 21
-232.558487
  0
LINE
  8
0
  6
CENTER
 10
-65.873581
 20
-227.558487
 11
-75.873581
 21
-227.558487
  0
LINE
  8
0
  6
CENTER
 10
-70.873581
 20
-222.558487
 11
-70.873581
 21
-232.558487
  0
LINE
  8
0
  6
CENTER
 10
-65.873581
 20
-161.558487
 11
-75.873581
 21
-161.558487
  0
LINE
  8
0
  6
CENTER
 10
-70.873581
 20
-156.558487
 11
-70.873581
 21
-166.558487
  0
LINE
  8
0
  6
CENTER
 10
-100.873581
 20
-156.558472
 11
-90.873581
 21
-156.558472
  0
LINE
  8
0
  6
CENTER
 10
-125.873581
 20
-161.558487
 11
-115.873581
 21
-161.558487
  0
LINE
  8
0
  6
CENTER
 10
-120.873581
 20
-156.558487
 11
-120.873581
 21
-166.558487
  0
LINE
  8
0
 10
-145.873627
 20
-41.558510
 11
-145.873627
 21
-94.558510
  0
LINE
  8
0
 10
-45.873627
 20
-41.558510
 11
-45.873627
 21
-94.558510
  0
LINE
  8
0
 10
-45.873627
 20
-67.558510
 11
-79.873627
 21
-67.558510
  0
LINE
  8
0
 10
-45.873627
 20
-41.558510
 11
-79.873627
 21
-41.558510
  0
LINE
  8
0
 10
-53.873631
 20
-55.713219
 11
-55.873619
 21
-56.867912
  0
LINE
  8
0
 10
-98.373627
 20
-73.558510
 11
-145.873627
 21
-73.558510
  0
LINE
  8
0
 10
-93.373627
 20
-73.058510
 11
-93.373627
 21
-75.558510
  0
LINE
  8
0
 10
-98.373627
 20
-73.058510
 11
-98.373627
 21
-75.558510
  0
LINE
  8
0
 10
-93.373627
 20
-33.558502
 11
-98.373627
 21
-33.558502
  0
LINE
  8
0
 10
-93.373627
 20
-75.558510
 11
-98.373627
 21
-75.558510
  0
LINE
  8
0
 10
-93.373627
 20
-33.558502
 11
-93.373627
 21
-36.058502
  0
LINE
  8
0
 10
-98.373627
 20
-33.558502
 11
-98.373627
 21
-36.058502
  0
LINE
  8
0
 10
-45.873627
 20
-73.558510
 11
-93.373627
 21
-73.558510
  0
LINE
  8
0
 10
-45.873627
 20
-94.558510
 11
-145.873627
 21
-94.558510
  0
LINE
  8
0
 10
-111.873627
 20
-36.058502
 11
-111.873627
 21
-73.058510
  0
LINE
  8
0
 10
-79.873627
 20
-36.058502
 11
-79.873627
 21
-73.058510
  0
LINE
  8
0
 10
-79.873627
 20
-73.058510
 11
-111.873627
 21
-73.058510
  0
LINE
  8
0
 10
-79.873627
 20
-36.058502
 11
-111.873627
 21
-36.058502
  0
LINE
  8
0
 10
-111.873627
 20
-67.558510
 11
-145.873627
 21
-67.558510
  0
LINE
  8
0
 10
-111.873627
 20
-41.558510
 11
-145.873627
 21
-41.558510
  0
LINE
  8
0
 10
-53.873619
 20
-53.403809
 11
-53.873619
 21
-55.713211
  0
LINE
  8
0
 10
-55.873615
 20
-52.249088
 11
-53.873611
 21
-53.403790
  0
LINE
  8
0
 10
-57.873638
 20
-53.403797
 11
-55.873623
 21
-52.249088
  0
LINE
  8
0
 10
-45.873627
 20
-62.058510
 11
-79.873627
 21
-62.058510
  0
LINE
  8
0
 10
-45.873627
 20
-47.058510
 11
-79.873627
 21
-47.058510
  0
LINE
  8
0
 10
-111.873627
 20
-47.058510
 11
-145.873627
 21
-47.058510
  0
LINE
  8
0
 10
-111.873627
 20
-62.058510
 11
-145.873627
 21
-62.058510
  0
LINE
  8
0
 10
-57.873619
 20
-55.713211
 11
-57.873619
 21
-53.403809
  0
LINE
  8
0
 10
-137.873627
 20
-55.713211
 11
-135.873627
 21
-56.867912
  0
LINE
  8
0
 10
-135.873657
 20
-56.867905
 11
-133.873642
 21
-55.713200
  0
LINE
  8
0
 10
-133.873627
 20
-55.713211
 11
-133.873627
 21
-53.403809
  0
LINE
  8
0
 10
-133.873642
 20
-53.403812
 11
-135.873642
 21
-52.249111
  0
LINE
  8
0
 10
-135.873657
 20
-52.249084
 11
-137.873657
 21
-53.403793
  0
LINE
  8
0
 10
-137.873627
 20
-53.403809
 11
-137.873627
 21
-55.713211
  0
LINE
  8
0
 10
-55.873623
 20
-56.867905
 11
-57.873627
 21
-55.713200
  0
LINE
  8
0
  6
CENTER
 10
-135.873627
 20
-46.558510
 11
-135.873627
 21
-62.558510
  0
LINE
  8
0
  6
CENTER
 10
-103.873627
 20
-49.558510
 11
-103.873627
 21
-59.558510
  0
LINE
  8
0
  6
CENTER
 10
-87.873627
 20
-49.558510
 11
-87.873627
 21
-59.558510
  0
LINE
  8
0
  6
CENTER
 10
-55.873627
 20
-46.558510
 11
-55.873627
 21
-62.558510
  0
LINE
  8
0
 10
96.126404
 20
-232.558472
 11
96.126404
 21
-216.558502
  0
LINE
  8
0
 10
93.826416
 20
-153.435989
 11
101.626404
 21
-153.435989
  0
LINE
  8
0
 10
93.826416
 20
-159.680984
 11
96.126404
 21
-159.680984
  0
LINE
  8
0
 10
116.626404
 20
-153.435989
 11
124.426422
 21
-153.435989
  0
LINE
  8
0
 10
122.126404
 20
-159.680984
 11
124.426422
 21
-159.680984
  0
LINE
  8
0
 10
122.126404
 20
-156.558502
 11
96.126404
 21
-156.558502
  0
LINE
  8
0
 10
122.126404
 20
-156.558502
 11
122.126404
 21
-166.558502
  0
LINE
  8
0
 10
122.126434
 20
-166.558502
 11
105.441711
 21
-166.558502
  0
LINE
  8
0
 10
69.126404
 20
-185.611053
 11
69.126404
 21
-204.083282
  0
LINE
  8
0
 10
96.126404
 20
-232.558502
 11
89.126404
 21
-232.558502
  0
LINE
  8
0
 10
89.126404
 20
-232.558472
 11
89.126404
 21
-223.135849
  0
LINE
  8
0
 10
96.126404
 20
-156.558502
 11
96.126404
 21
-166.558502
  0
LINE
  8
0
 10
104.868202
 20
-166.739410
 11
95.387703
 21
-173.377716
  0
LINE
  8
0
 10
94.814087
 20
-173.558502
 11
90.002075
 21
-173.558502
  0
LINE
  8
0
 10
96.126404
 20
-166.558502
 11
91.734100
 21
-166.558502
  0
LINE
  8
0
 10
88.734131
 20
-167.362411
 11
75.126450
 21
-175.218811
  0
LINE
  8
0
 10
90.002098
 20
-173.558548
 11
78.126465
 21
-180.414948
  0
LINE
  8
0
 10
75.126404
 20
-185.611053
 11
75.126404
 21
-204.083282
  0
LINE
  8
0
 10
96.126404
 20
-216.558502
 11
90.734100
 21
-216.558502
  0
LINE
  8
0
 10
88.626404
 20
-222.269806
 11
75.126419
 21
-214.475586
  0
LINE
  8
0
 10
90.734108
 20
-216.558487
 11
78.126419
 21
-209.279434
  0
LINE
  8
0
 10
122.126404
 20
-222.939697
 11
125.269135
 21
-222.939697
  0
LINE
  8
0
 10
122.126404
 20
-225.249100
 11
125.269135
 21
-225.249100
  0
LINE
  8
0
 10
122.126404
 20
-229.867889
 11
125.269135
 21
-229.867889
  0
LINE
  8
0
 10
125.626404
 20
-231.558502
 11
125.626404
 21
-223.558502
  0
LINE
  8
0
 10
125.626419
 20
-223.558487
 11
125.269142
 21
-222.939682
  0
LINE
  8
0
 10
125.626419
 20
-231.558502
 11
125.269142
 21
-232.177322
  0
LINE
  8
0
 10
122.126404
 20
-232.177307
 11
125.269135
 21
-232.177307
  0
LINE
  8
0
 10
122.126404
 20
-232.177307
 11
122.126404
 21
-222.939697
  0
LINE
  8
0
 10
127.626404
 20
-153.435989
 11
130.126404
 21
-153.435989
  0
LINE
  8
0
 10
127.626404
 20
-159.680984
 11
130.126404
 21
-159.680984
  0
LINE
  8
0
 10
88.126404
 20
-153.435989
 11
90.626404
 21
-153.435989
  0
LINE
  8
0
 10
121.426422
 20
-142.558487
 11
96.826416
 21
-142.558487
  0
LINE
  8
0
 10
127.626404
 20
-162.558487
 11
124.426422
 21
-162.558487
  0
LINE
  8
0
 10
90.626404
 20
-162.558487
 11
90.626404
 21
-148.758484
  0
LINE
  8
0
 10
127.626404
 20
-162.558487
 11
127.626404
 21
-148.758484
  0
LINE
  8
0
 10
93.826416
 20
-162.558487
 11
90.626404
 21
-162.558487
  0
LINE
  8
0
 10
93.826416
 20
-162.558487
 11
93.826416
 21
-148.758484
  0
LINE
  8
0
 10
124.426422
 20
-162.558487
 11
124.426422
 21
-148.758484
  0
LINE
  8
0
 10
121.426422
 20
-145.758484
 11
96.826416
 21
-145.758484
  0
LINE
  8
0
 10
127.509186
 20
-147.558487
 11
124.175964
 21
-147.558487
  0
LINE
  8
0
 10
94.076874
 20
-147.558487
 11
90.743652
 21
-147.558487
  0
LINE
  8
0
 10
115.626404
 20
-148.558502
 11
102.626404
 21
-148.558502
  0
LINE
  8
0
 10
101.626404
 20
-155.558502
 11
101.626404
 21
-149.558502
  0
LINE
  8
0
 10
116.626404
 20
-155.558502
 11
116.626404
 21
-149.558502
  0
LINE
  8
0
 10
88.126404
 20
-159.680984
 11
90.626404
 21
-159.680984
  0
LINE
  8
0
 10
88.126404
 20
-160.558487
 11
88.126404
 21
-152.558487
  0
LINE
  8
0
 10
130.126404
 20
-160.558487
 11
130.126404
 21
-152.558487
  0
LINE
  8
0
 10
130.126404
 20
-160.558487
 11
127.626404
 21
-160.558487
  0
LINE
  8
0
 10
130.126404
 20
-152.558487
 11
127.626404
 21
-152.558487
  0
LINE
  8
0
 10
90.626404
 20
-152.558487
 11
88.126404
 21
-152.558487
  0
LINE
  8
0
 10
90.626404
 20
-160.558487
 11
88.126404
 21
-160.558487
  0
LINE
  8
0
 10
101.626404
 20
-152.558487
 11
93.826416
 21
-152.558487
  0
LINE
  8
0
 10
96.126404
 20
-160.558487
 11
93.826416
 21
-160.558487
  0
LINE
  8
0
 10
124.426422
 20
-152.558487
 11
116.626404
 21
-152.558487
  0
LINE
  8
0
 10
124.426422
 20
-160.558487
 11
122.126404
 21
-160.558487
  0
LINE
  8
0
  6
CENTER
 10
133.126404
 20
-156.558487
 11
85.126404
 21
-156.558487
  0
ARC
  8
0
 62
     5
 10
273.035400
 20
-235.045654
 40
2.211884
 50
0.000000
 51
90.000000
  0
ARC
  8
0
 62
     5
 10
291.283569
 20
-246.934647
 40
2.211899
 50
270.000000
 51
0.000000
  0
ARC
  8
0
 62
     5
 10
290.177551
 20
-236.151566
 40
3.317841
 50
0.000000
 51
90.000000
  0
ARC
  8
0
 62
     5
 10
310.361115
 20
-236.812775
 40
2.211890
 50
294.999969
 51
0.000000
  0
ARC
  8
0
 62
     5
 10
310.361115
 20
-235.045654
 40
2.211884
 50
0.000000
 51
90.000000
  0
ARC
  8
0
 62
     5
 10
327.503357
 20
-232.833755
 40
3.317840
 50
291.688385
 51
0.000000
  0
ARC
  8
0
 62
     5
 10
326.397308
 20
-232.083389
 40
1.105946
 50
291.688965
 51
0.000000
  0
ARC
  8
0
  6
PHANTOM
 10
-212.373581
 20
42.499966
 40
0.500000
 50
270.000000
 51
90.000000
  0
ARC
  8
0
  6
PHANTOM
 10
-289.373566
 20
42.499977
 40
0.500000
 50
90.000000
 51
270.000000
  0
ARC
  8
0
  6
PHANTOM
 10
-314.621307
 20
48.999981
 40
15.000010
 50
336.421875
 51
23.578142
  0
ARC
  8
0
  6
PHANTOM
 10
-287.883179
 20
62.499977
 40
15.000001
 50
150.000031
 51
209.999969
  0
ARC
  8
0
  6
PHANTOM
 10
-314.621307
 20
173.999969
 40
15.000008
 50
336.421906
 51
23.578156
  0
ARC
  8
0
  6
PHANTOM
 10
-287.125854
 20
185.999969
 40
15.000013
 50
156.421844
 51
203.578201
  0
ARC
  8
0
  6
PHANTOM
 10
-81.873581
 20
45.999989
 40
3.000000
 50
270.000000
 51
0.000000
  0
ARC
  8
0
  6
PHANTOM
 10
-81.873581
 20
63.999989
 40
3.000000
 50
0.000000
 51
90.000000
  0
ARC
  8
0
  6
PHANTOM
 10
-99.873581
 20
63.999992
 40
3.000000
 50
90.000000
 51
180.000000
  0
ARC
  8
0
  6
PHANTOM
 10
-99.873581
 20
45.999992
 40
3.000000
 50
180.000000
 51
270.000000
  0
ARC
  8
0
  6
PHANTOM
 10
-82.873581
 20
68.999985
 40
2.000000
 50
180.000000
 51
270.000000
  0
ARC
  8
0
  6
PHANTOM
 10
-98.873581
 20
68.999992
 40
2.000000
 50
270.000000
 51
0.000000
  0
ARC
  8
0
  6
PHANTOM
 10
-187.125854
 20
185.999969
 40
15.000006
 50
156.421768
 51
203.578049
  0
ARC
  8
0
  6
PHANTOM
 10
-214.621323
 20
173.999969
 40
15.000006
 50
336.421753
 51
23.578127
  0
ARC
  8
0
  6
PHANTOM
 10
-187.125839
 20
60.999962
 40
15.000000
 50
143.130096
 51
203.578079
  0
ARC
  8
0
  6
PHANTOM
 10
-213.863968
 20
47.499966
 40
15.000008
 50
342.542419
 51
29.999939
  0
ARC
  8
0
  6
PHANTOM
 10
276.750000
 20
71.499985
 40
2.000000
 50
270.000000
 51
0.000000
  0
ARC
  8
0
  6
PHANTOM
 10
273.250000
 20
71.499985
 40
2.000000
 50
180.000000
 51
270.000000
  0
ARC
  8
0
  6
PHANTOM
 10
62.000015
 20
38.499977
 40
1.000000
 50
90.000000
 51
270.000000
  0
ARC
  8
0
  6
PHANTOM
 10
158.000015
 20
38.499962
 40
1.000000
 50
270.000000
 51
90.000000
  0
ARC
  8
0
  6
PHANTOM
 10
151.562622
 20
47.249977
 40
19.999996
 50
337.200989
 51
22.799011
  0
ARC
  8
0
  6
PHANTOM
 10
187.599716
 20
64.499977
 40
20.000000
 50
151.640656
 51
208.359360
  0
ARC
  8
0
  6
PHANTOM
 10
151.562607
 20
172.249969
 40
20.000000
 50
337.200958
 51
22.799032
  0
ARC
  8
0
  6
PHANTOM
 10
188.437424
 20
187.749969
 40
20.000000
 50
157.200974
 51
202.799026
  0
ARC
  8
0
  6
PHANTOM
 10
287.500000
 20
42.499985
 40
3.000000
 50
270.000000
 51
0.000000
  0
ARC
  8
0
  6
PHANTOM
 10
287.500000
 20
67.499985
 40
3.000000
 50
0.000000
 51
90.000000
  0
ARC
  8
0
  6
PHANTOM
 10
262.500000
 20
67.499985
 40
3.000000
 50
90.000000
 51
180.000000
  0
ARC
  8
0
  6
PHANTOM
 10
262.500000
 20
42.499985
 40
3.000000
 50
180.000000
 51
270.000000
  0
ARC
  8
0
  6
PHANTOM
 10
285.000000
 20
72.499985
 40
2.000000
 50
180.000000
 51
270.000000
  0
ARC
  8
0
  6
PHANTOM
 10
265.000000
 20
72.499985
 40
2.000000
 50
270.000000
 51
0.000000
  0
ARC
  8
0
  6
PHANTOM
 10
67.599716
 20
64.499977
 40
20.000000
 50
151.640656
 51
208.359360
  0
ARC
  8
0
  6
PHANTOM
 10
31.562622
 20
47.249977
 40
20.000000
 50
337.200989
 51
22.799007
  0
ARC
  8
0
  6
PHANTOM
 10
31.562607
 20
172.249969
 40
20.000002
 50
337.200958
 51
22.799028
  0
ARC
  8
0
  6
PHANTOM
 10
68.437416
 20
187.749969
 40
20.000000
 50
157.200974
 51
202.799026
  0
ARC
  8
0
  6
PHANTOM
 10
110.876434
 20
-175.058472
 40
2.000000
 50
270.000000
 51
0.000000
  0
ARC
  8
0
  6
PHANTOM
 10
107.376434
 20
-175.058472
 40
2.000000
 50
180.000000
 51
270.000000
  0
ARC
  8
0
  6
PHANTOM
 10
-35.873566
 20
-213.558502
 40
1.000000
 50
270.000000
 51
90.000000
  0
ARC
  8
0
  6
PHANTOM
 10
-155.873566
 20
-213.558487
 40
1.000000
 50
90.000000
 51
270.000000
  0
ARC
  8
0
  6
PHANTOM
 10
-44.197380
 20
-203.558472
 40
25.000000
 50
338.899841
 51
21.100197
  0
ARC
  8
0
  6
PHANTOM
 10
1.576385
 20
-183.558487
 40
25.000002
 50
153.896118
 51
206.103882
  0
ARC
  8
0
  6
PHANTOM
 10
-44.197395
 20
-63.558495
 40
24.999998
 50
338.899872
 51
21.100204
  0
ARC
  8
0
  6
PHANTOM
 10
2.450226
 20
-45.558495
 40
25.000002
 50
158.899811
 51
201.100189
  0
ARC
  8
0
  6
PHANTOM
 10
121.126434
 20
-206.558472
 40
6.000000
 50
270.000000
 51
0.000000
  0
ARC
  8
0
  6
PHANTOM
 10
121.126434
 20
-182.558472
 40
6.000000
 50
0.000000
 51
90.000000
  0
ARC
  8
0
  6
PHANTOM
 10
97.126434
 20
-182.558472
 40
6.000000
 50
90.000000
 51
180.000000
  0
ARC
  8
0
  6
PHANTOM
 10
97.126434
 20
-206.558472
 40
6.000000
 50
180.000000
 51
270.000000
  0
ARC
  8
0
  6
PHANTOM
 10
97.126434
 20
-173.558472
 40
3.000000
 50
270.000000
 51
0.000000
  0
ARC
  8
0
  6
PHANTOM
 10
121.126434
 20
-173.558472
 40
3.000000
 50
180.000000
 51
270.000000
  0
ARC
  8
0
  6
PHANTOM
 10
-148.423615
 20
-183.558487
 40
25.000006
 50
153.896118
 51
206.103882
  0
ARC
  8
0
  6
PHANTOM
 10
-194.197388
 20
-203.558472
 40
25.000008
 50
338.899841
 51
21.100197
  0
ARC
  8
0
  6
PHANTOM
 10
-147.549774
 20
-45.558495
 40
24.999998
 50
158.899811
 51
201.100189
  0
ARC
  8
0
  6
PHANTOM
 10
-194.197388
 20
-63.558495
 40
25.000006
 50
338.899872
 51
21.100204
  0
ARC
  8
0
 10
-250.873566
 20
83.999954
 40
1.500000
 50
0.000000
 51
180.000000
  0
ARC
  8
0
 10
-250.873566
 20
79.999954
 40
2.500000
 50
53.130104
 51
126.869896
  0
ARC
  8
0
 10
-250.873566
 20
79.999954
 40
2.500000
 50
233.130096
 51
306.869904
  0
ARC
  8
0
 10
-250.873566
 20
79.999954
 40
3.500000
 50
64.623062
 51
115.376938
  0
CIRCLE
  8
0
 10
-234.873566
 20
32.999958
 40
1.500000
  0
CIRCLE
  8
0
 10
-266.873566
 20
32.999958
 40
1.229500
  0
CIRCLE
  8
0
 10
-266.873566
 20
32.999958
 40
1.500000
  0
CIRCLE
  8
0
 10
-234.873566
 20
76.999954
 40
1.700000
  0
CIRCLE
  8
0
 10
-266.873566
 20
76.999954
 40
1.700000
  0
CIRCLE
  8
0
 10
-234.873566
 20
32.999958
 40
1.229500
  0
CIRCLE
  8
0
 10
-255.873596
 20
179.999969
 40
1.750000
  0
CIRCLE
  8
0
 10
-245.873596
 20
179.999969
 40
1.750000
  0
CIRCLE
  8
0
 10
-276.873596
 20
179.999969
 40
2.750000
  0
CIRCLE
  8
0
 10
-276.873596
 20
179.999969
 40
3.250000
  0
CIRCLE
  8
0
 10
-224.873596
 20
179.999969
 40
3.250000
  0
CIRCLE
  8
0
 10
-224.873596
 20
179.999969
 40
2.750000
  0
ARC
  8
0
 10
-99.373535
 20
84.999954
 40
2.000000
 50
90.000000
 51
180.000000
  0
ARC
  8
0
 10
-82.373535
 20
84.999954
 40
2.000000
 50
0.000000
 51
90.000000
  0
ARC
  8
0
 10
-99.373535
 20
84.999954
 40
4.000000
 50
90.000000
 51
180.000000
  0
ARC
  8
0
 10
-82.373535
 20
84.999954
 40
4.000000
 50
0.000000
 51
90.000000
  0
ARC
  8
0
 10
-95.473541
 20
84.599960
 40
0.400002
 50
90.000000
 51
180.000000
  0
ARC
  8
0
 10
-86.273529
 20
84.599960
 40
0.400002
 50
0.000000
 51
90.000000
  0
ARC
  8
0
 10
-95.473541
 20
80.399963
 40
0.400002
 50
180.000000
 51
270.000000
  0
ARC
  8
0
 10
-86.273529
 20
80.399963
 40
0.400002
 50
270.000000
 51
0.000000
  0
ARC
  8
0
 10
-81.279236
 20
30.618385
 40
1.405701
 50
0.000000
 51
34.384159
  0
ARC
  8
0
 10
-85.127930
 20
32.999958
 40
5.254386
 50
342.412079
 51
17.587914
  0
ARC
  8
0
 10
-81.279236
 20
35.381527
 40
1.405707
 50
325.615845
 51
0.000000
  0
ARC
  8
0
 10
-99.356827
 20
75.173523
 40
3.999999
 50
295.000031
 51
314.999908
  0
ARC
  8
0
 10
-106.873535
 20
36.643841
 40
2.000000
 50
0.000000
 51
64.999954
  0
ARC
  8
0
 10
-113.873535
 20
50.941772
 40
8.000000
 50
179.999969
 51
244.999969
  0
ARC
  8
0
 10
-113.873535
 20
59.577244
 40
8.000001
 50
115.000031
 51
179.999969
  0
ARC
  8
0
 10
-113.873535
 20
59.577244
 40
4.000002
 50
115.000023
 51
179.999939
  0
ARC
  8
0
 10
-113.873535
 20
50.941772
 40
4.000000
 50
180.000000
 51
244.999985
  0
ARC
  8
0
 10
110.000000
 20
86.999969
 40
3.250000
 50
232.020126
 51
307.979889
  0
ARC
  8
0
 10
110.000000
 20
86.999969
 40
3.250000
 50
52.020123
 51
127.979881
  0
ARC
  8
0
 10
111.000000
 20
91.999969
 40
1.000000
 50
0.000000
 51
90.000000
  0
ARC
  8
0
 10
109.000000
 20
91.999969
 40
1.000000
 50
90.000000
 51
180.000000
  0
ARC
  8
0
 10
110.000000
 20
86.999985
 40
4.300005
 50
62.282291
 51
117.717705
  0
CIRCLE
  8
0
 10
90.000000
 20
26.999981
 40
1.621000
  0
CIRCLE
  8
0
 10
90.000000
 20
26.999981
 40
2.000000
  0
CIRCLE
  8
0
 10
130.000000
 20
82.999985
 40
2.250000
  0
CIRCLE
  8
0
 10
90.000000
 20
82.999985
 40
2.250000
  0
CIRCLE
  8
0
 10
130.000000
 20
26.999981
 40
1.621000
  0
CIRCLE
  8
0
 10
130.000000
 20
26.999981
 40
2.000000
  0
CIRCLE
  8
0
 10
116.500031
 20
180.000000
 40
2.250000
  0
CIRCLE
  8
0
 10
103.500031
 20
180.000000
 40
2.250000
  0
CIRCLE
  8
0
 10
142.500031
 20
180.000000
 40
4.000000
  0
CIRCLE
  8
0
 10
142.500031
 20
180.000000
 40
3.500000
  0
CIRCLE
  8
0
 10
77.500031
 20
180.000000
 40
4.000000
  0
CIRCLE
  8
0
 10
77.500031
 20
180.000000
 40
3.500000
  0
ARC
  8
0
 10
262.500153
 20
93.700050
 40
4.800003
 50
90.000000
 51
180.000000
  0
ARC
  8
0
 10
287.500153
 20
93.700050
 40
4.799988
 50
0.000000
 51
90.000000
  0
ARC
  8
0
 10
287.500153
 20
93.700050
 40
2.500000
 50
0.000000
 51
90.000000
  0
ARC
  8
0
 10
262.500153
 20
93.700050
 40
2.500000
 50
90.000000
 51
180.000000
  0
ARC
  8
0
 10
282.100159
 20
87.400055
 40
0.400002
 50
270.000000
 51
0.000000
  0
ARC
  8
0
 10
282.100159
 20
93.100052
 40
0.399994
 50
0.000000
 51
90.000000
  0
ARC
  8
0
 10
267.900146
 20
87.400055
 40
0.399994
 50
180.000000
 51
270.000000
  0
ARC
  8
0
 10
267.900146
 20
93.100052
 40
0.400002
 50
90.000000
 51
180.000000
  0
ARC
  8
0
 10
261.000153
 20
79.137123
 40
0.999998
 50
294.999359
 51
0.000000
  0
ARC
  8
0
 10
248.500153
 20
48.312096
 40
10.000000
 50
179.999985
 51
245.000000
  0
ARC
  8
0
 10
248.500153
 20
61.171120
 40
10.000001
 50
114.999985
 51
179.999954
  0
ARC
  8
0
 10
248.500153
 20
61.722809
 40
5.000004
 50
115.000069
 51
179.999954
  0
ARC
  8
0
 10
248.500153
 20
48.312096
 40
5.000000
 50
180.000000
 51
244.999939
  0
ARC
  8
0
 10
254.000153
 20
32.506870
 40
2.000000
 50
0.000000
 51
64.999756
  0
ARC
  8
0
 10
289.011078
 20
23.968967
 40
1.789093
 50
0.000000
 51
34.384346
  0
ARC
  8
0
 10
289.011078
 20
30.031139
 40
1.789081
 50
325.615662
 51
0.000000
  0
ARC
  8
0
 10
284.112762
 20
27.000042
 40
6.687395
 50
342.412018
 51
17.587976
  0
ARC
  8
0
 10
-95.873581
 20
-156.558472
 40
3.999999
 50
231.317795
 51
308.682190
  0
ARC
  8
0
 10
-95.873581
 20
-156.558472
 40
3.999999
 50
51.317799
 51
128.682205
  0
ARC
  8
0
 10
-95.873581
 20
-156.558487
 40
5.299996
 50
61.855400
 51
118.144600
  0
ARC
  8
0
 10
-95.873581
 20
-150.558472
 40
2.500000
 50
0.000000
 51
180.000000
  0
CIRCLE
  8
0
 10
-70.873581
 20
-227.558487
 40
2.067000
  0
CIRCLE
  8
0
 10
-70.873581
 20
-227.558487
 40
2.500000
  0
CIRCLE
  8
0
 10
-120.873581
 20
-227.558487
 40
2.067000
  0
CIRCLE
  8
0
 10
-120.873581
 20
-227.558487
 40
2.500000
  0
ARC
  8
0
 10
-93.873581
 20
-160.558487
 40
1.000000
 50
270.000000
 51
299.999939
  0
ARC
  8
0
 10
-97.873581
 20
-160.558487
 40
1.000002
 50
240.000076
 51
270.000000
  0
CIRCLE
  8
0
 10
-70.873581
 20
-161.558487
 40
2.750000
  0
CIRCLE
  8
0
 10
-120.873581
 20
-161.558487
 40
2.750000
  0
CIRCLE
  8
0
 10
-55.873627
 20
-54.558510
 40
5.000000
  0
CIRCLE
  8
0
 10
-55.873627
 20
-54.558510
 40
4.250000
  0
CIRCLE
  8
0
 10
-135.873627
 20
-54.558510
 40
4.250000
  0
CIRCLE
  8
0
 10
-135.873627
 20
-54.558510
 40
5.000000
  0
CIRCLE
  8
0
 10
-87.873627
 20
-54.558510
 40
2.750000
  0
CIRCLE
  8
0
 10
-103.873627
 20
-54.558510
 40
2.750000
  0
ARC
  8
0
 10
115.626404
 20
-155.558502
 40
1.000000
 50
270.000000
 51
0.000000
  0
ARC
  8
0
 10
115.626404
 20
-149.558502
 40
1.000000
 50
0.000000
 51
90.000000
  0
ARC
  8
0
 10
102.626404
 20
-149.558502
 40
1.000000
 50
90.000000
 51
180.000000
  0
ARC
  8
0
 10
102.626404
 20
-155.558502
 40
1.000000
 50
180.000000
 51
270.000000
  0
ARC
  8
0
 10
121.426422
 20
-148.758484
 40
6.199997
 50
0.000000
 51
90.000000
  0
ARC
  8
0
 10
96.826416
 20
-148.758484
 40
6.199997
 50
90.000000
 51
180.000000
  0
ARC
  8
0
 10
96.826416
 20
-148.758484
 40
3.000000
 50
90.000000
 51
180.000000
  0
ARC
  8
0
 10
121.426422
 20
-148.758484
 40
3.000000
 50
0.000000
 51
90.000000
  0
ARC
  8
0
 10
123.581757
 20
-231.022583
 40
2.044670
 50
0.000000
 51
34.384312
  0
ARC
  8
0
 10
117.983795
 20
-227.558502
 40
7.642619
 50
342.411774
 51
17.588131
  0
ARC
  8
0
 10
123.581757
 20
-224.094391
 40
2.044670
 50
325.615692
 51
0.000000
  0
ARC
  8
0
 10
88.126404
 20
-223.135849
 40
1.000000
 50
0.000000
 51
60.000069
  0
ARC
  8
0
 10
91.734100
 20
-172.558502
 40
6.000000
 50
90.000000
 51
120.000000
  0
ARC
  8
0
 10
81.126404
 20
-204.083282
 40
12.000000
 50
180.000000
 51
239.999969
  0
ARC
  8
0
 10
81.126404
 20
-185.611053
 40
12.000003
 50
120.000038
 51
180.000000
  0
ARC
  8
0
 10
81.126404
 20
-185.611053
 40
6.000000
 50
120.000000
 51
180.000000
  0
ARC
  8
0
 10
81.126404
 20
-204.083282
 40
6.000000
 50
180.000000
 51
240.000000
  0
ARC
  8
0
 10
94.814087
 20
-172.558502
 40
1.000000
 50
270.000000
 51
305.000031
  0
ARC
  8
0
 10
105.441711
 20
-167.558502
 40
1.000000
 50
90.000000
 51
125.000038
  0
TEXT
  8
0
 10
226.462494
 20
233.607468
 40
8.500000
  1
DATE : OCT ,1991
 50
0.000000
 41
1.052631
 51
0.000000
  7
STANDARD
  0
TEXT
  8
0
 10
13.821430
 20
227.956390
 40
10.000000
  1
BORE : 20
 50
0.000000
 41
1.052632
 51
0.000000
  7
STANDARD
  0
TEXT
  8
0
 10
-207.052139
 20
222.956390
 40
10.000000
  1
BORE : 16
 50
0.000000
 41
1.052632
 51
0.000000
  7
STANDARD
  0
TEXT
  8
0
 10
-357.052124
 20
-36.602112
 40
10.000000
  1
BORE : 25
 50
0.000000
 41
1.052632
 51
0.000000
  7
STANDARD
  0
TEXT
  8
0
 10
-360.779907
 20
232.257462
 40
10.000000
  1
ORCA CM MOUNT
 50
0.000000
 41
1.052632
 51
0.000000
  7
STANDARD
  0
ENDSEC
  0
EOF
