  0
SECTION
  2
HEADER
  0
ENDSEC
  0
SECTION
  2
TABLES
  0
TABLE
  2
LTYPE
 70
     4
  0
LTYPE
  2
CONTINUOUS
 70
    64
  3
Solid line
 72
    65
 73
     0
 40
0.000000
  0
LTYPE
  2
DASHED
 70
    64
  3
__ __ __ __ __ __ __ __ __ __ __ __ __ __ __
 72
    65
 73
     2
 40
3.500000
 49
2.000000
 49
-1.500000
  0
LTYPE
  2
CENTER
 70
    64
  3
____ _ ____ _ ____ _ ____ _ ____ _ ____ _ ____
 72
    65
 73
     4
 40
17.500000
 49
13.000000
 49
-1.500000
 49
1.500000
 49
-1.500000
  0
LTYPE
  2
PHANTOM
 70
    64
  3
_____ _ _ _____ _ _ _____ _ _ _____ _ _ ____  
 72
    65
 73
     6
 40
15.500000
 49
8.000000
 49
-1.500000
 49
1.500000
 49
-1.500000
 49
1.500000
 49
-1.500000
  0
LTYPE
  2
DASHED1
 70
    64
  3
__ __ __ __ __ __ __ __ __ __ __ __ __ __ __
 72
    65
 73
     2
 40
1.500000
 49
1.000000
 49
-0.500000
  0
LTYPE
  2
DASHED2
 70
    64
  3
__ __ __ __ __ __ __ __ __ __ __ __ __ __ __
 72
    65
 73
     2
 40
3.500000
 49
2.500000
 49
-1.000000
  0
LTYPE
  2
DASHED3
 70
    64
  3
__ __ __ __ __ __ __ __ __ __ __ __ __ __ __
 72
    65
 73
     2
 40
6.000000
 49
4.000000
 49
-2.000000
  0
LTYPE
  2
DASHED4
 70
    64
  3
__ __ __ __ __ __ __ __ __ __ __ __ __ __ __
 72
    65
 73
     2
 40
12.000000
 49
10.000000
 49
-2.000000
  0
LTYPE
  2
DASHED5
 70
    64
  3
__ __ __ __ __ __ __ __ __ __ __ __ __ __ __
 72
    65
 73
     2
 40
17.000000
 49
15.000000
 49
-2.000000
  0
LTYPE
  2
DASHED6
 70
    64
  3
__ __ __ __ __ __ __ __ __ __ __ __ __ __ __
 72
    65
 73
     2
 40
29.000000
 49
27.000000
 49
-2.000000
  0
LTYPE
  2
PHANTOM1
 70
    64
  3
_____ _ _ _____ _ _ _____ _ _ _____ _ _ ____  
 72
    65
 73
     6
 40
31.000000
 49
25.000000
 49
-1.500000
 49
1.000000
 49
-1.000000
 49
1.000000
 49
-1.500000
  0
LTYPE
  2
PHANTOM2
 70
    64
  3
_____ _ _ _____ _ _ _____ _ _ _____ _ _ ____  
 72
    65
 73
     6
 40
36.000000
 49
27.000000
 49
-1.500000
 49
2.500000
 49
-1.000000
 49
2.500000
 49
-1.500000
  0
LTYPE
  2
PHANTOM3
 70
    64
  3
_____ _ _ _____ _ _ _____ _ _ _____ _ _ ____  
 72
    65
 73
     6
 40
78.000000
 49
64.000000
 49
-2.000000
 49
4.000000
 49
-2.000000
 49
4.000000
 49
-2.000000
  0
LTYPE
  2
CENTER1
 70
    64
  3
____ _ ____ _ ____ _ ____ _ ____ _ ____ _ ____
 72
    65
 73
     4
 40
19.000000
 49
14.000000
 49
-1.000000
 49
3.000000
 49
-1.000000
  0
LTYPE
  2
CENTER2
 70
    64
  3
____ _ ____ _ ____ _ ____ _ ____ _ ____ _ ____
 72
    65
 73
     4
 40
28.500000
 49
25.000000
 49
-1.000000
 49
1.500000
 49
-1.000000
  0
LTYPE
  2
CENTER3
 70
    64
  3
____ _ ____ _ ____ _ ____ _ ____ _ ____ _ ____
 72
    65
 73
     4
 40
31.500000
 49
27.000000
 49
-1.000000
 49
2.500000
 49
-1.000000
  0
LTYPE
  2
CENTER4
 70
    64
  3
____ _ ____ _ ____ _ ____ _ ____ _ ____ _ ____
 72
    65
 73
     4
 40
50.000000
 49
45.000000
 49
-1.000000
 49
3.000000
 49
-1.000000
  0
LTYPE
  2
CENTER5
 70
    64
  3
____ _ ____ _ ____ _ ____ _ ____ _ ____ _ ____
 72
    65
 73
     4
 40
100.000000
 49
92.000000
 49
-2.000000
 49
4.000000
 49
-2.000000
  0
LTYPE
  2
SBK1
 70
    64
  3
______ _ _ _ ______ _ _ _ ______ _ _ _ _____  
 72
    65
 73
     8
 40
60.500000
 49
45.000000
 49
-2.000000
 49
2.500000
 49
-2.000000
 49
2.500000
 49
-2.000000
 49
2.500000
 49
-2.000000
  0
LTYPE
  2
SBK2
 70
    64
  3
______ _ _ _ ______ _ _ _ ______ _ _ _ _____  
 72
    65
 73
     8
 40
84.000000
 49
64.000000
 49
-2.000000
 49
4.000000
 49
-2.000000
 49
4.000000
 49
-2.000000
 49
4.000000
 49
-2.000000
  0
LTYPE
  2
STCH
 70
    64
  3
__ __ __ __ __ __ __ __ __ __ __ __ __ __ __
 72
    65
 73
     2
 40
3.000000
 49
1.000000
 49
-2.000000
  0
LTYPE
  2
MTCH
 70
    64
  3
_____ _ _ _____ _ _ _____ _ _ _____ _ _ ____  
 72
    65
 73
     6
 40
80.000000
 49
66.000000
 49
-2.000000
 49
4.000000
 49
-2.000000
 49
4.000000
 49
-2.000000
  0
ENDTAB
  0
TABLE
  2
LAYER
 70
     1
  0
LAYER
  2
0
 70
     0
 62
     7
  6
CONTINUOUS
  0
ENDTAB
  0
TABLE
  2
STYLE
 70
     1
  0
STYLE
  2
STANDARD
 70
     0
 40
0.000000
 41
1.000000
 50
0.000000
 71
     0
 42
0.200000
  3
txt
  4
BIGFONT
  0
ENDTAB
  0
TABLE
  2
VIEW
 70
     0
  0
ENDTAB
  0
ENDSEC
  0
SECTION
  2
BLOCKS
  0
ENDSEC
  0
SECTION
  2
ENTITIES
  0
POINT
  8
0
 10
-501.750122
 20
314.999847
  0
POINT
  8
0
 10
-406.749969
 20
314.999847
  0
POINT
  8
0
 10
-501.750000
 20
119.999939
  0
POINT
  8
0
 10
-406.750031
 20
119.999939
  0
POINT
  8
0
 10
-165.750061
 20
119.999992
  0
POINT
  8
0
 10
250.000000
 20
119.999939
  0
POINT
  8
0
 10
365.000000
 20
119.999939
  0
POINT
  8
0
 10
249.999969
 20
334.999878
  0
POINT
  8
0
 10
364.999969
 20
334.999878
  0
POINT
  8
0
 10
590.000000
 20
119.999969
  0
POINT
  8
0
 10
215.249817
 20
-379.115112
  0
POINT
  8
0
 10
-211.750031
 20
-129.115036
  0
POINT
  8
0
 10
-91.750038
 20
-129.115036
  0
POINT
  8
0
 10
-211.750000
 20
-379.114990
  0
POINT
  8
0
 10
-91.750000
 20
-379.114990
  0
POINT
  8
0
 10
-191.750061
 20
119.999992
  0
POINT
  8
0
 10
560.000000
 20
119.999969
  0
POINT
  8
0
 10
178.249817
 20
-379.115112
  0
LINE
  8
0
 62
     3
 10
-741.750000
 20
-509.114990
 11
741.750000
 21
-509.114990
  0
LINE
  8
0
 62
     3
 10
-741.750000
 20
509.114990
 11
741.750000
 21
509.114990
  0
LINE
  8
0
 62
     3
 10
741.750000
 20
509.114990
 11
741.750000
 21
-509.114990
  0
LINE
  8
0
 62
     3
 10
-741.750000
 20
509.114990
 11
-741.750000
 21
-509.114990
  0
LINE
  8
0
 62
     5
 10
516.764709
 20
-465.668823
 11
546.072388
 21
-465.668823
  0
LINE
  8
0
 62
     5
 10
516.764709
 20
-491.658691
 11
541.648621
 21
-491.658691
  0
LINE
  8
0
 62
     5
 10
516.764709
 20
-498.294342
 11
550.496216
 21
-498.294342
  0
LINE
  8
0
 62
     5
 10
516.764709
 20
-472.304474
 11
541.648621
 21
-472.304474
  0
LINE
  8
0
 62
     5
 10
516.764709
 20
-465.668823
 11
516.764709
 21
-472.304474
  0
LINE
  8
0
 62
     5
 10
550.496216
 20
-470.092651
 11
550.496216
 21
-498.294342
  0
LINE
  8
0
 62
     5
 10
541.648621
 20
-472.304474
 11
541.648621
 21
-491.658691
  0
LINE
  8
0
 62
     5
 10
555.472900
 20
-465.668823
 11
555.472900
 21
-472.304474
  0
LINE
  8
0
 62
     5
 10
586.992432
 20
-472.304474
 11
586.992432
 21
-493.870697
  0
LINE
  8
0
 62
     5
 10
578.144897
 20
-472.304474
 11
578.144897
 21
-491.658691
  0
LINE
  8
0
 62
     5
 10
516.764709
 20
-491.658691
 11
516.764709
 21
-498.294342
  0
LINE
  8
0
 62
     5
 10
555.472900
 20
-465.668823
 11
564.214966
 21
-465.668823
  0
LINE
  8
0
 62
     5
 10
555.472900
 20
-498.294342
 11
562.342773
 21
-498.294342
  0
LINE
  8
0
 62
     5
 10
555.472717
 20
-498.294098
 11
562.436890
 21
-472.304413
  0
LINE
  8
0
 62
     5
 10
555.472900
 20
-472.304474
 11
562.436951
 21
-472.304474
  0
LINE
  8
0
 62
     5
 10
562.343140
 20
-498.294647
 11
569.307007
 21
-472.304871
  0
LINE
  8
0
 62
     5
 10
571.509094
 20
-491.658691
 11
578.144897
 21
-491.658691
  0
LINE
  8
0
 62
     5
 10
571.508972
 20
-491.658600
 11
573.286804
 21
-498.294128
  0
LINE
  8
0
 62
     5
 10
573.287354
 20
-498.294342
 11
582.568787
 21
-498.294342
  0
LINE
  8
0
 62
     5
 10
569.306763
 20
-472.304474
 11
578.144897
 21
-472.304474
  0
LINE
  8
0
 62
     5
 10
571.084717
 20
-465.668823
 11
580.356750
 21
-465.668823
  0
LINE
  8
0
 62
     5
 10
564.215088
 20
-465.668854
 11
565.533630
 21
-460.747498
  0
LINE
  8
0
 62
     5
 10
571.084290
 20
-465.668488
 11
572.402893
 21
-460.746979
  0
LINE
  8
0
 62
     5
 10
592.522278
 20
-465.668823
 11
603.028809
 21
-465.668823
  0
LINE
  8
0
 62
     5
 10
592.522278
 20
-472.304474
 11
618.325867
 21
-472.304474
  0
LINE
  8
0
 62
     5
 10
603.028809
 20
-498.294342
 11
611.876221
 21
-498.294342
  0
LINE
  8
0
 62
     5
 10
592.522278
 20
-465.668823
 11
592.522278
 21
-472.304474
  0
LINE
  8
0
 62
     5
 10
625.147827
 20
-484.336975
 11
625.147827
 21
-491.658691
  0
LINE
  8
0
 62
     5
 10
592.521790
 20
-491.658447
 11
603.028564
 21
-486.759003
  0
LINE
  8
0
 62
     5
 10
592.522827
 20
-484.337433
 11
618.326355
 21
-472.304932
  0
LINE
  8
0
 62
     5
 10
592.522278
 20
-484.336975
 11
592.522278
 21
-491.658691
  0
LINE
  8
0
 62
     5
 10
611.876038
 20
-485.469879
 11
625.147766
 21
-491.658478
  0
LINE
  8
0
 62
     5
 10
616.686646
 20
-480.391724
 11
625.148682
 21
-484.337585
  0
LINE
  8
0
 62
     5
 10
625.147827
 20
-470.092651
 11
625.147827
 21
-473.626892
  0
LINE
  8
0
 62
     5
 10
603.028809
 20
-460.747406
 11
603.028809
 21
-465.668823
  0
LINE
  8
0
 62
     5
 10
611.876221
 20
-460.747406
 11
611.876221
 21
-465.668823
  0
LINE
  8
0
 62
     5
 10
611.876221
 20
-465.668823
 11
620.723999
 21
-465.668823
  0
LINE
  8
0
 62
     5
 10
603.028809
 20
-486.759460
 11
603.028809
 21
-498.294342
  0
LINE
  8
0
 62
     5
 10
611.876221
 20
-485.470184
 11
611.876221
 21
-498.294342
  0
LINE
  8
0
 62
     5
 10
616.686707
 20
-480.391937
 11
622.594543
 21
-477.637115
  0
LINE
  8
0
 62
     5
 10
655.008484
 20
-462.738159
 11
661.644043
 21
-462.738159
  0
LINE
  8
0
 62
     5
 10
627.912720
 20
-476.445160
 11
627.912720
 21
-483.586365
  0
LINE
  8
0
 62
     5
 10
661.644043
 20
-462.738159
 11
661.644043
 21
-465.668823
  0
LINE
  8
0
 62
     5
 10
655.008484
 20
-462.738159
 11
655.008484
 21
-464.168060
  0
LINE
  8
0
 62
     5
 10
646.160828
 20
-476.328888
 11
646.160828
 21
-498.294342
  0
LINE
  8
0
 62
     5
 10
627.912903
 20
-476.445496
 11
653.614319
 21
-466.223785
  0
LINE
  8
0
 62
     5
 10
627.912598
 20
-483.586365
 11
646.160706
 21
-476.328796
  0
LINE
  8
0
 62
     5
 10
646.160828
 20
-498.294342
 11
655.008484
 21
-498.294342
  0
LINE
  8
0
 62
     5
 10
655.008484
 20
-472.810120
 11
655.008484
 21
-498.294342
  0
LINE
  8
0
 62
     5
 10
655.009155
 20
-472.810547
 11
657.461609
 21
-471.835114
  0
LINE
  8
0
 62
     5
 10
565.533691
 20
-460.747406
 11
572.403381
 21
-460.747406
  0
LINE
  8
0
 62
     5
 10
583.398193
 20
-460.747406
 11
586.218201
 21
-460.747406
  0
LINE
  8
0
 62
     5
 10
603.028809
 20
-460.747406
 11
611.876221
 21
-460.747406
  0
LINE
  8
0
 62
     5
 10
583.398193
 20
-465.171234
 11
586.218201
 21
-465.171234
  0
LINE
  8
0
 62
     5
 10
583.398193
 20
-460.747406
 11
583.398193
 21
-465.171234
  0
LINE
  8
0
 62
     5
 10
586.218201
 20
-460.747406
 11
586.218201
 21
-465.171234
  0
LINE
  8
0
 62
     5
 10
587.877319
 20
-460.747406
 11
587.877319
 21
-465.171234
  0
LINE
  8
0
 62
     5
 10
591.029297
 20
-460.747406
 11
591.029297
 21
-465.171234
  0
LINE
  8
0
 62
     5
 10
587.877319
 20
-460.747406
 11
591.029297
 21
-460.747406
  0
LINE
  8
0
 62
     5
 10
587.877319
 20
-465.171234
 11
591.029297
 21
-465.171234
  0
LINE
  8
0
 62
     3
 10
436.659546
 20
-451.914154
 11
436.659546
 21
-509.118408
  0
LINE
  8
0
 62
     3
 10
436.659546
 20
-451.914154
 11
741.749207
 21
-451.914154
  0
LINE
  8
0
 62
     3
 10
436.659546
 20
509.118408
 11
436.659546
 21
451.914032
  0
LINE
  8
0
 62
     3
 10
436.659546
 20
451.914032
 11
741.749207
 21
451.914032
  0
LINE
  8
0
 62
     3
 10
-317.483978
 20
451.914032
 11
-317.483978
 21
509.118408
  0
LINE
  8
0
 62
     3
 10
-741.749207
 20
451.914032
 11
-317.483978
 21
451.914032
  0
LINE
  8
0
 10
0.000000
 20
509.114990
 11
0.000000
 21
-0.000061
  0
LINE
  8
0
 10
-741.749207
 20
-0.000061
 11
741.750000
 21
-0.000061
  0
LINE
  8
0
  6
PHANTOM
 10
-596.750000
 20
149.999908
 11
-581.750000
 21
149.999908
  0
LINE
  8
0
  6
PHANTOM
 10
-583.750000
 20
90.999916
 11
-581.750000
 21
90.999916
  0
LINE
  8
0
  6
CENTER
 10
-501.750000
 20
54.999916
 11
-501.750000
 21
184.999969
  0
LINE
  8
0
  6
CENTER
 10
-601.750000
 20
119.999939
 11
-401.750000
 21
119.999939
  0
LINE
  8
0
  6
CENTER
 10
-601.750122
 20
314.999847
 11
-401.750092
 21
314.999847
  0
LINE
  8
0
  6
PHANTOM
 10
-596.750000
 20
290.999847
 11
-581.750000
 21
290.999847
  0
LINE
  8
0
  6
PHANTOM
 10
-596.750122
 20
338.999847
 11
-406.750153
 21
338.999847
  0
LINE
  8
0
  6
CENTER
 10
-501.750122
 20
343.999847
 11
-501.750122
 21
267.999847
  0
LINE
  8
0
  6
PHANTOM
 10
-594.262207
 20
301.999847
 11
-581.750122
 21
301.999847
  0
LINE
  8
0
  6
PHANTOM
 10
-599.237976
 20
327.999847
 11
-566.750122
 21
327.999847
  0
LINE
  8
0
  6
PHANTOM
 10
-597.950195
 20
318.249847
 11
-581.750122
 21
318.249847
  0
LINE
  8
0
  6
PHANTOM
 10
-595.549927
 20
311.749847
 11
-581.750122
 21
311.749847
  0
LINE
  8
0
  6
PHANTOM
 10
-421.750092
 20
311.749847
 11
-405.549927
 21
311.749847
  0
LINE
  8
0
  6
PHANTOM
 10
-421.750092
 20
318.249847
 11
-407.950256
 21
318.249847
  0
LINE
  8
0
  6
PHANTOM
 10
-421.750092
 20
301.999847
 11
-404.262207
 21
301.999847
  0
LINE
  8
0
  6
PHANTOM
 10
-421.750031
 20
290.999847
 11
-406.750031
 21
290.999847
  0
LINE
  8
0
  6
PHANTOM
 10
-556.750122
 20
327.999847
 11
-446.750000
 21
327.999847
  0
LINE
  8
0
  6
PHANTOM
 10
-436.750122
 20
327.999847
 11
-409.237976
 21
327.999847
  0
LINE
  8
0
  6
CENTER
 10
-222.750061
 20
119.999992
 11
-160.750061
 21
119.999992
  0
LINE
  8
0
  6
CENTER
 10
-191.750061
 20
54.999992
 11
-191.750061
 21
185.000000
  0
LINE
  8
0
  6
PHANTOM
 10
-204.750122
 20
150.000000
 11
-195.000061
 21
150.000000
  0
LINE
  8
0
  6
PHANTOM
 10
-178.750061
 20
144.000000
 11
-178.750061
 21
150.000000
  0
LINE
  8
0
  6
PHANTOM
 10
-204.750061
 20
144.000000
 11
-204.750061
 21
149.999969
  0
LINE
  8
0
  6
PHANTOM
 10
-186.500061
 20
143.699982
 11
-186.500061
 21
145.000000
  0
LINE
  8
0
  6
PHANTOM
 10
-197.000061
 20
143.699982
 11
-197.000061
 21
145.000000
  0
LINE
  8
0
  6
PHANTOM
 10
-188.500061
 20
148.000000
 11
-188.500061
 21
150.000000
  0
LINE
  8
0
  6
PHANTOM
 10
-195.000061
 20
148.000000
 11
-195.000061
 21
150.000000
  0
LINE
  8
0
  6
PHANTOM
 10
-197.000061
 20
143.699982
 11
-186.500061
 21
143.699982
  0
LINE
  8
0
  6
PHANTOM
 10
-200.750000
 20
59.999992
 11
-182.750000
 21
59.999992
  0
LINE
  8
0
  6
PHANTOM
 10
-182.750061
 20
60.000000
 11
-182.750061
 21
91.000000
  0
LINE
  8
0
  6
PHANTOM
 10
-200.750061
 20
59.999985
 11
-200.750061
 21
90.999985
  0
LINE
  8
0
  6
PHANTOM
 10
-206.250000
 20
90.999992
 11
-177.250000
 21
90.999992
  0
LINE
  8
0
  6
PHANTOM
 10
-205.250000
 20
65.999992
 11
-200.750000
 21
65.999992
  0
LINE
  8
0
  6
PHANTOM
 10
-178.250061
 20
66.000008
 11
-178.250061
 21
68.226486
  0
LINE
  8
0
  6
PHANTOM
 10
-205.250061
 20
65.999977
 11
-205.250061
 21
66.499992
  0
LINE
  8
0
  6
PHANTOM
 10
-182.750000
 20
65.999992
 11
-178.250000
 21
65.999992
  0
LINE
  8
0
  6
PHANTOM
 10
-215.750061
 20
99.999992
 11
-215.750061
 21
140.000000
  0
LINE
  8
0
  6
PHANTOM
 10
-167.750061
 20
99.999992
 11
-167.750061
 21
140.000000
  0
LINE
  8
0
  6
PHANTOM
 10
-205.250061
 20
83.927620
 11
-205.250061
 21
90.999992
  0
LINE
  8
0
  6
PHANTOM
 10
-178.250061
 20
79.773514
 11
-178.250061
 21
91.000008
  0
LINE
  8
0
  6
PHANTOM
 10
-196.999878
 20
147.999969
 11
-195.000061
 21
147.999969
  0
LINE
  8
0
  6
PHANTOM
 10
-188.500061
 20
149.999969
 11
-178.750061
 21
149.999969
  0
LINE
  8
0
  6
PHANTOM
 10
-196.999939
 20
145.000000
 11
-196.999939
 21
147.999969
  0
LINE
  8
0
  6
PHANTOM
 10
-186.499939
 20
144.999969
 11
-186.499939
 21
147.999969
  0
LINE
  8
0
  6
PHANTOM
 10
-188.500061
 20
147.999969
 11
-186.499817
 21
147.999969
  0
LINE
  8
0
  6
PHANTOM
 10
-421.750000
 20
149.999908
 11
-406.750000
 21
149.999908
  0
LINE
  8
0
  6
PHANTOM
 10
-421.750000
 20
90.999916
 11
-419.750000
 21
90.999916
  0
LINE
  8
0
  6
PHANTOM
 10
135.000000
 20
154.999969
 11
155.000000
 21
154.999969
  0
LINE
  8
0
  6
CENTER
 10
250.000000
 20
53.999924
 11
250.000000
 21
195.999969
  0
LINE
  8
0
  6
PHANTOM
 10
153.000015
 20
85.999924
 11
155.000000
 21
85.999924
  0
LINE
  8
0
  6
PHANTOM
 10
161.000000
 20
58.999924
 11
339.000000
 21
58.999924
  0
LINE
  8
0
  6
PHANTOM
 10
161.000000
 20
58.999924
 11
161.000000
 21
63.499969
  0
LINE
  8
0
  6
PHANTOM
 10
339.000000
 20
58.999924
 11
339.000000
 21
63.499969
  0
LINE
  8
0
  6
CENTER
 10
130.000000
 20
119.999939
 11
370.000000
 21
119.999939
  0
LINE
  8
0
  6
CENTER
 10
129.999969
 20
334.999878
 11
369.551239
 21
334.999878
  0
LINE
  8
0
  6
CENTER
 10
249.999969
 20
368.999878
 11
249.999969
 21
282.999878
  0
LINE
  8
0
  6
PHANTOM
 10
134.999969
 20
305.999878
 11
154.999969
 21
305.999878
  0
LINE
  8
0
  6
PHANTOM
 10
136.105988
 20
331.749878
 11
154.999969
 21
331.749878
  0
LINE
  8
0
  6
PHANTOM
 10
133.893951
 20
338.249878
 11
154.999969
 21
338.249878
  0
LINE
  8
0
  6
PHANTOM
 10
344.999969
 20
331.749878
 11
366.105988
 21
331.749878
  0
LINE
  8
0
  6
PHANTOM
 10
344.999969
 20
338.249878
 11
363.893951
 21
338.249878
  0
LINE
  8
0
  6
PHANTOM
 10
132.282455
 20
349.999878
 11
190.499939
 21
349.999878
  0
LINE
  8
0
  6
PHANTOM
 10
137.717484
 20
319.999878
 11
154.999969
 21
319.999878
  0
LINE
  8
0
  6
PHANTOM
 10
344.999969
 20
319.999878
 11
367.717499
 21
319.999878
  0
LINE
  8
0
  6
PHANTOM
 10
199.499969
 20
349.999878
 11
300.499969
 21
349.999878
  0
LINE
  8
0
  6
PHANTOM
 10
344.999969
 20
305.999878
 11
364.999969
 21
305.999878
  0
LINE
  8
0
  6
PHANTOM
 10
134.999969
 20
363.999878
 11
364.999969
 21
363.999878
  0
LINE
  8
0
  6
PHANTOM
 10
309.499969
 20
349.999878
 11
362.282440
 21
349.999878
  0
LINE
  8
0
  6
PHANTOM
 10
545.000000
 20
155.000015
 11
556.750000
 21
155.000015
  0
LINE
  8
0
  6
PHANTOM
 10
554.750000
 20
148.700012
 11
565.250000
 21
148.700012
  0
LINE
  8
0
  6
PHANTOM
 10
554.750000
 20
148.700012
 11
554.750000
 21
153.000000
  0
LINE
  8
0
  6
PHANTOM
 10
565.250000
 20
148.700012
 11
565.250000
 21
153.000000
  0
LINE
  8
0
  6
PHANTOM
 10
563.250000
 20
153.000031
 11
563.250000
 21
155.000031
  0
LINE
  8
0
  6
PHANTOM
 10
556.750000
 20
153.000000
 11
556.750000
 21
155.000000
  0
LINE
  8
0
  6
PHANTOM
 10
545.000000
 20
148.999969
 11
545.000000
 21
155.000000
  0
LINE
  8
0
  6
PHANTOM
 10
575.000000
 20
148.999969
 11
575.000000
 21
155.000015
  0
LINE
  8
0
  6
CENTER
 10
560.000000
 20
54.000015
 11
560.000000
 21
195.999969
  0
LINE
  8
0
  6
CENTER
 10
525.000000
 20
119.999969
 11
594.000000
 21
119.999969
  0
LINE
  8
0
  6
PHANTOM
 10
551.000122
 20
58.999969
 11
569.000122
 21
58.999969
  0
LINE
  8
0
  6
PHANTOM
 10
546.000000
 20
85.999969
 11
574.000000
 21
85.999969
  0
LINE
  8
0
  6
PHANTOM
 10
574.000000
 20
63.000038
 11
574.000000
 21
65.226463
  0
LINE
  8
0
  6
PHANTOM
 10
546.000000
 20
62.999992
 11
546.000000
 21
63.499969
  0
LINE
  8
0
  6
PHANTOM
 10
569.000000
 20
59.000031
 11
569.000000
 21
86.000031
  0
LINE
  8
0
  6
PHANTOM
 10
551.000000
 20
59.000000
 11
551.000000
 21
86.000000
  0
LINE
  8
0
  6
PHANTOM
 10
546.000122
 20
62.999969
 11
574.000122
 21
62.999969
  0
LINE
  8
0
  6
PHANTOM
 10
531.000000
 20
99.999969
 11
531.000000
 21
140.999969
  0
LINE
  8
0
  6
PHANTOM
 10
546.000000
 20
78.845268
 11
546.000000
 21
85.999969
  0
LINE
  8
0
  6
PHANTOM
 10
574.000000
 20
76.773491
 11
574.000000
 21
85.999969
  0
LINE
  8
0
  6
PHANTOM
 10
563.250000
 20
155.000015
 11
575.000000
 21
155.000015
  0
LINE
  8
0
  6
PHANTOM
 10
554.750000
 20
153.000000
 11
556.750000
 21
153.000000
  0
LINE
  8
0
  6
PHANTOM
 10
563.250000
 20
153.000000
 11
565.250000
 21
153.000000
  0
LINE
  8
0
  6
PHANTOM
 10
589.000000
 20
140.999969
 11
589.000000
 21
99.999969
  0
LINE
  8
0
  6
PHANTOM
 10
-581.750000
 20
59.999992
 11
-421.750000
 21
59.999992
  0
LINE
  8
0
  6
PHANTOM
 10
-421.750000
 20
59.999992
 11
-421.750000
 21
66.499939
  0
LINE
  8
0
  6
PHANTOM
 10
-581.750000
 20
59.999992
 11
-581.750000
 21
66.499939
  0
LINE
  8
0
  6
PHANTOM
 10
345.000000
 20
154.999969
 11
365.000000
 21
154.999969
  0
LINE
  8
0
  6
PHANTOM
 10
345.000000
 20
85.999924
 11
347.000000
 21
85.999924
  0
LINE
  8
0
 10
245.000000
 20
678.999695
 11
245.000000
 21
622.999695
  0
LINE
  8
0
 10
399.499969
 20
683.999756
 11
399.499969
 21
685.249756
  0
LINE
  8
0
 10
390.499969
 20
683.999756
 11
390.499969
 21
685.249756
  0
LINE
  8
0
 10
397.499969
 20
690.499634
 11
392.499969
 21
690.499634
  0
LINE
  8
0
 10
280.000000
 20
683.999634
 11
290.000000
 21
683.999634
  0
LINE
  8
0
 10
281.750031
 20
686.499634
 11
288.250031
 21
686.499634
  0
LINE
  8
0
 10
280.499969
 20
683.999756
 11
280.499969
 21
685.249756
  0
LINE
  8
0
 10
289.499969
 20
683.999756
 11
289.499969
 21
685.249756
  0
LINE
  8
0
 10
290.000000
 20
650.499695
 11
290.000000
 21
656.499695
  0
LINE
  8
0
 10
280.000000
 20
650.499695
 11
280.000000
 21
656.499695
  0
LINE
  8
0
 10
280.000061
 20
650.499695
 11
290.000061
 21
650.499695
  0
LINE
  8
0
 10
397.999969
 20
686.499634
 11
397.999969
 21
689.999695
  0
LINE
  8
0
 10
391.999969
 20
686.499634
 11
391.999969
 21
689.999695
  0
LINE
  8
0
 10
392.541473
 20
686.499634
 11
392.541473
 21
690.499695
  0
LINE
  8
0
 10
434.999969
 20
678.999695
 11
434.999969
 21
622.999695
  0
LINE
  8
0
 10
245.000000
 20
678.999695
 11
434.999969
 21
678.999695
  0
LINE
  8
0
 10
245.000000
 20
660.999695
 11
434.999969
 21
660.999695
  0
LINE
  8
0
 10
428.999969
 20
678.999695
 11
428.999969
 21
660.999695
  0
LINE
  8
0
 10
251.000000
 20
678.999695
 11
251.000000
 21
660.999695
  0
LINE
  8
0
 10
397.458466
 20
686.499634
 11
397.458466
 21
690.499695
  0
LINE
  8
0
 10
389.999969
 20
650.499695
 11
389.999969
 21
656.499695
  0
LINE
  8
0
 10
399.999969
 20
650.499695
 11
399.999969
 21
656.499695
  0
LINE
  8
0
 10
399.999969
 20
650.499695
 11
389.999969
 21
650.499695
  0
LINE
  8
0
 10
392.499969
 20
690.499695
 11
391.999939
 21
689.999634
  0
LINE
  8
0
 10
245.000000
 20
622.999695
 11
434.999969
 21
622.999695
  0
LINE
  8
0
 10
394.999969
 20
678.999695
 11
394.999969
 21
683.999634
  0
LINE
  8
0
 10
389.999969
 20
678.999695
 11
389.999969
 21
683.999634
  0
LINE
  8
0
 10
399.999969
 20
678.999695
 11
399.999969
 21
683.999634
  0
LINE
  8
0
 10
391.999969
 20
689.999634
 11
397.999969
 21
689.999634
  0
LINE
  8
0
 10
397.500000
 20
690.499573
 11
398.000000
 21
689.999573
  0
LINE
  8
0
 10
282.500000
 20
690.499634
 11
287.500000
 21
690.499634
  0
LINE
  8
0
 10
281.999969
 20
686.499634
 11
281.999969
 21
689.999695
  0
LINE
  8
0
 10
287.999969
 20
686.499634
 11
287.999969
 21
689.999695
  0
LINE
  8
0
 10
287.458466
 20
686.499634
 11
287.458466
 21
690.499695
  0
LINE
  8
0
 10
282.541473
 20
686.499634
 11
282.541473
 21
690.499695
  0
LINE
  8
0
 10
287.499786
 20
690.499634
 11
287.999817
 21
689.999634
  0
LINE
  8
0
 10
282.499908
 20
690.499695
 11
281.999939
 21
689.999695
  0
LINE
  8
0
 10
288.000000
 20
689.999634
 11
282.000000
 21
689.999634
  0
LINE
  8
0
 10
245.000000
 20
656.499695
 11
434.999969
 21
656.499695
  0
LINE
  8
0
 10
280.000000
 20
678.999695
 11
280.000000
 21
683.999634
  0
LINE
  8
0
 10
290.000000
 20
678.999695
 11
290.000000
 21
683.999634
  0
LINE
  8
0
 10
285.000000
 20
678.999695
 11
285.000000
 21
683.999634
  0
LINE
  8
0
 10
399.999969
 20
683.999634
 11
389.999969
 21
683.999634
  0
LINE
  8
0
 10
398.249969
 20
686.499634
 11
391.749969
 21
686.499634
  0
LINE
  8
0
  6
CENTER
 10
285.000000
 20
645.499695
 11
285.000000
 21
695.499634
  0
LINE
  8
0
  6
CENTER
 10
295.000000
 20
662.999695
 11
295.000000
 21
676.999695
  0
LINE
  8
0
  6
CENTER
 10
312.500000
 20
683.999695
 11
312.500000
 21
651.499695
  0
LINE
  8
0
  6
CENTER
 10
367.500000
 20
683.999695
 11
367.500000
 21
651.499695
  0
LINE
  8
0
  6
CENTER
 10
384.999969
 20
662.999695
 11
384.999969
 21
676.999695
  0
LINE
  8
0
  6
CENTER
 10
394.999969
 20
645.499695
 11
394.999969
 21
695.499634
  0
LINE
  8
0
 10
245.000000
 20
678.999695
 11
245.000000
 21
622.999695
  0
LINE
  8
0
 10
399.499969
 20
683.999756
 11
399.499969
 21
685.249756
  0
LINE
  8
0
 10
390.499969
 20
683.999756
 11
390.499969
 21
685.249756
  0
LINE
  8
0
 10
397.499969
 20
690.499634
 11
392.499969
 21
690.499634
  0
LINE
  8
0
 10
280.000000
 20
683.999634
 11
290.000000
 21
683.999634
  0
LINE
  8
0
 10
281.750031
 20
686.499634
 11
288.250031
 21
686.499634
  0
LINE
  8
0
 10
280.499969
 20
683.999756
 11
280.499969
 21
685.249756
  0
LINE
  8
0
 10
289.499969
 20
683.999756
 11
289.499969
 21
685.249756
  0
LINE
  8
0
 10
290.000000
 20
650.499695
 11
290.000000
 21
656.499695
  0
LINE
  8
0
 10
280.000000
 20
650.499695
 11
280.000000
 21
656.499695
  0
LINE
  8
0
 10
280.000061
 20
650.499695
 11
290.000061
 21
650.499695
  0
LINE
  8
0
 10
397.999969
 20
686.499634
 11
397.999969
 21
689.999695
  0
LINE
  8
0
 10
391.999969
 20
686.499634
 11
391.999969
 21
689.999695
  0
LINE
  8
0
 10
392.541473
 20
686.499634
 11
392.541473
 21
690.499695
  0
LINE
  8
0
 10
434.999969
 20
678.999695
 11
434.999969
 21
622.999695
  0
LINE
  8
0
 10
245.000000
 20
678.999695
 11
434.999969
 21
678.999695
  0
LINE
  8
0
 10
245.000000
 20
660.999695
 11
434.999969
 21
660.999695
  0
LINE
  8
0
 10
428.999969
 20
678.999695
 11
428.999969
 21
660.999695
  0
LINE
  8
0
 10
251.000000
 20
678.999695
 11
251.000000
 21
660.999695
  0
LINE
  8
0
 10
397.458466
 20
686.499634
 11
397.458466
 21
690.499695
  0
LINE
  8
0
 10
389.999969
 20
650.499695
 11
389.999969
 21
656.499695
  0
LINE
  8
0
 10
399.999969
 20
650.499695
 11
399.999969
 21
656.499695
  0
LINE
  8
0
 10
399.999969
 20
650.499695
 11
389.999969
 21
650.499695
  0
LINE
  8
0
 10
392.499969
 20
690.499695
 11
391.999939
 21
689.999634
  0
LINE
  8
0
 10
245.000000
 20
622.999695
 11
434.999969
 21
622.999695
  0
LINE
  8
0
 10
394.999969
 20
678.999695
 11
394.999969
 21
683.999634
  0
LINE
  8
0
 10
389.999969
 20
678.999695
 11
389.999969
 21
683.999634
  0
LINE
  8
0
 10
399.999969
 20
678.999695
 11
399.999969
 21
683.999634
  0
LINE
  8
0
 10
391.999969
 20
689.999634
 11
397.999969
 21
689.999634
  0
LINE
  8
0
 10
397.500000
 20
690.499573
 11
398.000000
 21
689.999573
  0
LINE
  8
0
 10
282.500000
 20
690.499634
 11
287.500000
 21
690.499634
  0
LINE
  8
0
 10
281.999969
 20
686.499634
 11
281.999969
 21
689.999695
  0
LINE
  8
0
 10
287.999969
 20
686.499634
 11
287.999969
 21
689.999695
  0
LINE
  8
0
 10
287.458466
 20
686.499634
 11
287.458466
 21
690.499695
  0
LINE
  8
0
 10
282.541473
 20
686.499634
 11
282.541473
 21
690.499695
  0
LINE
  8
0
 10
287.499786
 20
690.499634
 11
287.999817
 21
689.999634
  0
LINE
  8
0
 10
282.499908
 20
690.499695
 11
281.999939
 21
689.999695
  0
LINE
  8
0
 10
288.000000
 20
689.999634
 11
282.000000
 21
689.999634
  0
LINE
  8
0
 10
245.000000
 20
656.499695
 11
434.999969
 21
656.499695
  0
LINE
  8
0
 10
280.000000
 20
678.999695
 11
280.000000
 21
683.999634
  0
LINE
  8
0
 10
290.000000
 20
678.999695
 11
290.000000
 21
683.999634
  0
LINE
  8
0
 10
285.000000
 20
678.999695
 11
285.000000
 21
683.999634
  0
LINE
  8
0
 10
399.999969
 20
683.999634
 11
389.999969
 21
683.999634
  0
LINE
  8
0
 10
398.249969
 20
686.499634
 11
391.749969
 21
686.499634
  0
LINE
  8
0
  6
CENTER
 10
285.000000
 20
645.499695
 11
285.000000
 21
695.499634
  0
LINE
  8
0
  6
CENTER
 10
295.000000
 20
662.999695
 11
295.000000
 21
676.999695
  0
LINE
  8
0
  6
CENTER
 10
312.500000
 20
683.999695
 11
312.500000
 21
651.499695
  0
LINE
  8
0
  6
CENTER
 10
367.500000
 20
683.999695
 11
367.500000
 21
651.499695
  0
LINE
  8
0
  6
CENTER
 10
384.999969
 20
662.999695
 11
384.999969
 21
676.999695
  0
LINE
  8
0
  6
CENTER
 10
394.999969
 20
645.499695
 11
394.999969
 21
695.499634
  0
LINE
  8
0
 10
245.000000
 20
678.999695
 11
245.000000
 21
622.999695
  0
LINE
  8
0
 10
399.499969
 20
683.999756
 11
399.499969
 21
685.249756
  0
LINE
  8
0
 10
390.499969
 20
683.999756
 11
390.499969
 21
685.249756
  0
LINE
  8
0
 10
397.499969
 20
690.499634
 11
392.499969
 21
690.499634
  0
LINE
  8
0
 10
280.000000
 20
683.999634
 11
290.000000
 21
683.999634
  0
LINE
  8
0
 10
281.750031
 20
686.499634
 11
288.250031
 21
686.499634
  0
LINE
  8
0
 10
280.499969
 20
683.999756
 11
280.499969
 21
685.249756
  0
LINE
  8
0
 10
289.499969
 20
683.999756
 11
289.499969
 21
685.249756
  0
LINE
  8
0
 10
290.000000
 20
650.499695
 11
290.000000
 21
656.499695
  0
LINE
  8
0
 10
280.000000
 20
650.499695
 11
280.000000
 21
656.499695
  0
LINE
  8
0
 10
280.000061
 20
650.499695
 11
290.000061
 21
650.499695
  0
LINE
  8
0
 10
397.999969
 20
686.499634
 11
397.999969
 21
689.999695
  0
LINE
  8
0
 10
391.999969
 20
686.499634
 11
391.999969
 21
689.999695
  0
LINE
  8
0
 10
392.541473
 20
686.499634
 11
392.541473
 21
690.499695
  0
LINE
  8
0
 10
434.999969
 20
678.999695
 11
434.999969
 21
622.999695
  0
LINE
  8
0
 10
245.000000
 20
678.999695
 11
434.999969
 21
678.999695
  0
LINE
  8
0
 10
245.000000
 20
660.999695
 11
434.999969
 21
660.999695
  0
LINE
  8
0
 10
428.999969
 20
678.999695
 11
428.999969
 21
660.999695
  0
LINE
  8
0
 10
251.000000
 20
678.999695
 11
251.000000
 21
660.999695
  0
LINE
  8
0
 10
397.458466
 20
686.499634
 11
397.458466
 21
690.499695
  0
LINE
  8
0
 10
389.999969
 20
650.499695
 11
389.999969
 21
656.499695
  0
LINE
  8
0
 10
399.999969
 20
650.499695
 11
399.999969
 21
656.499695
  0
LINE
  8
0
 10
399.999969
 20
650.499695
 11
389.999969
 21
650.499695
  0
LINE
  8
0
 10
392.499969
 20
690.499695
 11
391.999939
 21
689.999634
  0
LINE
  8
0
 10
245.000000
 20
622.999695
 11
434.999969
 21
622.999695
  0
LINE
  8
0
 10
394.999969
 20
678.999695
 11
394.999969
 21
683.999634
  0
LINE
  8
0
 10
389.999969
 20
678.999695
 11
389.999969
 21
683.999634
  0
LINE
  8
0
 10
399.999969
 20
678.999695
 11
399.999969
 21
683.999634
  0
LINE
  8
0
 10
391.999969
 20
689.999634
 11
397.999969
 21
689.999634
  0
LINE
  8
0
 10
397.500000
 20
690.499573
 11
398.000000
 21
689.999573
  0
LINE
  8
0
 10
282.500000
 20
690.499634
 11
287.500000
 21
690.499634
  0
LINE
  8
0
 10
281.999969
 20
686.499634
 11
281.999969
 21
689.999695
  0
LINE
  8
0
 10
287.999969
 20
686.499634
 11
287.999969
 21
689.999695
  0
LINE
  8
0
 10
287.458466
 20
686.499634
 11
287.458466
 21
690.499695
  0
LINE
  8
0
 10
282.541473
 20
686.499634
 11
282.541473
 21
690.499695
  0
LINE
  8
0
 10
287.499786
 20
690.499634
 11
287.999817
 21
689.999634
  0
LINE
  8
0
 10
282.499908
 20
690.499695
 11
281.999939
 21
689.999695
  0
LINE
  8
0
 10
288.000000
 20
689.999634
 11
282.000000
 21
689.999634
  0
LINE
  8
0
 10
245.000000
 20
656.499695
 11
434.999969
 21
656.499695
  0
LINE
  8
0
 10
280.000000
 20
678.999695
 11
280.000000
 21
683.999634
  0
LINE
  8
0
 10
290.000000
 20
678.999695
 11
290.000000
 21
683.999634
  0
LINE
  8
0
 10
285.000000
 20
678.999695
 11
285.000000
 21
683.999634
  0
LINE
  8
0
 10
399.999969
 20
683.999634
 11
389.999969
 21
683.999634
  0
LINE
  8
0
 10
398.249969
 20
686.499634
 11
391.749969
 21
686.499634
  0
LINE
  8
0
  6
CENTER
 10
285.000000
 20
645.499695
 11
285.000000
 21
695.499634
  0
LINE
  8
0
  6
CENTER
 10
295.000000
 20
662.999695
 11
295.000000
 21
676.999695
  0
LINE
  8
0
  6
CENTER
 10
312.500000
 20
683.999695
 11
312.500000
 21
651.499695
  0
LINE
  8
0
  6
CENTER
 10
367.500000
 20
683.999695
 11
367.500000
 21
651.499695
  0
LINE
  8
0
  6
CENTER
 10
384.999969
 20
662.999695
 11
384.999969
 21
676.999695
  0
LINE
  8
0
  6
CENTER
 10
394.999969
 20
645.499695
 11
394.999969
 21
695.499634
  0
LINE
  8
0
 10
245.000000
 20
678.999695
 11
245.000000
 21
622.999695
  0
LINE
  8
0
 10
399.499969
 20
683.999756
 11
399.499969
 21
685.249756
  0
LINE
  8
0
 10
390.499969
 20
683.999756
 11
390.499969
 21
685.249756
  0
LINE
  8
0
 10
397.499969
 20
690.499634
 11
392.499969
 21
690.499634
  0
LINE
  8
0
 10
280.000000
 20
683.999634
 11
290.000000
 21
683.999634
  0
LINE
  8
0
 10
281.750031
 20
686.499634
 11
288.250031
 21
686.499634
  0
LINE
  8
0
 10
280.499969
 20
683.999756
 11
280.499969
 21
685.249756
  0
LINE
  8
0
 10
289.499969
 20
683.999756
 11
289.499969
 21
685.249756
  0
LINE
  8
0
 10
290.000000
 20
650.499695
 11
290.000000
 21
656.499695
  0
LINE
  8
0
 10
280.000000
 20
650.499695
 11
280.000000
 21
656.499695
  0
LINE
  8
0
 10
280.000061
 20
650.499695
 11
290.000061
 21
650.499695
  0
LINE
  8
0
 10
397.999969
 20
686.499634
 11
397.999969
 21
689.999695
  0
LINE
  8
0
 10
391.999969
 20
686.499634
 11
391.999969
 21
689.999695
  0
LINE
  8
0
 10
392.541473
 20
686.499634
 11
392.541473
 21
690.499695
  0
LINE
  8
0
 10
434.999969
 20
678.999695
 11
434.999969
 21
622.999695
  0
LINE
  8
0
 10
245.000000
 20
678.999695
 11
434.999969
 21
678.999695
  0
LINE
  8
0
 10
245.000000
 20
660.999695
 11
434.999969
 21
660.999695
  0
LINE
  8
0
 10
428.999969
 20
678.999695
 11
428.999969
 21
660.999695
  0
LINE
  8
0
 10
251.000000
 20
678.999695
 11
251.000000
 21
660.999695
  0
LINE
  8
0
 10
397.458466
 20
686.499634
 11
397.458466
 21
690.499695
  0
LINE
  8
0
 10
389.999969
 20
650.499695
 11
389.999969
 21
656.499695
  0
LINE
  8
0
 10
399.999969
 20
650.499695
 11
399.999969
 21
656.499695
  0
LINE
  8
0
 10
399.999969
 20
650.499695
 11
389.999969
 21
650.499695
  0
LINE
  8
0
 10
392.499969
 20
690.499695
 11
391.999939
 21
689.999634
  0
LINE
  8
0
 10
245.000000
 20
622.999695
 11
434.999969
 21
622.999695
  0
LINE
  8
0
 10
394.999969
 20
678.999695
 11
394.999969
 21
683.999634
  0
LINE
  8
0
 10
389.999969
 20
678.999695
 11
389.999969
 21
683.999634
  0
LINE
  8
0
 10
399.999969
 20
678.999695
 11
399.999969
 21
683.999634
  0
LINE
  8
0
 10
391.999969
 20
689.999634
 11
397.999969
 21
689.999634
  0
LINE
  8
0
 10
397.500000
 20
690.499573
 11
398.000000
 21
689.999573
  0
LINE
  8
0
 10
282.500000
 20
690.499634
 11
287.500000
 21
690.499634
  0
LINE
  8
0
 10
281.999969
 20
686.499634
 11
281.999969
 21
689.999695
  0
LINE
  8
0
 10
287.999969
 20
686.499634
 11
287.999969
 21
689.999695
  0
LINE
  8
0
 10
287.458466
 20
686.499634
 11
287.458466
 21
690.499695
  0
LINE
  8
0
 10
282.541473
 20
686.499634
 11
282.541473
 21
690.499695
  0
LINE
  8
0
 10
287.499786
 20
690.499634
 11
287.999817
 21
689.999634
  0
LINE
  8
0
 10
282.499908
 20
690.499695
 11
281.999939
 21
689.999695
  0
LINE
  8
0
 10
288.000000
 20
689.999634
 11
282.000000
 21
689.999634
  0
LINE
  8
0
 10
245.000000
 20
656.499695
 11
434.999969
 21
656.499695
  0
LINE
  8
0
 10
280.000000
 20
678.999695
 11
280.000000
 21
683.999634
  0
LINE
  8
0
 10
290.000000
 20
678.999695
 11
290.000000
 21
683.999634
  0
LINE
  8
0
 10
285.000000
 20
678.999695
 11
285.000000
 21
683.999634
  0
LINE
  8
0
 10
399.999969
 20
683.999634
 11
389.999969
 21
683.999634
  0
LINE
  8
0
 10
398.249969
 20
686.499634
 11
391.749969
 21
686.499634
  0
LINE
  8
0
  6
CENTER
 10
285.000000
 20
645.499695
 11
285.000000
 21
695.499634
  0
LINE
  8
0
  6
CENTER
 10
295.000000
 20
662.999695
 11
295.000000
 21
676.999695
  0
LINE
  8
0
  6
CENTER
 10
312.500000
 20
683.999695
 11
312.500000
 21
651.499695
  0
LINE
  8
0
  6
CENTER
 10
367.500000
 20
683.999695
 11
367.500000
 21
651.499695
  0
LINE
  8
0
  6
CENTER
 10
384.999969
 20
662.999695
 11
384.999969
 21
676.999695
  0
LINE
  8
0
  6
CENTER
 10
394.999969
 20
645.499695
 11
394.999969
 21
695.499634
  0
LINE
  8
0
  6
PHANTOM
 10
-331.750000
 20
-339.115021
 11
-311.750000
 21
-339.115021
  0
LINE
  8
0
  6
PHANTOM
 10
-331.750000
 20
-414.115021
 11
-311.750000
 21
-414.115021
  0
LINE
  8
0
  6
PHANTOM
 10
-333.621216
 20
-344.115021
 11
-311.750000
 21
-344.115021
  0
LINE
  8
0
  6
PHANTOM
 10
-305.750000
 20
-448.115021
 11
-117.750000
 21
-448.115021
  0
LINE
  8
0
  6
PHANTOM
 10
-314.250000
 20
-419.115021
 11
-311.750000
 21
-419.115021
  0
LINE
  8
0
  6
CENTER
 10
-211.750000
 20
-453.115021
 11
-211.750000
 21
-295.114990
  0
LINE
  8
0
  6
PHANTOM
 10
-305.750000
 20
-448.115021
 11
-305.750000
 21
-443.615021
  0
LINE
  8
0
  6
PHANTOM
 10
-117.750000
 20
-448.115021
 11
-117.750000
 21
-443.615021
  0
LINE
  8
0
  6
CENTER
 10
-336.750000
 20
-379.114990
 11
-86.750000
 21
-379.114990
  0
LINE
  8
0
  6
PHANTOM
 10
-111.750000
 20
-414.115021
 11
-91.750000
 21
-414.115021
  0
LINE
  8
0
  6
PHANTOM
 10
-111.750000
 20
-419.115021
 11
-109.250000
 21
-419.115021
  0
LINE
  8
0
  6
PHANTOM
 10
-111.750000
 20
-339.115021
 11
-91.750000
 21
-339.115021
  0
LINE
  8
0
  6
PHANTOM
 10
-111.750000
 20
-344.115021
 11
-93.621201
 21
-344.115021
  0
LINE
  8
0
  6
CENTER
 10
-336.750031
 20
-129.115036
 11
-86.750031
 21
-129.115036
  0
LINE
  8
0
  6
PHANTOM
 10
-331.750031
 20
-164.115036
 11
-311.750031
 21
-164.115036
  0
LINE
  8
0
  6
CENTER
 10
-211.750031
 20
-189.115036
 11
-211.750031
 21
-89.115036
  0
LINE
  8
0
  6
PHANTOM
 10
-111.750031
 20
-164.115036
 11
-91.750031
 21
-164.115036
  0
LINE
  8
0
  6
PHANTOM
 10
-328.650055
 20
-149.115036
 11
-311.750031
 21
-149.115036
  0
LINE
  8
0
  6
PHANTOM
 10
-333.124969
 20
-124.865036
 11
-311.750031
 21
-124.865036
  0
LINE
  8
0
  6
PHANTOM
 10
-330.375092
 20
-133.365036
 11
-311.750031
 21
-133.365036
  0
LINE
  8
0
  6
PHANTOM
 10
-111.750031
 20
-149.115036
 11
-88.650055
 21
-149.115036
  0
LINE
  8
0
  6
PHANTOM
 10
-111.750031
 20
-133.365036
 11
-90.375107
 21
-133.365036
  0
LINE
  8
0
  6
PHANTOM
 10
-111.750031
 20
-124.865036
 11
-93.124954
 21
-124.865036
  0
LINE
  8
0
  6
PHANTOM
 10
-334.850006
 20
-109.115036
 11
-94.850006
 21
-109.115036
  0
LINE
  8
0
  6
PHANTOM
 10
-331.750031
 20
-94.115036
 11
-91.750031
 21
-94.115036
  0
LINE
  8
0
  6
CENTER
 10
138.249817
 20
-379.115112
 11
218.249817
 21
-379.115112
  0
LINE
  8
0
  6
CENTER
 10
178.249817
 20
-453.115112
 11
178.249817
 21
-295.115112
  0
LINE
  8
0
  6
PHANTOM
 10
173.999817
 20
-341.115112
 11
173.999817
 21
-339.115112
  0
LINE
  8
0
  6
PHANTOM
 10
182.499817
 20
-341.115112
 11
182.499817
 21
-339.115112
  0
LINE
  8
0
  6
PHANTOM
 10
171.499817
 20
-346.415100
 11
171.499817
 21
-341.115112
  0
LINE
  8
0
  6
PHANTOM
 10
184.999817
 20
-346.415100
 11
184.999817
 21
-341.115112
  0
LINE
  8
0
  6
PHANTOM
 10
158.249817
 20
-339.115112
 11
173.999817
 21
-339.115112
  0
LINE
  8
0
  6
PHANTOM
 10
198.249817
 20
-344.115173
 11
198.249817
 21
-339.115112
  0
LINE
  8
0
  6
PHANTOM
 10
158.249817
 20
-344.115173
 11
158.249817
 21
-339.115112
  0
LINE
  8
0
  6
PHANTOM
 10
169.249847
 20
-448.115112
 11
187.249847
 21
-448.115112
  0
LINE
  8
0
  6
PHANTOM
 10
164.249847
 20
-444.115112
 11
192.249847
 21
-444.115112
  0
LINE
  8
0
  6
PHANTOM
 10
169.249817
 20
-448.115112
 11
169.249817
 21
-419.115112
  0
LINE
  8
0
  6
PHANTOM
 10
187.249817
 20
-448.115112
 11
187.249817
 21
-419.115112
  0
LINE
  8
0
  6
PHANTOM
 10
192.249817
 20
-444.115112
 11
192.249817
 21
-441.888611
  0
LINE
  8
0
  6
PHANTOM
 10
164.249817
 20
-444.115112
 11
164.249817
 21
-443.615112
  0
LINE
  8
0
  6
PHANTOM
 10
164.249817
 20
-419.115112
 11
192.249817
 21
-419.115112
  0
LINE
  8
0
  6
PHANTOM
 10
171.499786
 20
-346.415100
 11
184.999786
 21
-346.415100
  0
LINE
  8
0
  6
PHANTOM
 10
143.249817
 20
-406.115173
 11
143.249817
 21
-352.115173
  0
LINE
  8
0
  6
PHANTOM
 10
213.249817
 20
-406.115173
 11
213.249817
 21
-352.115173
  0
LINE
  8
0
  6
PHANTOM
 10
151.249817
 20
-344.115173
 11
158.249817
 21
-344.115173
  0
LINE
  8
0
  6
PHANTOM
 10
151.249817
 20
-414.115173
 11
205.249817
 21
-414.115173
  0
LINE
  8
0
  6
PHANTOM
 10
198.249817
 20
-344.115173
 11
205.249817
 21
-344.115173
  0
LINE
  8
0
  6
PHANTOM
 10
192.249817
 20
-430.341583
 11
192.249817
 21
-419.115112
  0
LINE
  8
0
  6
PHANTOM
 10
164.249817
 20
-428.417114
 11
164.249817
 21
-419.115112
  0
LINE
  8
0
  6
PHANTOM
 10
171.499817
 20
-341.115112
 11
173.999817
 21
-341.115112
  0
LINE
  8
0
  6
PHANTOM
 10
182.499817
 20
-339.115112
 11
198.249817
 21
-339.115112
  0
LINE
  8
0
  6
PHANTOM
 10
182.499817
 20
-341.115112
 11
184.999817
 21
-341.115112
  0
LINE
  8
0
  6
PHANTOM
 10
-599.387390
 20
143.999939
 11
-581.750000
 21
143.999939
  0
LINE
  8
0
  6
PHANTOM
 10
-597.186523
 20
95.999939
 11
-581.750000
 21
95.999939
  0
LINE
  8
0
  6
PHANTOM
 10
-421.750000
 20
143.999939
 11
-409.387390
 21
143.999939
  0
LINE
  8
0
  6
PHANTOM
 10
-421.750000
 20
95.999939
 11
-407.186523
 21
95.999939
  0
LINE
  8
0
  6
PHANTOM
 10
-211.750061
 20
95.999992
 11
-171.750061
 21
95.999992
  0
LINE
  8
0
  6
PHANTOM
 10
-211.750061
 20
144.000000
 11
-204.750061
 21
144.000000
  0
LINE
  8
0
  6
PHANTOM
 10
-178.750061
 20
144.000000
 11
-171.750061
 21
144.000000
  0
LINE
  8
0
  6
PHANTOM
 10
132.657486
 20
148.999939
 11
155.000000
 21
148.999939
  0
LINE
  8
0
  6
PHANTOM
 10
134.999985
 20
91.999939
 11
155.000000
 21
91.999939
  0
LINE
  8
0
  6
PHANTOM
 10
345.000000
 20
91.999939
 11
364.999969
 21
91.999939
  0
LINE
  8
0
  6
PHANTOM
 10
345.000000
 20
148.999939
 11
362.657501
 21
148.999939
  0
LINE
  8
0
  6
PHANTOM
 10
539.000000
 20
91.999969
 11
581.000000
 21
91.999969
  0
LINE
  8
0
  6
PHANTOM
 10
539.000000
 20
148.999969
 11
545.000000
 21
148.999969
  0
LINE
  8
0
  6
PHANTOM
 10
575.000000
 20
148.999969
 11
581.000000
 21
148.999969
  0
LINE
  8
0
  6
CENTER
 10
-471.749939
 20
173.499939
 11
-471.749939
 21
158.499939
  0
LINE
  8
0
 10
-581.749939
 20
66.499954
 11
-581.749939
 21
179.999939
  0
LINE
  8
0
 10
-421.749939
 20
66.499954
 11
-421.749939
 21
179.999939
  0
LINE
  8
0
 10
-474.249908
 20
75.443207
 11
-471.749878
 21
76.886597
  0
LINE
  8
0
 10
-471.749878
 20
76.886765
 11
-469.249847
 21
75.443375
  0
LINE
  8
0
 10
-469.249939
 20
75.443275
 11
-469.249939
 21
72.556511
  0
LINE
  8
0
 10
-469.249908
 20
72.556503
 11
-471.749939
 21
71.113106
  0
LINE
  8
0
 10
-471.749786
 20
71.113205
 11
-474.249817
 21
72.556595
  0
LINE
  8
0
 10
-474.249939
 20
72.556496
 11
-474.249939
 21
75.443260
  0
LINE
  8
0
 10
-439.249908
 20
75.443169
 11
-441.749939
 21
76.886559
  0
LINE
  8
0
 10
-441.749847
 20
76.886597
 11
-444.249847
 21
75.443230
  0
LINE
  8
0
 10
-444.249939
 20
75.443275
 11
-444.249939
 21
72.556511
  0
LINE
  8
0
 10
-444.250000
 20
72.556610
 11
-441.749969
 21
71.113220
  0
LINE
  8
0
 10
-441.749847
 20
71.113029
 11
-439.249817
 21
72.556412
  0
LINE
  8
0
 10
-439.249939
 20
72.556496
 11
-439.249939
 21
75.443260
  0
LINE
  8
0
 10
-444.249939
 20
164.556549
 11
-444.249939
 21
167.443298
  0
LINE
  8
0
 10
-444.250000
 20
167.443329
 11
-441.749939
 21
168.886734
  0
LINE
  8
0
 10
-564.249939
 20
75.443283
 11
-561.749939
 21
76.886673
  0
LINE
  8
0
 10
-561.749817
 20
76.886734
 11
-559.249756
 21
75.443344
  0
LINE
  8
0
 10
-559.249939
 20
75.443275
 11
-559.249939
 21
72.556511
  0
LINE
  8
0
 10
-559.249939
 20
72.556480
 11
-561.749878
 21
71.113121
  0
LINE
  8
0
 10
-561.749817
 20
71.113182
 11
-564.249817
 21
72.556572
  0
LINE
  8
0
 10
-564.249939
 20
72.556496
 11
-564.249939
 21
75.443260
  0
LINE
  8
0
 10
-439.249939
 20
167.443329
 11
-439.249939
 21
164.556549
  0
LINE
  8
0
 10
-578.749939
 20
97.145172
 11
-424.749939
 21
97.145172
  0
LINE
  8
0
 10
-534.249939
 20
75.443207
 11
-531.749878
 21
76.886604
  0
LINE
  8
0
 10
-531.749817
 20
76.886765
 11
-529.249817
 21
75.443375
  0
LINE
  8
0
 10
-529.249939
 20
75.443275
 11
-529.249939
 21
72.556511
  0
LINE
  8
0
 10
-529.249939
 20
72.556557
 11
-531.749939
 21
71.113167
  0
LINE
  8
0
 10
-531.749695
 20
71.113159
 11
-534.249756
 21
72.556549
  0
LINE
  8
0
 10
-534.249939
 20
72.556496
 11
-534.249939
 21
75.443260
  0
LINE
  8
0
  6
CENTER
 10
-541.749939
 20
73.999886
 11
-521.749939
 21
73.999886
  0
LINE
  8
0
 10
-581.749939
 20
173.499939
 11
-506.249939
 21
173.499939
  0
LINE
  8
0
 10
-581.749939
 20
179.999939
 11
-421.749939
 21
179.999939
  0
LINE
  8
0
 10
-578.749939
 20
149.229416
 11
-424.749939
 21
149.229416
  0
LINE
  8
0
 10
-441.750031
 20
168.886810
 11
-439.250000
 21
167.443436
  0
LINE
  8
0
 10
-578.749939
 20
156.999939
 11
-424.749939
 21
156.999939
  0
LINE
  8
0
  6
CENTER
 10
-481.749939
 20
73.999886
 11
-461.749939
 21
73.999886
  0
LINE
  8
0
 10
-561.749756
 20
163.113113
 11
-559.249756
 21
164.556488
  0
LINE
  8
0
 10
-564.249817
 20
164.556534
 11
-561.749878
 21
163.113174
  0
LINE
  8
0
 10
-497.249939
 20
173.499939
 11
-421.749939
 21
173.499939
  0
LINE
  8
0
 10
-559.249939
 20
164.556549
 11
-559.249939
 21
167.443298
  0
LINE
  8
0
 10
-559.249939
 20
167.443390
 11
-561.749878
 21
168.886765
  0
LINE
  8
0
 10
-561.749878
 20
168.886765
 11
-564.249878
 21
167.443390
  0
LINE
  8
0
 10
-564.249939
 20
167.443329
 11
-564.249939
 21
164.556549
  0
LINE
  8
0
 10
-506.249939
 20
163.499939
 11
-506.249939
 21
173.499939
  0
LINE
  8
0
 10
-497.249939
 20
163.499939
 11
-497.249939
 21
173.499939
  0
LINE
  8
0
 10
-504.249939
 20
161.499939
 11
-499.249939
 21
161.499939
  0
LINE
  8
0
 10
-441.749878
 20
163.113205
 11
-444.249847
 21
164.556580
  0
LINE
  8
0
 10
-439.249847
 20
164.556458
 11
-441.749878
 21
163.113037
  0
LINE
  8
0
  6
CENTER
 10
-571.749939
 20
165.999939
 11
-551.749939
 21
165.999939
  0
LINE
  8
0
  6
CENTER
 10
-561.749939
 20
175.999939
 11
-561.749939
 21
155.999939
  0
LINE
  8
0
  6
CENTER
 10
-539.249939
 20
165.999939
 11
-524.249939
 21
165.999939
  0
LINE
  8
0
  6
CENTER
 10
-531.749939
 20
173.499939
 11
-531.749939
 21
158.499939
  0
LINE
  8
0
  6
CENTER
 10
-510.749939
 20
167.999939
 11
-492.749939
 21
167.999939
  0
LINE
  8
0
  6
CENTER
 10
-464.249939
 20
165.999939
 11
-479.249939
 21
165.999939
  0
LINE
  8
0
  6
CENTER
 10
-431.749939
 20
165.999939
 11
-451.749939
 21
165.999939
  0
LINE
  8
0
  6
CENTER
 10
-441.749939
 20
175.999939
 11
-441.749939
 21
155.999939
  0
LINE
  8
0
  6
CENTER
 10
-441.749939
 20
63.999886
 11
-441.749939
 21
83.999886
  0
LINE
  8
0
  6
CENTER
 10
-431.749939
 20
73.999886
 11
-451.749939
 21
73.999886
  0
LINE
  8
0
 10
-578.749939
 20
82.999954
 11
-424.749939
 21
82.999954
  0
LINE
  8
0
  6
CENTER
 10
-471.749939
 20
63.999886
 11
-471.749939
 21
83.999886
  0
LINE
  8
0
  6
CENTER
 10
-531.749939
 20
63.999886
 11
-531.749939
 21
83.999886
  0
LINE
  8
0
 10
-581.749939
 20
66.499954
 11
-421.749939
 21
66.499954
  0
LINE
  8
0
  6
CENTER
 10
-561.749939
 20
63.999886
 11
-561.749939
 21
83.999886
  0
LINE
  8
0
  6
CENTER
 10
-571.749939
 20
73.999886
 11
-551.749939
 21
73.999886
  0
LINE
  8
0
 10
-436.749878
 20
301.999969
 11
-436.749878
 21
295.999969
  0
LINE
  8
0
 10
-446.749878
 20
301.999969
 11
-446.749878
 21
295.999969
  0
LINE
  8
0
 10
-566.749878
 20
328.999786
 11
-556.749878
 21
328.999786
  0
LINE
  8
0
 10
-566.749878
 20
301.999786
 11
-566.749878
 21
295.999786
  0
LINE
  8
0
 10
-566.749817
 20
295.999878
 11
-556.749817
 21
295.999878
  0
LINE
  8
0
 10
-557.249878
 20
328.999664
 11
-557.249878
 21
330.249664
  0
LINE
  8
0
 10
-564.999878
 20
331.499786
 11
-558.499878
 21
331.499786
  0
LINE
  8
0
 10
-558.749939
 20
335.499908
 11
-564.749939
 21
335.499908
  0
LINE
  8
0
 10
-566.249878
 20
328.999664
 11
-566.249878
 21
330.249664
  0
LINE
  8
0
 10
-446.749878
 20
328.999786
 11
-436.749878
 21
328.999786
  0
LINE
  8
0
 10
-559.249939
 20
335.999908
 11
-564.249939
 21
335.999908
  0
LINE
  8
0
 10
-564.749878
 20
331.499664
 11
-564.749878
 21
335.499664
  0
LINE
  8
0
 10
-558.749878
 20
331.499664
 11
-558.749878
 21
335.499664
  0
LINE
  8
0
 10
-437.249878
 20
328.999847
 11
-437.249878
 21
330.249847
  0
LINE
  8
0
 10
-444.999878
 20
331.499786
 11
-438.499878
 21
331.499786
  0
LINE
  8
0
 10
-446.249878
 20
328.999847
 11
-446.249878
 21
330.249847
  0
LINE
  8
0
 10
-438.749939
 20
335.499908
 11
-444.749939
 21
335.499908
  0
LINE
  8
0
 10
-439.249939
 20
335.999908
 11
-444.249939
 21
335.999908
  0
LINE
  8
0
 10
-444.749878
 20
331.499847
 11
-444.749878
 21
335.499847
  0
LINE
  8
0
 10
-438.749878
 20
331.499847
 11
-438.749878
 21
335.499847
  0
LINE
  8
0
 10
-439.291382
 20
331.499847
 11
-439.291382
 21
335.999969
  0
LINE
  8
0
 10
-444.208374
 20
331.499847
 11
-444.208374
 21
335.999969
  0
LINE
  8
0
 10
-438.749756
 20
335.500000
 11
-439.249756
 21
336.000031
  0
LINE
  8
0
 10
-444.249725
 20
335.999786
 11
-444.749695
 21
335.499817
  0
LINE
  8
0
 10
-581.749878
 20
323.999756
 11
-581.749878
 21
272.999756
  0
LINE
  8
0
 10
-421.749878
 20
324.000000
 11
-421.749878
 21
273.000000
  0
LINE
  8
0
 10
-581.749817
 20
272.999878
 11
-421.749817
 21
272.999878
  0
LINE
  8
0
 10
-581.749878
 20
323.999878
 11
-421.749878
 21
323.999878
  0
LINE
  8
0
 10
-581.749878
 20
305.999878
 11
-421.749878
 21
305.999878
  0
LINE
  8
0
 10
-559.291382
 20
331.499664
 11
-559.291382
 21
335.999786
  0
LINE
  8
0
 10
-564.208374
 20
331.499664
 11
-564.208374
 21
335.999786
  0
LINE
  8
0
 10
-556.749878
 20
328.999695
 11
-556.749878
 21
323.999786
  0
LINE
  8
0
 10
-566.749878
 20
328.999695
 11
-566.749878
 21
323.999786
  0
LINE
  8
0
 10
-581.749878
 20
301.999878
 11
-421.749878
 21
301.999878
  0
LINE
  8
0
 10
-561.749878
 20
328.999695
 11
-561.749878
 21
323.999786
  0
LINE
  8
0
 10
-556.749878
 20
301.999786
 11
-556.749878
 21
295.999786
  0
LINE
  8
0
 10
-564.249817
 20
335.999695
 11
-564.749817
 21
335.499725
  0
LINE
  8
0
 10
-558.749695
 20
335.499908
 11
-559.249634
 21
335.999908
  0
LINE
  8
0
 10
-446.749878
 20
328.999878
 11
-446.749878
 21
323.999969
  0
LINE
  8
0
 10
-436.749878
 20
328.999878
 11
-436.749878
 21
323.999969
  0
LINE
  8
0
 10
-441.749878
 20
328.999878
 11
-441.749878
 21
323.999969
  0
LINE
  8
0
 10
-446.749817
 20
295.999878
 11
-436.749817
 21
295.999878
  0
LINE
  8
0
  6
CENTER
 10
-561.749878
 20
340.999817
 11
-561.749878
 21
290.999786
  0
LINE
  8
0
  6
CENTER
 10
-546.750000
 20
321.999786
 11
-546.750000
 21
307.999786
  0
LINE
  8
0
  6
CENTER
 10
-531.749878
 20
328.999817
 11
-531.749878
 21
296.999817
  0
LINE
  8
0
  6
CENTER
 10
-471.749878
 20
328.999939
 11
-471.749878
 21
296.999939
  0
LINE
  8
0
  6
CENTER
 10
-456.750000
 20
321.999786
 11
-456.750000
 21
307.999786
  0
LINE
  8
0
  6
CENTER
 10
-441.749878
 20
341.000000
 11
-441.749878
 21
290.999969
  0
LINE
  8
0
 10
-209.250153
 20
66.499969
 11
-205.250153
 21
66.499969
  0
LINE
  8
0
 10
-204.749786
 20
173.499954
 11
-200.749786
 21
173.499954
  0
LINE
  8
0
 10
-200.749969
 20
179.999985
 11
-200.749969
 21
156.999985
  0
LINE
  8
0
 10
-204.749969
 20
173.500015
 11
-204.749969
 21
158.534653
  0
LINE
  8
0
 10
-233.749969
 20
143.090958
 11
-233.749969
 21
101.763969
  0
LINE
  8
0
 10
-206.232224
 20
156.602844
 11
-227.820465
 21
150.818283
  0
LINE
  8
0
 10
-229.749969
 20
143.090958
 11
-229.749969
 21
101.763985
  0
LINE
  8
0
 10
-210.250000
 20
83.577499
 11
-229.749969
 21
94.835800
  0
LINE
  8
0
 10
-170.749847
 20
163.499908
 11
-171.249847
 21
162.999924
  0
LINE
  8
0
 10
-209.249969
 20
66.500031
 11
-209.249969
 21
81.845329
  0
LINE
  8
0
 10
-208.249985
 20
87.041611
 11
-227.749939
 21
98.299911
  0
LINE
  8
0
 10
-205.196945
 20
152.739273
 11
-226.785187
 21
146.954712
  0
LINE
  8
0
 10
-177.749908
 20
170.499954
 11
-176.499908
 21
170.499954
  0
LINE
  8
0
 10
-173.250092
 20
71.113213
 11
-178.250092
 21
71.113213
  0
LINE
  8
0
 10
-173.250031
 20
79.773491
 11
-178.250031
 21
79.773491
  0
LINE
  8
0
 10
-173.250031
 20
76.886711
 11
-178.250031
 21
76.886711
  0
LINE
  8
0
 10
-173.250092
 20
68.226463
 11
-178.250092
 21
68.226463
  0
LINE
  8
0
 10
-173.250031
 20
68.226425
 11
-173.250031
 21
79.773453
  0
LINE
  8
0
 10
-215.249969
 20
69.000031
 11
-215.249969
 21
79.000031
  0
LINE
  8
0
 10
-170.750031
 20
70.749893
 11
-170.750031
 21
77.249893
  0
LINE
  8
0
 10
-173.250214
 20
69.499969
 11
-172.000214
 21
69.499969
  0
LINE
  8
0
 10
-173.250153
 20
78.499969
 11
-172.000153
 21
78.499969
  0
LINE
  8
0
 10
-177.750092
 20
160.226425
 11
-177.750092
 21
171.773453
  0
LINE
  8
0
 10
-182.749969
 20
156.999924
 11
-182.749969
 21
179.999924
  0
LINE
  8
0
 10
-177.749847
 20
160.226456
 11
-182.749847
 21
160.226456
  0
LINE
  8
0
 10
-177.749847
 20
163.113205
 11
-182.749847
 21
163.113205
  0
LINE
  8
0
 10
-177.749786
 20
168.886703
 11
-182.749786
 21
168.886703
  0
LINE
  8
0
 10
-215.250031
 20
78.999969
 11
-209.250031
 21
78.999969
  0
LINE
  8
0
 10
-215.250092
 20
68.999969
 11
-209.250092
 21
68.999969
  0
LINE
  8
0
 10
-178.249969
 20
68.226418
 11
-178.249969
 21
79.773445
  0
LINE
  8
0
 10
-177.749786
 20
171.773483
 11
-182.749786
 21
171.773483
  0
LINE
  8
0
 10
-205.249969
 20
66.500015
 11
-205.249969
 21
81.845314
  0
LINE
  8
0
 10
-171.249771
 20
168.999939
 11
-170.749756
 21
168.499924
  0
LINE
  8
0
 10
-210.749725
 20
170.999954
 11
-204.749725
 21
170.999954
  0
LINE
  8
0
 10
-210.749786
 20
160.999954
 11
-204.749786
 21
160.999954
  0
LINE
  8
0
 10
-210.749969
 20
161.000015
 11
-210.749969
 21
171.000015
  0
LINE
  8
0
 10
-175.249908
 20
163.541458
 11
-170.749786
 21
163.541458
  0
LINE
  8
0
 10
-175.249908
 20
168.458450
 11
-170.749786
 21
168.458450
  0
LINE
  8
0
 10
-175.249908
 20
168.999954
 11
-171.249908
 21
168.999954
  0
LINE
  8
0
 10
-175.249969
 20
162.999954
 11
-171.249969
 21
162.999954
  0
LINE
  8
0
 10
-170.749969
 20
168.499893
 11
-170.749969
 21
163.499893
  0
LINE
  8
0
 10
-171.249969
 20
168.999893
 11
-171.249969
 21
162.999893
  0
LINE
  8
0
 10
-200.749847
 20
156.999954
 11
-182.749847
 21
156.999954
  0
LINE
  8
0
 10
-177.749969
 20
161.499954
 11
-176.499969
 21
161.499954
  0
LINE
  8
0
 10
-175.250092
 20
162.749893
 11
-175.250092
 21
169.249893
  0
LINE
  8
0
 10
-200.749786
 20
179.999954
 11
-182.749786
 21
179.999954
  0
LINE
  8
0
  6
CENTER
 10
-215.749786
 20
165.999954
 11
-165.749786
 21
165.999954
  0
LINE
  8
0
  6
CENTER
 10
-220.250153
 20
73.999969
 11
-165.750214
 21
73.999969
  0
LINE
  8
0
 10
197.500046
 20
72.443336
 11
197.500046
 21
69.556587
  0
LINE
  8
0
 10
194.999954
 20
68.113091
 11
192.499954
 21
69.556465
  0
LINE
  8
0
 10
197.499954
 20
69.556541
 11
194.999954
 21
68.113167
  0
LINE
  8
0
 10
192.500046
 20
69.556557
 11
192.500046
 21
72.443306
  0
LINE
  8
0
 10
224.999985
 20
69.556557
 11
224.999985
 21
72.443306
  0
LINE
  8
0
 10
158.000015
 20
96.454453
 11
342.000000
 21
96.454453
  0
LINE
  8
0
 10
224.999954
 20
72.443192
 11
222.499954
 21
73.886566
  0
LINE
  8
0
 10
155.000015
 20
63.499992
 11
155.000015
 21
186.500000
  0
LINE
  8
0
 10
345.000000
 20
63.499992
 11
345.000000
 21
186.500000
  0
LINE
  8
0
 10
277.500000
 20
68.113152
 11
280.000000
 21
69.556526
  0
LINE
  8
0
 10
280.000000
 20
69.556557
 11
280.000000
 21
72.443306
  0
LINE
  8
0
 10
161.000015
 20
191.000000
 11
339.000000
 21
191.000000
  0
LINE
  8
0
 10
161.000015
 20
191.000000
 11
161.000015
 21
186.500000
  0
LINE
  8
0
 10
339.000000
 20
191.000000
 11
339.000000
 21
186.500000
  0
LINE
  8
0
 10
222.500015
 20
73.886650
 11
220.000015
 21
72.443283
  0
LINE
  8
0
 10
219.999985
 20
72.443336
 11
219.999985
 21
69.556587
  0
LINE
  8
0
 10
219.999832
 20
69.556473
 11
222.499832
 21
68.113098
  0
LINE
  8
0
 10
222.500000
 20
68.113136
 11
225.000000
 21
69.556511
  0
LINE
  8
0
 10
192.500031
 20
177.556595
 11
195.000000
 21
176.113235
  0
LINE
  8
0
 10
194.999985
 20
176.113190
 11
197.499985
 21
177.556580
  0
LINE
  8
0
 10
197.500046
 20
177.556610
 11
197.500046
 21
180.443359
  0
LINE
  8
0
 10
197.499908
 20
180.443237
 11
194.999908
 21
181.886612
  0
LINE
  8
0
 10
194.999985
 20
181.886719
 11
192.499985
 21
180.443344
  0
LINE
  8
0
 10
192.500046
 20
180.443390
 11
192.500046
 21
177.556641
  0
LINE
  8
0
 10
192.500031
 20
72.443321
 11
195.000015
 21
73.886688
  0
LINE
  8
0
 10
194.999985
 20
73.886734
 11
197.499985
 21
72.443359
  0
LINE
  8
0
 10
247.500015
 20
174.000000
 11
252.500015
 21
174.000000
  0
LINE
  8
0
 10
245.500015
 20
176.000000
 11
245.500015
 21
186.500000
  0
LINE
  8
0
 10
307.499969
 20
177.556625
 11
304.999939
 21
176.113251
  0
LINE
  8
0
 10
304.999969
 20
176.113235
 11
302.499969
 21
177.556595
  0
LINE
  8
0
 10
302.500000
 20
177.556610
 11
302.500000
 21
180.443359
  0
LINE
  8
0
 10
302.499878
 20
180.443359
 11
304.999878
 21
181.886719
  0
LINE
  8
0
 10
304.999939
 20
181.886612
 11
307.499939
 21
180.443237
  0
LINE
  8
0
 10
307.500000
 20
180.443390
 11
307.500000
 21
177.556641
  0
LINE
  8
0
 10
254.500015
 20
176.000000
 11
254.500015
 21
186.500000
  0
LINE
  8
0
 10
307.499939
 20
72.443153
 11
304.999939
 21
73.886528
  0
LINE
  8
0
 10
305.000000
 20
73.886688
 11
302.500000
 21
72.443314
  0
LINE
  8
0
 10
158.000015
 20
155.023651
 11
342.000000
 21
155.023651
  0
LINE
  8
0
 10
155.000015
 20
186.500000
 11
245.500015
 21
186.500000
  0
LINE
  8
0
 10
302.500000
 20
72.443336
 11
302.500000
 21
69.556587
  0
LINE
  8
0
 10
254.500015
 20
186.500000
 11
345.000000
 21
186.500000
  0
LINE
  8
0
 10
302.499847
 20
69.556488
 11
304.999847
 21
68.113113
  0
LINE
  8
0
 10
305.000031
 20
68.113159
 11
307.500031
 21
69.556534
  0
LINE
  8
0
 10
307.500000
 20
69.556557
 11
307.500000
 21
72.443306
  0
LINE
  8
0
 10
158.000015
 20
79.999992
 11
342.000000
 21
79.999992
  0
LINE
  8
0
 10
279.999939
 20
72.443184
 11
277.499939
 21
73.886559
  0
LINE
  8
0
 10
277.500000
 20
73.886688
 11
275.000000
 21
72.443314
  0
LINE
  8
0
 10
275.000000
 20
72.443336
 11
275.000000
 21
69.556587
  0
LINE
  8
0
 10
158.000015
 20
164.000000
 11
342.000000
 21
164.000000
  0
LINE
  8
0
 10
274.999847
 20
69.556465
 11
277.499847
 21
68.113091
  0
LINE
  8
0
 10
155.000015
 20
63.499992
 11
345.000000
 21
63.499992
  0
LINE
  8
0
  6
CENTER
 10
195.000015
 20
61.999947
 11
195.000015
 21
79.999947
  0
LINE
  8
0
  6
CENTER
 10
186.000015
 20
70.999947
 11
204.000015
 21
70.999947
  0
LINE
  8
0
  6
CENTER
 10
231.500015
 20
70.999947
 11
213.500015
 21
70.999947
  0
LINE
  8
0
  6
CENTER
 10
222.500015
 20
61.999947
 11
222.500015
 21
79.999947
  0
LINE
  8
0
  6
CENTER
 10
286.500000
 20
70.999947
 11
268.500000
 21
70.999947
  0
LINE
  8
0
  6
CENTER
 10
277.500000
 20
61.999947
 11
277.500000
 21
79.999947
  0
LINE
  8
0
  6
CENTER
 10
314.000000
 20
70.999947
 11
296.000000
 21
70.999947
  0
LINE
  8
0
  6
CENTER
 10
305.000000
 20
61.999947
 11
305.000000
 21
79.999947
  0
LINE
  8
0
  6
CENTER
 10
314.000000
 20
179.000000
 11
296.000000
 21
179.000000
  0
LINE
  8
0
  6
CENTER
 10
305.000000
 20
188.000000
 11
305.000000
 21
170.000000
  0
LINE
  8
0
  6
CENTER
 10
277.500000
 20
186.500000
 11
277.500000
 21
171.500000
  0
LINE
  8
0
  6
CENTER
 10
285.000000
 20
179.000000
 11
270.000000
 21
179.000000
  0
LINE
  8
0
  6
CENTER
 10
241.000015
 20
181.000000
 11
259.000000
 21
181.000000
  0
LINE
  8
0
  6
CENTER
 10
215.000015
 20
179.000000
 11
230.000015
 21
179.000000
  0
LINE
  8
0
  6
CENTER
 10
222.500015
 20
186.500000
 11
222.500015
 21
171.500000
  0
LINE
  8
0
  6
CENTER
 10
186.000015
 20
179.000000
 11
204.000015
 21
179.000000
  0
LINE
  8
0
  6
CENTER
 10
195.000015
 20
188.000000
 11
195.000015
 21
170.000000
  0
LINE
  8
0
 10
197.999893
 20
351.499664
 11
197.999893
 21
354.999695
  0
LINE
  8
0
 10
197.458389
 20
351.499664
 11
197.458389
 21
355.499695
  0
LINE
  8
0
 10
192.541397
 20
351.499664
 11
192.541397
 21
355.499695
  0
LINE
  8
0
 10
197.499756
 20
355.499603
 11
197.999786
 21
354.999573
  0
LINE
  8
0
 10
192.499802
 20
355.499695
 11
191.999832
 21
354.999695
  0
LINE
  8
0
 10
197.999924
 20
354.999664
 11
191.999924
 21
354.999664
  0
LINE
  8
0
 10
154.999924
 20
321.499695
 11
344.999878
 21
321.499695
  0
LINE
  8
0
 10
189.999924
 20
343.999695
 11
189.999924
 21
348.999634
  0
LINE
  8
0
 10
308.249878
 20
351.499634
 11
301.749878
 21
351.499634
  0
LINE
  8
0
 10
309.999878
 20
348.999634
 11
299.999878
 21
348.999634
  0
LINE
  8
0
 10
194.999924
 20
343.999695
 11
194.999924
 21
348.999634
  0
LINE
  8
0
 10
199.999924
 20
343.999695
 11
199.999924
 21
348.999634
  0
LINE
  8
0
 10
191.999893
 20
351.499664
 11
191.999893
 21
354.999695
  0
LINE
  8
0
 10
192.499924
 20
355.499664
 11
197.499924
 21
355.499664
  0
LINE
  8
0
 10
154.999924
 20
343.999695
 11
154.999924
 21
287.999695
  0
LINE
  8
0
 10
309.499878
 20
348.999756
 11
309.499878
 21
350.249756
  0
LINE
  8
0
 10
300.499878
 20
348.999725
 11
300.499878
 21
350.249725
  0
LINE
  8
0
 10
307.499878
 20
355.499664
 11
302.499878
 21
355.499664
  0
LINE
  8
0
 10
189.999924
 20
348.999634
 11
199.999924
 21
348.999634
  0
LINE
  8
0
 10
191.749954
 20
351.499634
 11
198.249954
 21
351.499634
  0
LINE
  8
0
 10
190.499893
 20
348.999756
 11
190.499893
 21
350.249756
  0
LINE
  8
0
 10
199.499893
 20
348.999725
 11
199.499893
 21
350.249725
  0
LINE
  8
0
 10
199.999924
 20
315.499695
 11
199.999924
 21
321.499695
  0
LINE
  8
0
 10
189.999924
 20
315.499695
 11
189.999924
 21
321.499695
  0
LINE
  8
0
 10
189.999985
 20
315.499695
 11
199.999985
 21
315.499695
  0
LINE
  8
0
 10
307.999878
 20
351.499664
 11
307.999878
 21
354.999695
  0
LINE
  8
0
 10
301.999878
 20
351.499664
 11
301.999878
 21
354.999695
  0
LINE
  8
0
 10
302.541382
 20
351.499664
 11
302.541382
 21
355.499695
  0
LINE
  8
0
 10
344.999878
 20
343.999695
 11
344.999878
 21
287.999695
  0
LINE
  8
0
 10
154.999924
 20
343.999695
 11
344.999878
 21
343.999695
  0
LINE
  8
0
 10
154.999924
 20
325.999695
 11
344.999878
 21
325.999695
  0
LINE
  8
0
 10
338.999878
 20
343.999695
 11
338.999878
 21
325.999695
  0
LINE
  8
0
 10
160.999924
 20
343.999695
 11
160.999924
 21
325.999695
  0
LINE
  8
0
 10
307.458374
 20
351.499664
 11
307.458374
 21
355.499695
  0
LINE
  8
0
 10
299.999878
 20
315.499695
 11
299.999878
 21
321.499695
  0
LINE
  8
0
 10
309.999878
 20
315.499695
 11
309.999878
 21
321.499695
  0
LINE
  8
0
 10
309.999878
 20
315.499695
 11
299.999878
 21
315.499695
  0
LINE
  8
0
 10
302.499878
 20
355.499695
 11
301.999847
 21
354.999634
  0
LINE
  8
0
 10
154.999924
 20
287.999695
 11
344.999878
 21
287.999695
  0
LINE
  8
0
 10
304.999878
 20
343.999695
 11
304.999878
 21
348.999634
  0
LINE
  8
0
 10
299.999878
 20
343.999695
 11
299.999878
 21
348.999634
  0
LINE
  8
0
 10
309.999878
 20
343.999695
 11
309.999878
 21
348.999634
  0
LINE
  8
0
 10
301.999878
 20
354.999664
 11
307.999878
 21
354.999664
  0
LINE
  8
0
 10
307.499939
 20
355.499542
 11
307.999939
 21
354.999542
  0
LINE
  8
0
  6
CENTER
 10
194.999924
 20
310.499695
 11
194.999924
 21
360.499664
  0
LINE
  8
0
  6
CENTER
 10
204.999924
 20
327.999695
 11
204.999924
 21
341.999695
  0
LINE
  8
0
  6
CENTER
 10
222.499924
 20
348.999695
 11
222.499924
 21
316.499695
  0
LINE
  8
0
  6
CENTER
 10
277.499939
 20
348.999695
 11
277.499939
 21
316.499695
  0
LINE
  8
0
  6
CENTER
 10
294.999878
 20
327.999695
 11
294.999878
 21
341.999695
  0
LINE
  8
0
  6
CENTER
 10
304.999878
 20
310.499695
 11
304.999878
 21
360.499664
  0
LINE
  8
0
 10
574.000122
 20
173.226501
 11
574.000122
 21
184.773529
  0
LINE
  8
0
 10
574.000244
 20
173.226501
 11
569.000305
 21
173.226501
  0
LINE
  8
0
 10
574.000244
 20
176.113251
 11
569.000305
 21
176.113251
  0
LINE
  8
0
 10
574.000305
 20
181.886749
 11
569.000305
 21
181.886749
  0
LINE
  8
0
 10
574.000305
 20
184.773529
 11
569.000305
 21
184.773529
  0
LINE
  8
0
 10
576.500122
 20
175.750000
 11
576.500122
 21
182.250000
  0
LINE
  8
0
 10
574.000244
 20
174.500000
 11
575.250244
 21
174.500000
  0
LINE
  8
0
 10
574.000244
 20
183.500000
 11
575.250244
 21
183.500000
  0
LINE
  8
0
 10
579.000061
 20
75.500000
 11
580.250061
 21
75.500000
  0
LINE
  8
0
 10
574.000122
 20
65.226463
 11
574.000122
 21
76.773491
  0
LINE
  8
0
 10
580.000122
 20
181.999969
 11
580.000122
 21
175.999969
  0
LINE
  8
0
 10
580.500183
 20
176.500076
 11
580.000183
 21
176.000031
  0
LINE
  8
0
 10
580.500122
 20
176.499969
 11
580.500122
 21
181.499969
  0
LINE
  8
0
 10
576.500183
 20
176.000000
 11
580.000244
 21
176.000000
  0
LINE
  8
0
 10
576.500244
 20
182.000000
 11
580.000244
 21
182.000000
  0
LINE
  8
0
 10
576.500244
 20
181.458496
 11
580.500244
 21
181.458496
  0
LINE
  8
0
 10
580.500122
 20
181.499817
 11
580.000122
 21
181.999832
  0
LINE
  8
0
 10
576.500244
 20
176.541504
 11
580.500244
 21
176.541504
  0
LINE
  8
0
 10
540.500366
 20
184.000000
 11
546.500366
 21
184.000000
  0
LINE
  8
0
 10
540.500366
 20
174.000000
 11
546.500366
 21
174.000000
  0
LINE
  8
0
 10
540.500122
 20
174.000061
 11
540.500122
 21
184.000061
  0
LINE
  8
0
 10
551.000244
 20
191.000000
 11
569.000244
 21
191.000000
  0
LINE
  8
0
 10
551.000244
 20
171.000000
 11
569.000244
 21
171.000000
  0
LINE
  8
0
 10
569.000122
 20
170.999985
 11
569.000122
 21
190.999985
  0
LINE
  8
0
 10
551.000122
 20
165.534668
 11
551.000122
 21
191.000015
  0
LINE
  8
0
 10
513.000122
 20
101.362061
 11
513.000122
 21
148.501526
  0
LINE
  8
0
 10
541.500000
 20
63.500000
 11
546.000000
 21
63.500000
  0
LINE
  8
0
 10
541.500122
 20
63.500038
 11
541.500122
 21
78.845337
  0
LINE
  8
0
 10
546.500244
 20
186.500000
 11
551.000244
 21
186.500000
  0
LINE
  8
0
 10
546.500122
 20
165.534683
 11
546.500122
 21
186.500031
  0
LINE
  8
0
 10
540.500061
 20
80.577362
 11
517.250061
 21
94.000763
  0
LINE
  8
0
 10
545.017761
 20
163.602768
 11
519.300232
 21
156.711777
  0
LINE
  8
0
 10
517.500122
 20
101.362045
 11
517.500122
 21
148.501526
  0
LINE
  8
0
 10
546.182556
 20
159.256134
 11
520.464905
 21
152.365128
  0
LINE
  8
0
 10
542.750000
 20
84.474503
 11
519.500000
 21
97.897903
  0
LINE
  8
0
 10
546.000122
 20
63.500031
 11
546.000122
 21
78.845329
  0
LINE
  8
0
 10
535.500122
 20
76.000000
 11
541.500122
 21
76.000000
  0
LINE
  8
0
 10
535.500122
 20
66.000069
 11
535.500122
 21
76.000069
  0
LINE
  8
0
 10
535.500122
 20
66.000000
 11
541.500122
 21
66.000000
  0
LINE
  8
0
 10
579.000122
 20
65.226494
 11
579.000122
 21
76.773521
  0
LINE
  8
0
 10
579.000061
 20
65.226494
 11
574.000122
 21
65.226494
  0
LINE
  8
0
 10
579.000061
 20
68.113243
 11
574.000122
 21
68.113243
  0
LINE
  8
0
 10
579.000061
 20
73.886742
 11
574.000122
 21
73.886742
  0
LINE
  8
0
 10
579.000061
 20
76.773521
 11
574.000122
 21
76.773521
  0
LINE
  8
0
 10
581.500122
 20
67.749985
 11
581.500122
 21
74.249985
  0
LINE
  8
0
 10
579.000061
 20
66.500000
 11
580.250061
 21
66.500000
  0
LINE
  8
0
  6
CENTER
 10
530.500000
 20
71.000000
 11
587.000122
 21
71.000000
  0
LINE
  8
0
  6
CENTER
 10
535.500244
 20
179.000000
 11
585.500244
 21
179.000000
  0
LINE
  8
0
 10
-311.750031
 20
-443.615143
 11
-311.750031
 21
-304.615143
  0
LINE
  8
0
 10
-111.750031
 20
-443.615143
 11
-111.750031
 21
-304.615143
  0
LINE
  8
0
 10
-174.250122
 20
-434.671631
 11
-171.750107
 21
-433.228241
  0
LINE
  8
0
 10
-171.750107
 20
-433.228455
 11
-169.250092
 21
-434.671814
  0
LINE
  8
0
 10
-169.249969
 20
-434.671722
 11
-169.249969
 21
-437.558502
  0
LINE
  8
0
 10
-169.250107
 20
-437.558380
 11
-171.750122
 21
-439.001770
  0
LINE
  8
0
 10
-171.749863
 20
-439.001709
 11
-174.249893
 21
-437.558319
  0
LINE
  8
0
 10
-174.249969
 20
-437.558502
 11
-174.249969
 21
-434.671722
  0
LINE
  8
0
 10
-254.249969
 20
-437.558502
 11
-254.249969
 21
-434.671722
  0
LINE
  8
0
 10
-129.249985
 20
-434.671844
 11
-131.750061
 21
-433.228455
  0
LINE
  8
0
 10
-131.749985
 20
-433.228333
 11
-134.250046
 21
-434.671722
  0
LINE
  8
0
 10
-134.250092
 20
-434.671722
 11
-134.250092
 21
-437.558502
  0
LINE
  8
0
 10
-134.250076
 20
-437.558502
 11
-131.750015
 21
-439.001892
  0
LINE
  8
0
 10
-131.749985
 20
-439.001923
 11
-129.249969
 21
-437.558533
  0
LINE
  8
0
 10
-129.250092
 20
-437.558502
 11
-129.250092
 21
-434.671722
  0
LINE
  8
0
 10
-251.749832
 20
-439.001648
 11
-254.249847
 21
-437.558258
  0
LINE
  8
0
 10
-305.750031
 20
-300.115112
 11
-117.750031
 21
-300.115112
  0
LINE
  8
0
 10
-308.750031
 20
-416.737274
 11
-114.750031
 21
-416.737274
  0
LINE
  8
0
 10
-308.750031
 20
-338.833038
 11
-114.750031
 21
-338.833038
  0
LINE
  8
0
 10
-308.750031
 20
-328.115143
 11
-114.750031
 21
-328.115143
  0
LINE
  8
0
  6
CENTER
 10
-291.750031
 20
-445.115143
 11
-291.750031
 21
-427.115143
  0
LINE
  8
0
 10
-294.249878
 20
-313.558197
 11
-291.749847
 21
-315.001587
  0
LINE
  8
0
 10
-291.750061
 20
-315.001862
 11
-289.250031
 21
-313.558472
  0
LINE
  8
0
 10
-289.249969
 20
-313.558533
 11
-289.249969
 21
-310.671753
  0
LINE
  8
0
 10
-289.249878
 20
-310.671509
 11
-291.749878
 21
-309.228119
  0
LINE
  8
0
 10
-291.750031
 20
-309.228241
 11
-294.250031
 21
-310.671631
  0
LINE
  8
0
 10
-294.249969
 20
-310.671753
 11
-294.249969
 21
-313.558533
  0
LINE
  8
0
 10
-207.250031
 20
-304.615143
 11
-111.750031
 21
-304.615143
  0
LINE
  8
0
 10
-214.250031
 20
-317.115143
 11
-209.250031
 21
-317.115143
  0
LINE
  8
0
 10
-216.250031
 20
-315.115143
 11
-216.250031
 21
-304.615143
  0
LINE
  8
0
 10
-207.250031
 20
-315.115143
 11
-207.250031
 21
-304.615143
  0
LINE
  8
0
 10
-129.250000
 20
-313.558411
 11
-131.750061
 21
-315.001801
  0
LINE
  8
0
 10
-131.749954
 20
-315.001862
 11
-134.250015
 21
-313.558472
  0
LINE
  8
0
 10
-134.250092
 20
-313.558533
 11
-134.250092
 21
-310.671753
  0
LINE
  8
0
 10
-134.250076
 20
-310.671722
 11
-131.750046
 21
-309.228333
  0
LINE
  8
0
 10
-131.749924
 20
-309.228180
 11
-129.249908
 21
-310.671570
  0
LINE
  8
0
 10
-129.250092
 20
-310.671753
 11
-129.250092
 21
-313.558533
  0
LINE
  8
0
 10
-117.750031
 20
-300.115112
 11
-117.750031
 21
-304.615143
  0
LINE
  8
0
 10
-305.750031
 20
-300.115112
 11
-305.750031
 21
-304.615143
  0
LINE
  8
0
 10
-294.250000
 20
-434.671631
 11
-291.749969
 21
-433.228241
  0
LINE
  8
0
 10
-291.750183
 20
-433.228455
 11
-289.250153
 21
-434.671844
  0
LINE
  8
0
 10
-289.249969
 20
-434.671722
 11
-289.249969
 21
-437.558502
  0
LINE
  8
0
 10
-289.250061
 20
-437.558441
 11
-291.750031
 21
-439.001801
  0
LINE
  8
0
 10
-291.749786
 20
-439.001740
 11
-294.249817
 21
-437.558350
  0
LINE
  8
0
 10
-294.249969
 20
-437.558502
 11
-294.249969
 21
-434.671722
  0
LINE
  8
0
 10
-311.750031
 20
-304.615143
 11
-216.250031
 21
-304.615143
  0
LINE
  8
0
 10
-311.750031
 20
-443.615143
 11
-111.750031
 21
-443.615143
  0
LINE
  8
0
 10
-254.250076
 20
-434.671661
 11
-251.750046
 21
-433.228271
  0
LINE
  8
0
 10
-251.750092
 20
-433.228455
 11
-249.250061
 21
-434.671844
  0
LINE
  8
0
 10
-249.249969
 20
-434.671722
 11
-249.249969
 21
-437.558502
  0
LINE
  8
0
 10
-249.250031
 20
-437.558350
 11
-251.750061
 21
-439.001740
  0
LINE
  8
0
  6
CENTER
 10
-300.750031
 20
-436.115143
 11
-282.750031
 21
-436.115143
  0
LINE
  8
0
 10
-308.750031
 20
-426.115143
 11
-114.750031
 21
-426.115143
  0
LINE
  8
0
  6
CENTER
 10
-251.750031
 20
-445.115143
 11
-251.750031
 21
-427.115143
  0
LINE
  8
0
  6
CENTER
 10
-260.750031
 20
-436.115143
 11
-242.750031
 21
-436.115143
  0
LINE
  8
0
  6
CENTER
 10
-171.750031
 20
-445.115143
 11
-171.750031
 21
-427.115143
  0
LINE
  8
0
  6
CENTER
 10
-180.750031
 20
-436.115143
 11
-162.750031
 21
-436.115143
  0
LINE
  8
0
  6
CENTER
 10
-131.750031
 20
-445.115143
 11
-131.750031
 21
-427.115143
  0
LINE
  8
0
  6
CENTER
 10
-122.750031
 20
-436.115143
 11
-140.750031
 21
-436.115143
  0
LINE
  8
0
  6
CENTER
 10
-131.750031
 20
-303.115112
 11
-131.750031
 21
-321.115112
  0
LINE
  8
0
  6
CENTER
 10
-122.750031
 20
-312.115112
 11
-140.750031
 21
-312.115112
  0
LINE
  8
0
  6
CENTER
 10
-171.750031
 20
-304.615112
 11
-171.750031
 21
-319.615112
  0
LINE
  8
0
  6
CENTER
 10
-164.250031
 20
-312.115112
 11
-179.250031
 21
-312.115112
  0
LINE
  8
0
  6
CENTER
 10
-259.250031
 20
-312.115112
 11
-244.250031
 21
-312.115112
  0
LINE
  8
0
  6
CENTER
 10
-251.750031
 20
-304.615112
 11
-251.750031
 21
-319.615112
  0
LINE
  8
0
  6
CENTER
 10
-300.750031
 20
-312.115112
 11
-282.750031
 21
-312.115112
  0
LINE
  8
0
  6
CENTER
 10
-291.750031
 20
-303.115112
 11
-291.750031
 21
-321.115112
  0
LINE
  8
0
  6
CENTER
 10
-221.750031
 20
-309.615112
 11
-201.750031
 21
-309.615112
  0
LINE
  8
0
 10
-134.250015
 20
-110.114975
 11
-134.750046
 21
-110.615005
  0
LINE
  8
0
 10
-134.208496
 20
-112.614975
 11
-134.208496
 21
-110.114975
  0
LINE
  8
0
 10
-129.291504
 20
-112.614975
 11
-129.291504
 21
-110.114975
  0
LINE
  8
0
 10
-296.750000
 20
-150.114990
 11
-286.750000
 21
-150.114990
  0
LINE
  8
0
 10
-286.750000
 20
-150.114990
 11
-286.750000
 21
-144.114990
  0
LINE
  8
0
 10
-296.750000
 20
-150.114990
 11
-296.750000
 21
-144.114990
  0
LINE
  8
0
 10
-296.750000
 20
-120.114975
 11
-296.750000
 21
-115.114990
  0
LINE
  8
0
 10
-296.250000
 20
-115.114960
 11
-296.250000
 21
-113.864960
  0
LINE
  8
0
 10
-136.750000
 20
-120.114975
 11
-136.750000
 21
-115.114990
  0
LINE
  8
0
 10
-126.750000
 20
-115.114990
 11
-136.750000
 21
-115.114990
  0
LINE
  8
0
 10
-131.750000
 20
-115.114944
 11
-131.750000
 21
-120.114944
  0
LINE
  8
0
 10
-128.500000
 20
-112.614990
 11
-135.000000
 21
-112.614990
  0
LINE
  8
0
 10
-136.250000
 20
-115.114960
 11
-136.250000
 21
-113.864960
  0
LINE
  8
0
 10
-127.250000
 20
-115.114960
 11
-127.250000
 21
-113.864960
  0
LINE
  8
0
 10
-131.750000
 20
-120.114975
 11
-131.750000
 21
-115.114990
  0
LINE
  8
0
 10
-126.750000
 20
-120.114975
 11
-126.750000
 21
-115.114990
  0
LINE
  8
0
 10
-291.750000
 20
-120.114975
 11
-291.750000
 21
-115.114990
  0
LINE
  8
0
 10
-286.750000
 20
-120.114975
 11
-286.750000
 21
-115.114990
  0
LINE
  8
0
 10
-296.750000
 20
-115.114990
 11
-286.750000
 21
-115.114990
  0
LINE
  8
0
 10
-291.750000
 20
-115.114944
 11
-291.750000
 21
-120.114944
  0
LINE
  8
0
 10
-295.000000
 20
-112.614990
 11
-288.500000
 21
-112.614990
  0
LINE
  8
0
 10
-287.250000
 20
-115.114960
 11
-287.250000
 21
-113.864960
  0
LINE
  8
0
 10
-129.250000
 20
-110.114990
 11
-134.250000
 21
-110.114990
  0
LINE
  8
0
 10
-128.750000
 20
-112.614975
 11
-128.750000
 21
-110.614975
  0
LINE
  8
0
 10
-111.750000
 20
-184.114990
 11
-111.750000
 21
-120.114975
  0
LINE
  8
0
 10
-311.750000
 20
-184.114990
 11
-311.750000
 21
-120.114975
  0
LINE
  8
0
 10
-311.750000
 20
-138.114990
 11
-111.750000
 21
-138.114990
  0
LINE
  8
0
 10
-311.750000
 20
-120.114975
 11
-111.750000
 21
-120.114975
  0
LINE
  8
0
 10
-305.750000
 20
-138.114990
 11
-305.750000
 21
-120.114975
  0
LINE
  8
0
 10
-117.750000
 20
-138.114990
 11
-117.750000
 21
-120.114975
  0
LINE
  8
0
 10
-294.250000
 20
-110.114990
 11
-289.250000
 21
-110.114990
  0
LINE
  8
0
 10
-294.750000
 20
-112.614975
 11
-294.750000
 21
-110.614975
  0
LINE
  8
0
 10
-288.750000
 20
-112.614975
 11
-288.750000
 21
-110.614975
  0
LINE
  8
0
 10
-294.208496
 20
-112.614975
 11
-294.208496
 21
-110.114975
  0
LINE
  8
0
 10
-289.291504
 20
-112.614975
 11
-289.291504
 21
-110.114975
  0
LINE
  8
0
 10
-289.249908
 20
-110.114998
 11
-288.749939
 21
-110.614990
  0
LINE
  8
0
 10
-294.249908
 20
-110.115013
 11
-294.749908
 21
-110.614998
  0
LINE
  8
0
 10
-288.750000
 20
-110.614990
 11
-294.750000
 21
-110.614990
  0
LINE
  8
0
 10
-311.750000
 20
-144.114990
 11
-111.750000
 21
-144.114990
  0
LINE
  8
0
 10
-311.750000
 20
-184.114990
 11
-111.750000
 21
-184.114990
  0
LINE
  8
0
 10
-134.750000
 20
-112.614975
 11
-134.750000
 21
-110.614975
  0
LINE
  8
0
 10
-126.750000
 20
-150.114990
 11
-126.750000
 21
-144.114990
  0
LINE
  8
0
 10
-136.750000
 20
-150.114990
 11
-136.750000
 21
-144.114990
  0
LINE
  8
0
 10
-126.750000
 20
-150.114990
 11
-136.750000
 21
-150.114990
  0
LINE
  8
0
 10
-134.750000
 20
-110.614990
 11
-128.750000
 21
-110.614990
  0
LINE
  8
0
 10
-129.250107
 20
-110.115112
 11
-128.750137
 21
-110.615097
  0
LINE
  8
0
  6
CENTER
 10
-291.750000
 20
-155.114990
 11
-291.750000
 21
-105.114990
  0
LINE
  8
0
  6
CENTER
 10
-271.750000
 20
-136.114990
 11
-271.750000
 21
-122.114990
  0
LINE
  8
0
  6
CENTER
 10
-251.750000
 20
-149.114990
 11
-251.750000
 21
-115.114975
  0
LINE
  8
0
  6
CENTER
 10
-171.750000
 20
-149.114990
 11
-171.750000
 21
-115.114975
  0
LINE
  8
0
  6
CENTER
 10
-151.750000
 20
-136.114990
 11
-151.750000
 21
-122.114990
  0
LINE
  8
0
  6
CENTER
 10
-131.750000
 20
-155.114990
 11
-131.750000
 21
-105.114990
  0
LINE
  8
0
 10
192.249863
 20
-317.888519
 11
187.249863
 21
-317.888519
  0
LINE
  8
0
 10
192.249863
 20
-315.001770
 11
187.249863
 21
-315.001770
  0
LINE
  8
0
 10
192.249832
 20
-309.228271
 11
187.249832
 21
-309.228271
  0
LINE
  8
0
 10
192.249832
 20
-306.341492
 11
187.249832
 21
-306.341492
  0
LINE
  8
0
 10
192.249832
 20
-312.115021
 11
187.249832
 21
-312.115021
  0
LINE
  8
0
 10
194.749924
 20
-315.364990
 11
194.749924
 21
-308.864990
  0
LINE
  8
0
 10
192.249832
 20
-307.615021
 11
193.499832
 21
-307.615021
  0
LINE
  8
0
 10
192.249863
 20
-316.615021
 11
193.499863
 21
-316.615021
  0
LINE
  8
0
 10
152.250046
 20
-441.115021
 11
158.250015
 21
-441.115021
  0
LINE
  8
0
 10
192.249924
 20
-317.888489
 11
192.249924
 21
-306.341461
  0
LINE
  8
0
 10
197.249924
 20
-314.614990
 11
197.249924
 21
-309.614990
  0
LINE
  8
0
 10
194.749832
 20
-315.115021
 11
196.749832
 21
-315.115021
  0
LINE
  8
0
 10
194.749802
 20
-309.115021
 11
196.749802
 21
-309.115021
  0
LINE
  8
0
 10
194.749832
 20
-314.573517
 11
197.249832
 21
-314.573517
  0
LINE
  8
0
 10
194.749802
 20
-309.656525
 11
197.249802
 21
-309.656525
  0
LINE
  8
0
 10
196.749924
 20
-309.114990
 11
196.749924
 21
-315.114990
  0
LINE
  8
0
 10
197.249817
 20
-314.614990
 11
196.749832
 21
-315.114990
  0
LINE
  8
0
 10
197.249924
 20
-309.614960
 11
196.749878
 21
-309.114929
  0
LINE
  8
0
 10
157.249924
 20
-317.115051
 11
157.249924
 21
-307.115051
  0
LINE
  8
0
 10
157.249832
 20
-307.115021
 11
163.249802
 21
-307.115021
  0
LINE
  8
0
 10
157.249863
 20
-317.115021
 11
163.249832
 21
-317.115021
  0
LINE
  8
0
 10
192.249924
 20
-441.888489
 11
192.249924
 21
-430.341461
  0
LINE
  8
0
 10
123.249924
 20
-407.528992
 11
123.249924
 21
-348.040985
  0
LINE
  8
0
 10
169.249802
 20
-300.115021
 11
187.249802
 21
-300.115021
  0
LINE
  8
0
 10
169.249832
 20
-320.115021
 11
187.249832
 21
-320.115021
  0
LINE
  8
0
 10
187.249924
 20
-320.115021
 11
187.249924
 21
-300.115021
  0
LINE
  8
0
 10
169.249924
 20
-325.813049
 11
169.249924
 21
-300.115021
  0
LINE
  8
0
 10
158.249924
 20
-443.615051
 11
158.249924
 21
-428.417053
  0
LINE
  8
0
 10
158.250015
 20
-443.615021
 11
164.250015
 21
-443.615021
  0
LINE
  8
0
 10
164.249924
 20
-443.615051
 11
164.249924
 21
-428.417053
  0
LINE
  8
0
 10
163.249802
 20
-304.615021
 11
169.249802
 21
-304.615021
  0
LINE
  8
0
 10
163.249924
 20
-325.813080
 11
163.249924
 21
-304.615051
  0
LINE
  8
0
 10
156.026352
 20
-425.519775
 11
132.144073
 21
-419.120544
  0
LINE
  8
0
 10
161.026215
 20
-328.710602
 11
132.143906
 21
-336.449585
  0
LINE
  8
0
 10
129.249924
 20
-407.528992
 11
129.249924
 21
-348.040985
  0
LINE
  8
0
 10
157.579239
 20
-419.724213
 11
133.696945
 21
-413.324982
  0
LINE
  8
0
 10
162.579178
 20
-334.506134
 11
133.696884
 21
-342.245117
  0
LINE
  8
0
 10
152.250046
 20
-431.115021
 11
158.250015
 21
-431.115021
  0
LINE
  8
0
 10
197.249924
 20
-441.888489
 11
197.249924
 21
-430.341461
  0
LINE
  8
0
 10
197.250046
 20
-441.888519
 11
192.250046
 21
-441.888519
  0
LINE
  8
0
 10
197.250046
 20
-439.001770
 11
192.250046
 21
-439.001770
  0
LINE
  8
0
 10
197.250031
 20
-433.228271
 11
192.250046
 21
-433.228271
  0
LINE
  8
0
 10
197.250031
 20
-430.341492
 11
192.250046
 21
-430.341492
  0
LINE
  8
0
 10
197.250046
 20
-436.115021
 11
192.250046
 21
-436.115021
  0
LINE
  8
0
 10
199.749924
 20
-439.364990
 11
199.749924
 21
-432.864990
  0
LINE
  8
0
 10
197.250031
 20
-431.615021
 11
198.500031
 21
-431.615021
  0
LINE
  8
0
 10
197.250046
 20
-440.615021
 11
198.500046
 21
-440.615021
  0
LINE
  8
0
 10
152.249924
 20
-441.115051
 11
152.249924
 21
-431.115051
  0
LINE
  8
0
  6
CENTER
 10
152.249832
 20
-312.115021
 11
202.249802
 21
-312.115021
  0
LINE
  8
0
  6
CENTER
 10
147.250046
 20
-436.115021
 11
205.250046
 21
-436.115021
  0
ARC
  8
0
 62
     5
 10
655.008484
 20
-465.668823
 40
6.635708
 50
291.688293
 51
0.000000
  0
ARC
  8
0
 62
     5
 10
652.796448
 20
-464.168060
 40
2.211920
 50
291.688660
 51
0.000000
  0
ARC
  8
0
 62
     5
 10
546.072388
 20
-470.092651
 40
4.423828
 50
0.000000
 51
90.000000
  0
ARC
  8
0
 62
     5
 10
582.568787
 20
-493.870697
 40
4.423798
 50
270.000000
 51
0.000000
  0
ARC
  8
0
 62
     5
 10
580.356750
 20
-472.304474
 40
6.635681
 50
0.000000
 51
90.000000
  0
ARC
  8
0
 62
     5
 10
620.723999
 20
-470.092651
 40
4.423828
 50
0.000000
 51
90.000000
  0
ARC
  8
0
 62
     5
 10
620.723999
 20
-473.626892
 40
4.423808
 50
294.999786
 51
0.000000
  0
ARC
  8
0
  6
PHANTOM
 10
-380.769226
 20
134.999924
 40
30.000002
 50
150.000031
 51
209.999954
  0
ARC
  8
0
  6
PHANTOM
 10
-570.769226
 20
134.999924
 40
30.000002
 50
150.000031
 51
209.999954
  0
ARC
  8
0
  6
PHANTOM
 10
-624.458313
 20
108.499924
 40
30.000002
 50
335.375702
 51
22.540316
  0
ARC
  8
0
  6
PHANTOM
 10
-434.458313
 20
108.499924
 40
30.000002
 50
335.375702
 51
22.540339
  0
ARC
  8
0
  6
PHANTOM
 10
-379.254669
 20
327.000031
 40
29.999998
 50
156.421814
 51
203.578125
  0
ARC
  8
0
  6
PHANTOM
 10
-569.254639
 20
326.999725
 40
30.000027
 50
156.421844
 51
203.578110
  0
ARC
  8
0
  6
PHANTOM
 10
-624.245544
 20
302.999664
 40
30.000027
 50
336.421844
 51
23.578156
  0
ARC
  8
0
  6
PHANTOM
 10
-434.245483
 20
302.999969
 40
29.999998
 50
336.421814
 51
23.578180
  0
ARC
  8
0
  6
PHANTOM
 10
170.968719
 20
137.499954
 40
40.000004
 50
154.055496
 51
205.944473
  0
ARC
  8
0
  6
PHANTOM
 10
97.529999
 20
105.999954
 40
40.000004
 50
339.512665
 51
20.487288
  0
ARC
  8
0
  6
PHANTOM
 10
400.968719
 20
137.499954
 40
39.999992
 50
154.055496
 51
205.944473
  0
ARC
  8
0
  6
PHANTOM
 10
327.529999
 20
105.999954
 40
39.999989
 50
339.512665
 51
20.487288
  0
ARC
  8
0
  6
PHANTOM
 10
172.279327
 20
349.499878
 40
39.999996
 50
158.746231
 51
201.253769
  0
ARC
  8
0
  6
PHANTOM
 10
97.720612
 20
320.499878
 40
40.000008
 50
338.746185
 51
21.253805
  0
ARC
  8
0
  6
PHANTOM
 10
402.279327
 20
349.499878
 40
39.999996
 50
158.746231
 51
201.253769
  0
ARC
  8
0
  6
PHANTOM
 10
327.720612
 20
320.499878
 40
40.000008
 50
338.746185
 51
21.253805
  0
CIRCLE
  8
0
 10
295.000000
 20
669.999695
 40
2.458500
  0
CIRCLE
  8
0
 10
295.000000
 20
669.999695
 40
3.000000
  0
ARC
  8
0
 10
281.750031
 20
685.249756
 40
1.250000
 50
90.000000
 51
180.000000
  0
ARC
  8
0
 10
288.250031
 20
685.249756
 40
1.250000
 50
0.000000
 51
90.000000
  0
ARC
  8
0
 10
391.749969
 20
685.249756
 40
1.250000
 50
90.000000
 51
180.000000
  0
ARC
  8
0
 10
398.249969
 20
685.249756
 40
1.250000
 50
0.000000
 51
90.000000
  0
CIRCLE
  8
0
 10
384.999969
 20
669.999695
 40
2.458500
  0
CIRCLE
  8
0
 10
384.999969
 20
669.999695
 40
3.000000
  0
CIRCLE
  8
0
 10
295.000000
 20
669.999695
 40
2.458500
  0
CIRCLE
  8
0
 10
295.000000
 20
669.999695
 40
3.000000
  0
ARC
  8
0
 10
281.750031
 20
685.249756
 40
1.250000
 50
90.000000
 51
180.000000
  0
ARC
  8
0
 10
288.250031
 20
685.249756
 40
1.250000
 50
0.000000
 51
90.000000
  0
ARC
  8
0
 10
391.749969
 20
685.249756
 40
1.250000
 50
90.000000
 51
180.000000
  0
ARC
  8
0
 10
398.249969
 20
685.249756
 40
1.250000
 50
0.000000
 51
90.000000
  0
CIRCLE
  8
0
 10
384.999969
 20
669.999695
 40
2.458500
  0
CIRCLE
  8
0
 10
384.999969
 20
669.999695
 40
3.000000
  0
CIRCLE
  8
0
 10
295.000000
 20
669.999695
 40
2.458500
  0
CIRCLE
  8
0
 10
295.000000
 20
669.999695
 40
3.000000
  0
ARC
  8
0
 10
281.750031
 20
685.249756
 40
1.250000
 50
90.000000
 51
180.000000
  0
ARC
  8
0
 10
288.250031
 20
685.249756
 40
1.250000
 50
0.000000
 51
90.000000
  0
ARC
  8
0
 10
391.749969
 20
685.249756
 40
1.250000
 50
90.000000
 51
180.000000
  0
ARC
  8
0
 10
398.249969
 20
685.249756
 40
1.250000
 50
0.000000
 51
90.000000
  0
CIRCLE
  8
0
 10
384.999969
 20
669.999695
 40
2.458500
  0
CIRCLE
  8
0
 10
384.999969
 20
669.999695
 40
3.000000
  0
CIRCLE
  8
0
 10
295.000000
 20
669.999695
 40
2.458500
  0
CIRCLE
  8
0
 10
295.000000
 20
669.999695
 40
3.000000
  0
ARC
  8
0
 10
281.750031
 20
685.249756
 40
1.250000
 50
90.000000
 51
180.000000
  0
ARC
  8
0
 10
288.250031
 20
685.249756
 40
1.250000
 50
0.000000
 51
90.000000
  0
ARC
  8
0
 10
391.749969
 20
685.249756
 40
1.250000
 50
90.000000
 51
180.000000
  0
ARC
  8
0
 10
398.249969
 20
685.249756
 40
1.250000
 50
0.000000
 51
90.000000
  0
CIRCLE
  8
0
 10
384.999969
 20
669.999695
 40
2.458500
  0
CIRCLE
  8
0
 10
384.999969
 20
669.999695
 40
3.000000
  0
ARC
  8
0
  6
PHANTOM
 10
-109.250000
 20
-416.615021
 40
2.500000
 50
270.000000
 51
90.000000
  0
ARC
  8
0
  6
PHANTOM
 10
-314.250000
 20
-416.615021
 40
2.500000
 50
90.000000
 51
270.000000
  0
ARC
  8
0
  6
PHANTOM
 10
-285.924255
 20
-359.115021
 40
50.000004
 50
156.421860
 51
203.578110
  0
ARC
  8
0
  6
PHANTOM
 10
-378.587463
 20
-396.615021
 40
50.000019
 50
339.512665
 51
20.487345
  0
ARC
  8
0
  6
PHANTOM
 10
-45.924240
 20
-359.115021
 40
49.999996
 50
156.421860
 51
203.578110
  0
ARC
  8
0
  6
PHANTOM
 10
-138.587479
 20
-396.615021
 40
50.000004
 50
339.512665
 51
20.487350
  0
ARC
  8
0
  6
PHANTOM
 10
-44.912537
 20
-111.615036
 40
50.000004
 50
159.512711
 51
200.487274
  0
ARC
  8
0
  6
PHANTOM
 10
-284.912537
 20
-111.615036
 40
50.000004
 50
159.512711
 51
200.487274
  0
ARC
  8
0
  6
PHANTOM
 10
-138.587524
 20
-146.615036
 40
50.000000
 50
339.512695
 51
20.487314
  0
ARC
  8
0
  6
PHANTOM
 10
-378.587524
 20
-146.615036
 40
50.000008
 50
339.512695
 51
20.487312
  0
ARC
  8
0
  6
PHANTOM
 10
151.249817
 20
-352.115173
 40
8.000000
 50
90.000000
 51
180.000000
  0
ARC
  8
0
  6
PHANTOM
 10
151.249817
 20
-406.115173
 40
8.000000
 50
180.000000
 51
270.000000
  0
ARC
  8
0
  6
PHANTOM
 10
205.249817
 20
-406.115173
 40
8.000000
 50
270.000000
 51
0.000000
  0
ARC
  8
0
  6
PHANTOM
 10
205.249817
 20
-352.115173
 40
8.000000
 50
0.000000
 51
90.000000
  0
ARC
  8
0
  6
PHANTOM
 10
-419.750000
 20
93.499924
 40
2.500015
 50
270.000000
 51
90.000000
  0
ARC
  8
0
  6
PHANTOM
 10
-583.750000
 20
93.499924
 40
2.500015
 50
90.000000
 51
270.000000
  0
ARC
  8
0
  6
PHANTOM
 10
-177.250000
 20
93.499992
 40
2.500000
 50
270.000000
 51
90.000000
  0
ARC
  8
0
  6
PHANTOM
 10
-206.250000
 20
93.499992
 40
2.500000
 50
90.000000
 51
270.000000
  0
ARC
  8
0
  6
PHANTOM
 10
-211.750061
 20
140.000000
 40
4.000000
 50
90.000000
 51
180.000000
  0
ARC
  8
0
  6
PHANTOM
 10
-211.750061
 20
99.999992
 40
4.000000
 50
180.000000
 51
270.000000
  0
ARC
  8
0
  6
PHANTOM
 10
-171.750061
 20
99.999992
 40
4.000000
 50
270.000000
 51
0.000000
  0
ARC
  8
0
  6
PHANTOM
 10
-171.750061
 20
140.000000
 40
4.000000
 50
0.000000
 51
90.000000
  0
ARC
  8
0
  6
PHANTOM
 10
581.000000
 20
99.999969
 40
8.000000
 50
270.000000
 51
0.000000
  0
ARC
  8
0
  6
PHANTOM
 10
539.000000
 20
99.999969
 40
8.000000
 50
180.000000
 51
270.000000
  0
ARC
  8
0
  6
PHANTOM
 10
539.000000
 20
140.999969
 40
8.000000
 50
90.000000
 51
180.000000
  0
ARC
  8
0
  6
PHANTOM
 10
581.000000
 20
140.999969
 40
8.000000
 50
0.000000
 51
90.000000
  0
ARC
  8
0
  6
PHANTOM
 10
191.749847
 20
-416.615143
 40
2.499969
 50
270.000000
 51
90.000000
  0
ARC
  8
0
  6
PHANTOM
 10
164.749786
 20
-416.615143
 40
2.499969
 50
90.000000
 51
270.000000
  0
ARC
  8
0
  6
PHANTOM
 10
547.000000
 20
88.999969
 40
3.000000
 50
90.000000
 51
270.000000
  0
ARC
  8
0
  6
PHANTOM
 10
573.000000
 20
88.999969
 40
3.000000
 50
270.000000
 51
90.000000
  0
ARC
  8
0
  6
PHANTOM
 10
153.000015
 20
88.999931
 40
3.000008
 50
90.000000
 51
270.000000
  0
ARC
  8
0
  6
PHANTOM
 10
347.000000
 20
88.999931
 40
3.000008
 50
270.000000
 51
80.298347
  0
ARC
  8
0
 10
-501.749939
 20
167.999939
 40
6.000000
 50
221.409622
 51
318.590363
  0
ARC
  8
0
 10
-501.749939
 20
167.999939
 40
6.000000
 50
41.409630
 51
138.590378
  0
ARC
  8
0
 10
-499.249939
 20
163.499939
 40
2.000000
 50
270.000000
 51
0.000000
  0
ARC
  8
0
 10
-504.249939
 20
163.499939
 40
2.000000
 50
180.000000
 51
270.000000
  0
CIRCLE
  8
0
 10
-471.749939
 20
165.999939
 40
3.500000
  0
CIRCLE
  8
0
 10
-531.749939
 20
165.999939
 40
3.500000
  0
CIRCLE
  8
0
 10
-561.749939
 20
165.999939
 40
5.000000
  0
CIRCLE
  8
0
 10
-531.749939
 20
73.999886
 40
5.000000
  0
CIRCLE
  8
0
 10
-561.749939
 20
73.999886
 40
5.000000
  0
CIRCLE
  8
0
 10
-441.749939
 20
73.999886
 40
5.000000
  0
CIRCLE
  8
0
 10
-471.749939
 20
73.999886
 40
5.000000
  0
CIRCLE
  8
0
 10
-441.749939
 20
165.999939
 40
5.000000
  0
ARC
  8
0
 10
-501.749939
 20
167.999939
 40
8.000003
 50
43.432518
 51
136.567474
  0
CIRCLE
  8
0
 10
-456.750000
 20
314.999786
 40
2.458500
  0
CIRCLE
  8
0
 10
-456.750000
 20
314.999786
 40
3.000000
  0
CIRCLE
  8
0
 10
-546.750000
 20
314.999786
 40
2.458500
  0
CIRCLE
  8
0
 10
-546.750000
 20
314.999786
 40
3.000000
  0
ARC
  8
0
 10
-558.499878
 20
330.249664
 40
1.250000
 50
0.000000
 51
90.000000
  0
ARC
  8
0
 10
-564.999878
 20
330.249664
 40
1.250000
 50
90.000000
 51
180.000000
  0
ARC
  8
0
 10
-438.499878
 20
330.249847
 40
1.250000
 50
0.000000
 51
90.000000
  0
ARC
  8
0
 10
-444.999878
 20
330.249847
 40
1.250000
 50
90.000000
 51
180.000000
  0
ARC
  8
0
 10
-206.749847
 20
158.534683
 40
2.000003
 50
285.000000
 51
0.000000
  0
ARC
  8
0
 10
-211.250092
 20
81.845337
 40
2.000000
 50
0.000000
 51
59.999962
  0
ARC
  8
0
 10
-211.250092
 20
81.845337
 40
6.000000
 50
0.000000
 51
59.999996
  0
ARC
  8
0
 10
-206.749847
 20
158.534683
 40
5.999994
 50
285.000061
 51
0.000000
  0
ARC
  8
0
 10
-225.749908
 20
143.090927
 40
4.000006
 50
105.000008
 51
180.000000
  0
ARC
  8
0
 10
-225.750031
 20
101.763969
 40
4.000000
 50
180.000000
 51
240.000015
  0
ARC
  8
0
 10
-225.749908
 20
143.090927
 40
7.999996
 50
105.000038
 51
180.000000
  0
ARC
  8
0
 10
-225.750031
 20
101.763969
 40
8.000000
 50
180.000000
 51
239.999985
  0
ARC
  8
0
 10
-172.000214
 20
70.749901
 40
1.250000
 50
270.000000
 51
0.000000
  0
ARC
  8
0
 10
-172.000153
 20
77.249901
 40
1.250000
 50
0.000000
 51
90.000000
  0
ARC
  8
0
 10
-176.499969
 20
162.749924
 40
1.250000
 50
270.000000
 51
0.000000
  0
ARC
  8
0
 10
-176.499908
 20
169.249924
 40
1.250000
 50
0.000000
 51
90.000000
  0
CIRCLE
  8
0
 10
277.500000
 20
179.000000
 40
3.500000
  0
CIRCLE
  8
0
 10
195.000015
 20
179.000000
 40
5.000000
  0
CIRCLE
  8
0
 10
222.500015
 20
179.000000
 40
3.500000
  0
ARC
  8
0
 10
250.000015
 20
181.000000
 40
6.000000
 50
221.409622
 51
318.590363
  0
ARC
  8
0
 10
250.000015
 20
181.000000
 40
6.000000
 50
41.409630
 51
138.590378
  0
CIRCLE
  8
0
 10
305.000000
 20
179.000000
 40
5.000000
  0
ARC
  8
0
 10
250.000015
 20
181.000000
 40
8.000003
 50
43.432518
 51
136.567474
  0
CIRCLE
  8
0
 10
305.000000
 20
70.999947
 40
5.000000
  0
CIRCLE
  8
0
 10
277.500000
 20
70.999947
 40
5.000000
  0
ARC
  8
0
 10
247.500015
 20
176.000000
 40
2.000000
 50
180.000000
 51
270.000000
  0
ARC
  8
0
 10
252.500015
 20
176.000000
 40
2.000000
 50
270.000000
 51
0.000000
  0
CIRCLE
  8
0
 10
222.500015
 20
70.999947
 40
5.000000
  0
CIRCLE
  8
0
 10
195.000015
 20
70.999947
 40
5.000000
  0
CIRCLE
  8
0
 10
294.999878
 20
334.999695
 40
3.000000
  0
CIRCLE
  8
0
 10
294.999878
 20
334.999695
 40
2.458500
  0
ARC
  8
0
 10
308.249878
 20
350.249756
 40
1.250000
 50
0.000000
 51
90.000000
  0
ARC
  8
0
 10
301.749878
 20
350.249756
 40
1.250000
 50
90.000000
 51
180.000000
  0
ARC
  8
0
 10
198.249954
 20
350.249756
 40
1.250000
 50
0.000000
 51
90.000000
  0
ARC
  8
0
 10
191.749954
 20
350.249756
 40
1.250000
 50
90.000000
 51
180.000000
  0
CIRCLE
  8
0
 10
204.999924
 20
334.999695
 40
3.000000
  0
CIRCLE
  8
0
 10
204.999924
 20
334.999695
 40
2.458500
  0
ARC
  8
0
 10
544.500244
 20
165.534683
 40
6.499998
 50
284.999908
 51
0.000000
  0
ARC
  8
0
 10
539.500000
 20
78.845337
 40
6.500000
 50
0.000000
 51
60.000004
  0
ARC
  8
0
 10
521.500122
 20
101.362038
 40
4.000000
 50
180.000000
 51
240.000015
  0
ARC
  8
0
 10
521.500183
 20
148.501511
 40
4.000006
 50
105.000008
 51
180.000000
  0
ARC
  8
0
 10
521.500183
 20
148.501511
 40
8.500001
 50
104.999924
 51
180.000000
  0
ARC
  8
0
 10
521.500122
 20
101.362038
 40
8.500000
 50
180.000000
 51
240.000000
  0
ARC
  8
0
 10
580.250061
 20
74.249985
 40
1.250000
 50
0.000000
 51
90.000000
  0
ARC
  8
0
 10
580.250061
 20
67.749985
 40
1.250000
 50
270.000000
 51
0.000000
  0
ARC
  8
0
 10
575.250305
 20
182.250000
 40
1.250000
 50
0.000000
 51
90.000000
  0
ARC
  8
0
 10
575.250244
 20
175.750000
 40
1.250000
 50
270.000000
 51
0.000000
  0
ARC
  8
0
 10
539.500000
 20
78.845337
 40
2.000000
 50
0.000000
 51
59.999962
  0
ARC
  8
0
 10
544.500244
 20
165.534683
 40
2.000003
 50
285.000000
 51
0.000000
  0
ARC
  8
0
 10
-209.250031
 20
-315.115143
 40
2.000000
 50
270.000000
 51
0.000000
  0
ARC
  8
0
 10
-214.250031
 20
-315.115143
 40
2.000000
 50
180.000000
 51
270.000000
  0
CIRCLE
  8
0
 10
-251.750031
 20
-436.115143
 40
5.000000
  0
CIRCLE
  8
0
 10
-291.750031
 20
-436.115143
 40
5.000000
  0
ARC
  8
0
 10
-211.750031
 20
-309.615112
 40
8.000004
 50
43.432209
 51
136.567795
  0
CIRCLE
  8
0
 10
-291.750031
 20
-312.115112
 40
5.000000
  0
CIRCLE
  8
0
 10
-251.750031
 20
-312.115112
 40
3.500000
  0
ARC
  8
0
 10
-211.750031
 20
-309.615112
 40
6.000000
 50
41.409630
 51
138.590378
  0
CIRCLE
  8
0
 10
-171.750031
 20
-312.115112
 40
3.500000
  0
CIRCLE
  8
0
 10
-131.750031
 20
-312.115112
 40
5.000000
  0
ARC
  8
0
 10
-211.750031
 20
-309.615112
 40
6.000000
 50
221.409622
 51
318.590363
  0
CIRCLE
  8
0
 10
-171.750031
 20
-436.115143
 40
5.000000
  0
CIRCLE
  8
0
 10
-131.750031
 20
-436.115143
 40
5.000000
  0
ARC
  8
0
 10
-288.500000
 20
-113.864944
 40
1.250000
 50
0.000000
 51
90.000000
  0
ARC
  8
0
 10
-295.000000
 20
-113.864944
 40
1.250000
 50
90.000000
 51
180.000000
  0
CIRCLE
  8
0
 10
-271.750000
 20
-129.114990
 40
3.000000
  0
CIRCLE
  8
0
 10
-271.750000
 20
-129.114990
 40
2.458500
  0
CIRCLE
  8
0
 10
-151.750000
 20
-129.114990
 40
3.000000
  0
CIRCLE
  8
0
 10
-151.750000
 20
-129.114990
 40
2.458500
  0
ARC
  8
0
 10
-128.500000
 20
-113.864944
 40
1.250000
 50
0.000000
 51
90.000000
  0
ARC
  8
0
 10
-135.000000
 20
-113.864944
 40
1.250000
 50
90.000000
 51
180.000000
  0
ARC
  8
0
 10
155.250015
 20
-428.417053
 40
9.000000
 50
0.000000
 51
74.999962
  0
ARC
  8
0
 10
160.249832
 20
-325.813080
 40
8.999998
 50
285.000031
 51
0.000000
  0
ARC
  8
0
 10
135.249863
 20
-348.040955
 40
6.000009
 50
105.000008
 51
180.000000
  0
ARC
  8
0
 10
135.249985
 20
-407.528961
 40
6.000000
 50
180.000000
 51
254.999985
  0
ARC
  8
0
 10
135.249985
 20
-407.528961
 40
12.000000
 50
180.000000
 51
254.999954
  0
ARC
  8
0
 10
135.249863
 20
-348.040955
 40
11.999988
 50
105.000046
 51
180.000000
  0
ARC
  8
0
 10
198.500046
 20
-439.364990
 40
1.250000
 50
270.000000
 51
0.000000
  0
ARC
  8
0
 10
198.500046
 20
-432.864990
 40
1.250000
 50
0.000000
 51
90.000000
  0
ARC
  8
0
 10
193.499832
 20
-308.864990
 40
1.250000
 50
0.000000
 51
90.000000
  0
ARC
  8
0
 10
193.499863
 20
-315.364990
 40
1.250000
 50
270.000000
 51
0.000000
  0
ARC
  8
0
 10
155.250015
 20
-428.417053
 40
3.000000
 50
0.000000
 51
74.999916
  0
ARC
  8
0
 10
160.249832
 20
-325.813080
 40
2.999990
 50
285.000092
 51
0.000000
  0
TEXT
  8
0
 10
452.676331
 20
466.216309
 40
17.000000
  1
DATE : MAY ,1991
 50
0.000000
 41
1.052631
 51
0.000000
  7
STANDARD
  0
TEXT
  8
0
 10
-652.223755
 20
463.516205
 40
20.000000
  1
ORCA C MOUNT
 50
0.000000
 41
1.052632
 51
0.000000
  7
STANDARD
  0
TEXT
  8
0
 10
-704.357117
 20
409.914032
 40
20.000000
  1
BORE : 32
 50
0.000000
 41
1.052632
 51
0.000000
  7
STANDARD
  0
TEXT
  8
0
 10
37.392860
 20
434.914032
 40
20.000000
  1
BORE : 40
 50
0.000000
 41
1.052632
 51
0.000000
  7
STANDARD
  0
TEXT
  8
0
 10
-704.357117
 20
-67.000061
 40
20.000000
  1
BORE : 50
 50
0.000000
 41
1.052632
 51
0.000000
  7
STANDARD
  0
ENDSEC
  0
EOF
