  0
SECTION
  2
HEADER
  0
ENDSEC
  0
SECTION
  2
TABLES
  0
TABLE
  2
LTYPE
 70
     4
  0
LTYPE
  2
CONTINUOUS
 70
    64
  3
Solid line
 72
    65
 73
     0
 40
0.000000
  0
LTYPE
  2
DASHED
 70
    64
  3
__ __ __ __ __ __ __ __ __ __ __ __ __ __ __
 72
    65
 73
     2
 40
3.500000
 49
2.000000
 49
-1.500000
  0
LTYPE
  2
CENTER
 70
    64
  3
____ _ ____ _ ____ _ ____ _ ____ _ ____ _ ____
 72
    65
 73
     4
 40
17.500000
 49
13.000000
 49
-1.500000
 49
1.500000
 49
-1.500000
  0
LTYPE
  2
PHANTOM
 70
    64
  3
_____ _ _ _____ _ _ _____ _ _ _____ _ _ ____  
 72
    65
 73
     6
 40
15.500000
 49
8.000000
 49
-1.500000
 49
1.500000
 49
-1.500000
 49
1.500000
 49
-1.500000
  0
LTYPE
  2
DASHED1
 70
    64
  3
__ __ __ __ __ __ __ __ __ __ __ __ __ __ __
 72
    65
 73
     2
 40
1.500000
 49
1.000000
 49
-0.500000
  0
LTYPE
  2
DASHED2
 70
    64
  3
__ __ __ __ __ __ __ __ __ __ __ __ __ __ __
 72
    65
 73
     2
 40
3.500000
 49
2.500000
 49
-1.000000
  0
LTYPE
  2
DASHED3
 70
    64
  3
__ __ __ __ __ __ __ __ __ __ __ __ __ __ __
 72
    65
 73
     2
 40
6.000000
 49
4.000000
 49
-2.000000
  0
LTYPE
  2
DASHED4
 70
    64
  3
__ __ __ __ __ __ __ __ __ __ __ __ __ __ __
 72
    65
 73
     2
 40
12.000000
 49
10.000000
 49
-2.000000
  0
LTYPE
  2
DASHED5
 70
    64
  3
__ __ __ __ __ __ __ __ __ __ __ __ __ __ __
 72
    65
 73
     2
 40
17.000000
 49
15.000000
 49
-2.000000
  0
LTYPE
  2
DASHED6
 70
    64
  3
__ __ __ __ __ __ __ __ __ __ __ __ __ __ __
 72
    65
 73
     2
 40
29.000000
 49
27.000000
 49
-2.000000
  0
LTYPE
  2
PHANTOM1
 70
    64
  3
_____ _ _ _____ _ _ _____ _ _ _____ _ _ ____  
 72
    65
 73
     6
 40
31.000000
 49
25.000000
 49
-1.500000
 49
1.000000
 49
-1.000000
 49
1.000000
 49
-1.500000
  0
LTYPE
  2
PHANTOM2
 70
    64
  3
_____ _ _ _____ _ _ _____ _ _ _____ _ _ ____  
 72
    65
 73
     6
 40
36.000000
 49
27.000000
 49
-1.500000
 49
2.500000
 49
-1.000000
 49
2.500000
 49
-1.500000
  0
LTYPE
  2
PHANTOM3
 70
    64
  3
_____ _ _ _____ _ _ _____ _ _ _____ _ _ ____  
 72
    65
 73
     6
 40
78.000000
 49
64.000000
 49
-2.000000
 49
4.000000
 49
-2.000000
 49
4.000000
 49
-2.000000
  0
LTYPE
  2
CENTER1
 70
    64
  3
____ _ ____ _ ____ _ ____ _ ____ _ ____ _ ____
 72
    65
 73
     4
 40
19.000000
 49
14.000000
 49
-1.000000
 49
3.000000
 49
-1.000000
  0
LTYPE
  2
CENTER2
 70
    64
  3
____ _ ____ _ ____ _ ____ _ ____ _ ____ _ ____
 72
    65
 73
     4
 40
28.500000
 49
25.000000
 49
-1.000000
 49
1.500000
 49
-1.000000
  0
LTYPE
  2
CENTER3
 70
    64
  3
____ _ ____ _ ____ _ ____ _ ____ _ ____ _ ____
 72
    65
 73
     4
 40
31.500000
 49
27.000000
 49
-1.000000
 49
2.500000
 49
-1.000000
  0
LTYPE
  2
CENTER4
 70
    64
  3
____ _ ____ _ ____ _ ____ _ ____ _ ____ _ ____
 72
    65
 73
     4
 40
50.000000
 49
45.000000
 49
-1.000000
 49
3.000000
 49
-1.000000
  0
LTYPE
  2
CENTER5
 70
    64
  3
____ _ ____ _ ____ _ ____ _ ____ _ ____ _ ____
 72
    65
 73
     4
 40
100.000000
 49
92.000000
 49
-2.000000
 49
4.000000
 49
-2.000000
  0
LTYPE
  2
SBK1
 70
    64
  3
______ _ _ _ ______ _ _ _ ______ _ _ _ _____  
 72
    65
 73
     8
 40
60.500000
 49
45.000000
 49
-2.000000
 49
2.500000
 49
-2.000000
 49
2.500000
 49
-2.000000
 49
2.500000
 49
-2.000000
  0
LTYPE
  2
SBK2
 70
    64
  3
______ _ _ _ ______ _ _ _ ______ _ _ _ _____  
 72
    65
 73
     8
 40
84.000000
 49
64.000000
 49
-2.000000
 49
4.000000
 49
-2.000000
 49
4.000000
 49
-2.000000
 49
4.000000
 49
-2.000000
  0
LTYPE
  2
STCH
 70
    64
  3
__ __ __ __ __ __ __ __ __ __ __ __ __ __ __
 72
    65
 73
     2
 40
3.000000
 49
1.000000
 49
-2.000000
  0
LTYPE
  2
MTCH
 70
    64
  3
_____ _ _ _____ _ _ _____ _ _ _____ _ _ ____  
 72
    65
 73
     6
 40
80.000000
 49
66.000000
 49
-2.000000
 49
4.000000
 49
-2.000000
 49
4.000000
 49
-2.000000
  0
ENDTAB
  0
TABLE
  2
LAYER
 70
     1
  0
LAYER
  2
0
 70
     0
 62
     7
  6
CONTINUOUS
  0
ENDTAB
  0
TABLE
  2
STYLE
 70
     1
  0
STYLE
  2
STANDARD
 70
     0
 40
0.000000
 41
1.000000
 50
0.000000
 71
     0
 42
0.200000
  3
txt
  4
BIGFONT
  0
ENDTAB
  0
TABLE
  2
VIEW
 70
     0
  0
ENDTAB
  0
ENDSEC
  0
SECTION
  2
BLOCKS
  0
ENDSEC
  0
SECTION
  2
ENTITIES
  0
POINT
  8
0
 10
-557.000000
 20
150.000000
  0
POINT
  8
0
 10
263.000000
 20
150.000000
  0
POINT
  8
0
 10
263.000000
 20
-200.000031
  0
POINT
  8
0
 10
-557.000000
 20
-200.000031
  0
POINT
  8
0
 10
500.000000
 20
-200.000000
  0
POINT
  8
0
 10
537.000000
 20
-200.000000
  0
LINE
  8
0
 62
     3
 10
-741.750000
 20
-509.114990
 11
741.750000
 21
-509.114990
  0
LINE
  8
0
 62
     3
 10
-741.750000
 20
509.114990
 11
741.750000
 21
509.114990
  0
LINE
  8
0
 62
     3
 10
741.750000
 20
509.114990
 11
741.750000
 21
-509.114990
  0
LINE
  8
0
 62
     3
 10
-741.750000
 20
509.114990
 11
-741.750000
 21
-509.114990
  0
LINE
  8
0
 62
     5
 10
516.764709
 20
-465.668823
 11
546.072388
 21
-465.668823
  0
LINE
  8
0
 62
     5
 10
516.764709
 20
-491.658691
 11
541.648621
 21
-491.658691
  0
LINE
  8
0
 62
     5
 10
516.764709
 20
-498.294342
 11
550.496216
 21
-498.294342
  0
LINE
  8
0
 62
     5
 10
516.764709
 20
-472.304474
 11
541.648621
 21
-472.304474
  0
LINE
  8
0
 62
     5
 10
516.764709
 20
-465.668823
 11
516.764709
 21
-472.304474
  0
LINE
  8
0
 62
     5
 10
550.496216
 20
-470.092651
 11
550.496216
 21
-498.294342
  0
LINE
  8
0
 62
     5
 10
541.648621
 20
-472.304474
 11
541.648621
 21
-491.658691
  0
LINE
  8
0
 62
     5
 10
555.472900
 20
-465.668823
 11
555.472900
 21
-472.304474
  0
LINE
  8
0
 62
     5
 10
586.992432
 20
-472.304474
 11
586.992432
 21
-493.870697
  0
LINE
  8
0
 62
     5
 10
578.144897
 20
-472.304474
 11
578.144897
 21
-491.658691
  0
LINE
  8
0
 62
     5
 10
516.764709
 20
-491.658691
 11
516.764709
 21
-498.294342
  0
LINE
  8
0
 62
     5
 10
555.472900
 20
-465.668823
 11
564.214966
 21
-465.668823
  0
LINE
  8
0
 62
     5
 10
555.472900
 20
-498.294342
 11
562.342773
 21
-498.294342
  0
LINE
  8
0
 62
     5
 10
555.472717
 20
-498.294098
 11
562.436890
 21
-472.304413
  0
LINE
  8
0
 62
     5
 10
555.472900
 20
-472.304474
 11
562.436951
 21
-472.304474
  0
LINE
  8
0
 62
     5
 10
562.343140
 20
-498.294647
 11
569.307007
 21
-472.304871
  0
LINE
  8
0
 62
     5
 10
571.509094
 20
-491.658691
 11
578.144897
 21
-491.658691
  0
LINE
  8
0
 62
     5
 10
571.508972
 20
-491.658600
 11
573.286804
 21
-498.294128
  0
LINE
  8
0
 62
     5
 10
573.287354
 20
-498.294342
 11
582.568787
 21
-498.294342
  0
LINE
  8
0
 62
     5
 10
569.306763
 20
-472.304474
 11
578.144897
 21
-472.304474
  0
LINE
  8
0
 62
     5
 10
571.084717
 20
-465.668823
 11
580.356750
 21
-465.668823
  0
LINE
  8
0
 62
     5
 10
564.215088
 20
-465.668854
 11
565.533630
 21
-460.747498
  0
LINE
  8
0
 62
     5
 10
571.084290
 20
-465.668488
 11
572.402893
 21
-460.746979
  0
LINE
  8
0
 62
     5
 10
592.522278
 20
-465.668823
 11
603.028809
 21
-465.668823
  0
LINE
  8
0
 62
     5
 10
592.522278
 20
-472.304474
 11
618.325867
 21
-472.304474
  0
LINE
  8
0
 62
     5
 10
603.028809
 20
-498.294342
 11
611.876221
 21
-498.294342
  0
LINE
  8
0
 62
     5
 10
592.522278
 20
-465.668823
 11
592.522278
 21
-472.304474
  0
LINE
  8
0
 62
     5
 10
625.147827
 20
-484.336975
 11
625.147827
 21
-491.658691
  0
LINE
  8
0
 62
     5
 10
592.521790
 20
-491.658447
 11
603.028564
 21
-486.759003
  0
LINE
  8
0
 62
     5
 10
592.522827
 20
-484.337433
 11
618.326355
 21
-472.304932
  0
LINE
  8
0
 62
     5
 10
592.522278
 20
-484.336975
 11
592.522278
 21
-491.658691
  0
LINE
  8
0
 62
     5
 10
611.876038
 20
-485.469879
 11
625.147766
 21
-491.658478
  0
LINE
  8
0
 62
     5
 10
616.686646
 20
-480.391724
 11
625.148682
 21
-484.337585
  0
LINE
  8
0
 62
     5
 10
625.147827
 20
-470.092651
 11
625.147827
 21
-473.626892
  0
LINE
  8
0
 62
     5
 10
603.028809
 20
-460.747406
 11
603.028809
 21
-465.668823
  0
LINE
  8
0
 62
     5
 10
611.876221
 20
-460.747406
 11
611.876221
 21
-465.668823
  0
LINE
  8
0
 62
     5
 10
611.876221
 20
-465.668823
 11
620.723999
 21
-465.668823
  0
LINE
  8
0
 62
     5
 10
603.028809
 20
-486.759460
 11
603.028809
 21
-498.294342
  0
LINE
  8
0
 62
     5
 10
611.876221
 20
-485.470184
 11
611.876221
 21
-498.294342
  0
LINE
  8
0
 62
     5
 10
616.686707
 20
-480.391937
 11
622.594543
 21
-477.637115
  0
LINE
  8
0
 62
     5
 10
655.008484
 20
-462.738159
 11
661.644043
 21
-462.738159
  0
LINE
  8
0
 62
     5
 10
627.912720
 20
-476.445160
 11
627.912720
 21
-483.586365
  0
LINE
  8
0
 62
     5
 10
661.644043
 20
-462.738159
 11
661.644043
 21
-465.668823
  0
LINE
  8
0
 62
     5
 10
655.008484
 20
-462.738159
 11
655.008484
 21
-464.168060
  0
LINE
  8
0
 62
     5
 10
646.160828
 20
-476.328888
 11
646.160828
 21
-498.294342
  0
LINE
  8
0
 62
     5
 10
627.912903
 20
-476.445496
 11
653.614319
 21
-466.223785
  0
LINE
  8
0
 62
     5
 10
627.912598
 20
-483.586365
 11
646.160706
 21
-476.328796
  0
LINE
  8
0
 62
     5
 10
646.160828
 20
-498.294342
 11
655.008484
 21
-498.294342
  0
LINE
  8
0
 62
     5
 10
655.008484
 20
-472.810120
 11
655.008484
 21
-498.294342
  0
LINE
  8
0
 62
     5
 10
655.009155
 20
-472.810547
 11
657.461609
 21
-471.835114
  0
LINE
  8
0
 62
     5
 10
565.533691
 20
-460.747406
 11
572.403381
 21
-460.747406
  0
LINE
  8
0
 62
     5
 10
583.398193
 20
-460.747406
 11
586.218201
 21
-460.747406
  0
LINE
  8
0
 62
     5
 10
603.028809
 20
-460.747406
 11
611.876221
 21
-460.747406
  0
LINE
  8
0
 62
     5
 10
583.398193
 20
-465.171234
 11
586.218201
 21
-465.171234
  0
LINE
  8
0
 62
     5
 10
583.398193
 20
-460.747406
 11
583.398193
 21
-465.171234
  0
LINE
  8
0
 62
     5
 10
586.218201
 20
-460.747406
 11
586.218201
 21
-465.171234
  0
LINE
  8
0
 62
     5
 10
587.877319
 20
-460.747406
 11
587.877319
 21
-465.171234
  0
LINE
  8
0
 62
     5
 10
591.029297
 20
-460.747406
 11
591.029297
 21
-465.171234
  0
LINE
  8
0
 62
     5
 10
587.877319
 20
-460.747406
 11
591.029297
 21
-460.747406
  0
LINE
  8
0
 62
     5
 10
587.877319
 20
-465.171234
 11
591.029297
 21
-465.171234
  0
LINE
  8
0
 62
     3
 10
436.659546
 20
-451.914154
 11
436.659546
 21
-509.118408
  0
LINE
  8
0
 62
     3
 10
436.659546
 20
-451.914154
 11
741.749207
 21
-451.914154
  0
LINE
  8
0
 62
     3
 10
436.659546
 20
509.118408
 11
436.659546
 21
451.914032
  0
LINE
  8
0
 62
     3
 10
436.659546
 20
451.914032
 11
741.749207
 21
451.914032
  0
LINE
  8
0
 62
     3
 10
-317.483978
 20
451.914032
 11
-317.483978
 21
509.118408
  0
LINE
  8
0
 62
     3
 10
-741.749207
 20
451.914032
 11
-317.483978
 21
451.914032
  0
LINE
  8
0
  6
CENTER
 10
230.000000
 20
-186.000000
 11
248.000000
 21
-186.000000
  0
LINE
  8
0
  6
CENTER
 10
239.000000
 20
-177.000015
 11
239.000000
 21
-195.000015
  0
LINE
  8
0
 10
242.005707
 20
-182.004349
 11
235.004257
 21
-189.005798
  0
LINE
  8
0
 10
235.994278
 20
-189.995758
 11
242.995728
 21
-182.994293
  0
LINE
  8
0
  6
CENTER
 10
-544.000000
 20
-188.000000
 11
-544.000000
 21
-212.000000
  0
LINE
  8
0
 10
-557.000000
 20
-163.000000
 11
-557.000000
 21
-237.000000
  0
LINE
  8
0
 10
-525.000000
 20
-163.000000
 11
-525.000000
 21
-240.000000
  0
LINE
  8
0
 10
-525.000000
 20
-163.000000
 11
-557.000000
 21
-163.000000
  0
LINE
  8
0
 10
-525.000000
 20
-237.000000
 11
-557.000000
 21
-237.000000
  0
LINE
  8
0
  6
CENTER
 10
-524.000000
 20
-186.000000
 11
-542.000000
 21
-186.000000
  0
LINE
  8
0
  6
CENTER
 10
-533.000000
 20
-177.000000
 11
-533.000000
 21
-195.000000
  0
LINE
  8
0
 10
-536.995850
 20
-189.005753
 11
-529.994385
 21
-182.004257
  0
LINE
  8
0
 10
-529.004395
 20
-182.994202
 11
-536.005859
 21
-189.995712
  0
LINE
  8
0
 10
-549.000000
 20
-215.000000
 11
-549.000000
 21
-237.000000
  0
LINE
  8
0
 10
-549.000000
 20
-215.000000
 11
-557.000000
 21
-215.000000
  0
LINE
  8
0
  6
CENTER
 10
-544.000000
 20
-226.000000
 11
-562.000000
 21
-226.000000
  0
LINE
  8
0
 10
-551.051819
 20
-232.928238
 11
-557.000000
 21
-232.928238
  0
LINE
  8
0
 10
-551.051819
 20
-229.464157
 11
-557.000000
 21
-229.464157
  0
LINE
  8
0
 10
-551.051819
 20
-222.535934
 11
-557.000000
 21
-222.535934
  0
LINE
  8
0
 10
-551.051819
 20
-219.071838
 11
-557.000000
 21
-219.071838
  0
LINE
  8
0
 10
-549.000000
 20
-185.000000
 11
-549.000000
 21
-163.000000
  0
LINE
  8
0
 10
-549.000000
 20
-185.000000
 11
-557.000000
 21
-185.000000
  0
LINE
  8
0
  6
CENTER
 10
-544.000000
 20
-174.000000
 11
-562.000000
 21
-174.000000
  0
LINE
  8
0
 10
-551.051819
 20
-167.071762
 11
-557.000000
 21
-167.071762
  0
LINE
  8
0
 10
-551.051819
 20
-170.535843
 11
-557.000000
 21
-170.535843
  0
LINE
  8
0
 10
-551.051819
 20
-177.464066
 11
-557.000000
 21
-177.464066
  0
LINE
  8
0
 10
-551.051819
 20
-180.928162
 11
-557.000000
 21
-180.928162
  0
LINE
  8
0
 10
263.000000
 20
-163.000015
 11
263.000000
 21
-237.000015
  0
LINE
  8
0
 10
231.000000
 20
-163.000000
 11
263.000000
 21
-163.000000
  0
LINE
  8
0
 10
231.000000
 20
-237.000000
 11
263.000000
 21
-237.000000
  0
LINE
  8
0
 10
231.000000
 20
-163.000015
 11
231.000000
 21
-240.000015
  0
LINE
  8
0
 10
-525.000000
 20
-240.000000
 11
231.000000
 21
-240.000000
  0
LINE
  8
0
 10
191.000000
 20
-238.000015
 11
191.000000
 21
-240.000015
  0
LINE
  8
0
 10
176.428528
 20
-238.000000
 11
191.000000
 21
-238.000000
  0
LINE
  8
0
 10
187.361267
 20
-234.500000
 11
231.000000
 21
-234.500000
  0
LINE
  8
0
 10
-525.000000
 20
-165.000000
 11
231.000000
 21
-165.000000
  0
LINE
  8
0
 10
-525.000000
 20
-235.000000
 11
185.658264
 21
-235.000000
  0
LINE
  8
0
 10
-491.000000
 20
-131.000000
 11
-303.000000
 21
-131.000000
  0
LINE
  8
0
 10
-497.000000
 20
-135.000000
 11
-402.000000
 21
-135.000000
  0
LINE
  8
0
 10
-499.500000
 20
-160.000000
 11
-294.500000
 21
-160.000000
  0
LINE
  8
0
  6
CENTER
 10
-397.000000
 20
-126.000000
 11
-397.000000
 21
-245.000000
  0
LINE
  8
0
 10
-497.000000
 20
-135.000000
 11
-497.000000
 21
-160.000000
  0
LINE
  8
0
 10
-491.000000
 20
-131.000000
 11
-491.000000
 21
-135.000000
  0
LINE
  8
0
 10
-303.000000
 20
-131.000000
 11
-303.000000
 21
-135.000000
  0
LINE
  8
0
 10
-297.000000
 20
-135.000000
 11
-297.000000
 21
-160.000000
  0
LINE
  8
0
  6
CENTER
 10
-406.000000
 20
-141.000000
 11
-388.000000
 21
-141.000000
  0
LINE
  8
0
 10
-402.000000
 20
-135.000000
 11
-402.000000
 21
-144.000000
  0
LINE
  8
0
 10
-392.000000
 20
-135.000000
 11
-392.000000
 21
-144.000000
  0
LINE
  8
0
 10
-392.000000
 20
-135.000000
 11
-297.000000
 21
-135.000000
  0
LINE
  8
0
  6
CENTER
 10
-444.500000
 20
-143.000000
 11
-429.500000
 21
-143.000000
  0
LINE
  8
0
  6
CENTER
 10
-437.000000
 20
-135.500000
 11
-437.000000
 21
-150.500000
  0
LINE
  8
0
  6
CENTER
 10
-477.000000
 20
-134.000000
 11
-477.000000
 21
-152.000000
  0
LINE
  8
0
  6
CENTER
 10
-486.000000
 20
-143.000000
 11
-468.000000
 21
-143.000000
  0
LINE
  8
0
 10
-479.500000
 20
-144.443344
 11
-476.999969
 21
-145.886734
  0
LINE
  8
0
 10
-477.000061
 20
-145.886765
 11
-474.500031
 21
-144.443375
  0
LINE
  8
0
 10
-474.499939
 20
-144.443420
 11
-474.499939
 21
-141.556641
  0
LINE
  8
0
 10
-474.500000
 20
-141.556610
 11
-477.000031
 21
-140.113220
  0
LINE
  8
0
 10
-477.000061
 20
-140.113174
 11
-479.500092
 21
-141.556564
  0
LINE
  8
0
 10
-479.499939
 20
-141.556641
 11
-479.499939
 21
-144.443420
  0
LINE
  8
0
  6
CENTER
 10
-349.500000
 20
-143.000000
 11
-364.500000
 21
-143.000000
  0
LINE
  8
0
  6
CENTER
 10
-357.000000
 20
-135.500000
 11
-357.000000
 21
-150.500000
  0
LINE
  8
0
  6
CENTER
 10
-317.000000
 20
-134.000000
 11
-317.000000
 21
-152.000000
  0
LINE
  8
0
  6
CENTER
 10
-308.000000
 20
-143.000000
 11
-326.000000
 21
-143.000000
  0
LINE
  8
0
 10
-314.500000
 20
-144.443329
 11
-317.000061
 21
-145.886719
  0
LINE
  8
0
 10
-316.999939
 20
-145.886749
 11
-319.500000
 21
-144.443359
  0
LINE
  8
0
 10
-319.500061
 20
-144.443420
 11
-319.500061
 21
-141.556641
  0
LINE
  8
0
 10
-319.500000
 20
-141.556610
 11
-316.999939
 21
-140.113220
  0
LINE
  8
0
 10
-316.999908
 20
-140.113174
 11
-314.499908
 21
-141.556580
  0
LINE
  8
0
 10
-314.500061
 20
-141.556641
 11
-314.500061
 21
-144.443420
  0
LINE
  8
0
  6
CENTER
 10
103.000000
 20
-160.000015
 11
103.000000
 21
-245.000015
  0
LINE
  8
0
 10
-525.000000
 20
-203.500000
 11
231.000000
 21
-203.500000
  0
LINE
  8
0
 10
-525.000000
 20
-196.500000
 11
231.000000
 21
-196.500000
  0
LINE
  8
0
 10
-525.000000
 20
-209.500000
 11
231.000000
 21
-209.500000
  0
LINE
  8
0
 10
-525.000000
 20
-190.500000
 11
231.000000
 21
-190.500000
  0
LINE
  8
0
 10
-525.000000
 20
-212.500000
 11
231.000000
 21
-212.500000
  0
LINE
  8
0
 10
-525.000000
 20
-187.500000
 11
231.000000
 21
-187.500000
  0
LINE
  8
0
  6
CENTER
 10
-562.000122
 20
-200.000031
 11
267.999939
 21
-200.000031
  0
LINE
  8
0
 10
-548.000000
 20
-202.309402
 11
-544.000000
 21
-204.618805
  0
LINE
  8
0
 10
-544.000061
 20
-204.618805
 11
-540.000000
 21
-202.309387
  0
LINE
  8
0
 10
-540.000000
 20
-202.309402
 11
-540.000000
 21
-197.690598
  0
LINE
  8
0
 10
-540.000000
 20
-197.690598
 11
-544.000000
 21
-195.381195
  0
LINE
  8
0
 10
-544.000061
 20
-195.381210
 11
-548.000122
 21
-197.690628
  0
LINE
  8
0
 10
-548.000000
 20
-197.690598
 11
-548.000000
 21
-202.309402
  0
LINE
  8
0
  6
CENTER
 10
250.000000
 20
-188.000015
 11
250.000000
 21
-212.000015
  0
LINE
  8
0
 10
253.999969
 20
-202.309433
 11
250.000000
 21
-204.618820
  0
LINE
  8
0
 10
249.999954
 20
-204.618805
 11
245.999985
 21
-202.309418
  0
LINE
  8
0
 10
246.000000
 20
-202.309418
 11
246.000000
 21
-197.690613
  0
LINE
  8
0
 10
245.999985
 20
-197.690582
 11
249.999954
 21
-195.381195
  0
LINE
  8
0
 10
250.000000
 20
-195.381165
 11
254.000031
 21
-197.690582
  0
LINE
  8
0
 10
254.000000
 20
-197.690613
 11
254.000000
 21
-202.309418
  0
LINE
  8
0
 10
-550.000000
 20
-217.250046
 11
-550.000000
 21
-234.749893
  0
LINE
  8
0
 10
-549.000000
 20
-217.250046
 11
-550.000000
 21
-217.250046
  0
LINE
  8
0
 10
-548.999939
 20
-234.749893
 11
-550.000000
 21
-234.749893
  0
LINE
  8
0
 10
-550.000000
 20
-234.749893
 11
-551.051758
 21
-232.928238
  0
LINE
  8
0
 10
-550.000000
 20
-217.250031
 11
-551.051819
 21
-219.071838
  0
LINE
  8
0
 10
-551.051819
 20
-219.071838
 11
-551.051819
 21
-232.928101
  0
LINE
  8
0
 10
-550.000000
 20
-182.750031
 11
-550.000000
 21
-165.250183
  0
LINE
  8
0
 10
-548.999939
 20
-165.250183
 11
-550.000000
 21
-165.250183
  0
LINE
  8
0
 10
-549.000000
 20
-182.750031
 11
-550.000000
 21
-182.750031
  0
LINE
  8
0
 10
-549.999939
 20
-182.750000
 11
-551.051758
 21
-180.928207
  0
LINE
  8
0
 10
-551.051819
 20
-180.928238
 11
-551.051819
 21
-167.071976
  0
LINE
  8
0
 10
-550.000000
 20
-165.250183
 11
-551.051758
 21
-167.071838
  0
LINE
  8
0
 10
257.051819
 20
-180.928253
 11
257.051819
 21
-167.071991
  0
LINE
  8
0
 10
254.999939
 20
-182.750031
 11
256.000000
 21
-182.750031
  0
LINE
  8
0
 10
256.000000
 20
-165.250168
 11
257.051697
 21
-167.071823
  0
LINE
  8
0
 10
255.000000
 20
-215.000015
 11
255.000000
 21
-237.000015
  0
LINE
  8
0
 10
255.000000
 20
-215.000000
 11
263.000000
 21
-215.000000
  0
LINE
  8
0
  6
CENTER
 10
250.000000
 20
-226.000000
 11
268.000000
 21
-226.000000
  0
LINE
  8
0
 10
257.051819
 20
-232.928238
 11
263.000000
 21
-232.928238
  0
LINE
  8
0
 10
257.051819
 20
-229.464157
 11
263.000000
 21
-229.464157
  0
LINE
  8
0
 10
257.051819
 20
-222.535934
 11
263.000000
 21
-222.535934
  0
LINE
  8
0
 10
257.051819
 20
-219.071838
 11
263.000000
 21
-219.071838
  0
LINE
  8
0
 10
255.000000
 20
-185.000015
 11
255.000000
 21
-163.000015
  0
LINE
  8
0
 10
255.000000
 20
-185.000000
 11
263.000000
 21
-185.000000
  0
LINE
  8
0
  6
CENTER
 10
250.000000
 20
-174.000000
 11
268.000000
 21
-174.000000
  0
LINE
  8
0
 10
257.051819
 20
-167.071762
 11
263.000000
 21
-167.071762
  0
LINE
  8
0
 10
257.051819
 20
-170.535843
 11
263.000000
 21
-170.535843
  0
LINE
  8
0
 10
257.051819
 20
-177.464066
 11
263.000000
 21
-177.464066
  0
LINE
  8
0
 10
257.051819
 20
-180.928162
 11
263.000000
 21
-180.928162
  0
LINE
  8
0
 10
256.000031
 20
-182.750046
 11
257.051849
 21
-180.928268
  0
LINE
  8
0
 10
256.000000
 20
-217.250061
 11
256.000000
 21
-234.749908
  0
LINE
  8
0
 10
254.999939
 20
-217.250046
 11
256.000000
 21
-217.250046
  0
LINE
  8
0
 10
254.999939
 20
-234.749893
 11
256.000000
 21
-234.749893
  0
LINE
  8
0
 10
256.000031
 20
-234.749878
 11
257.051727
 21
-232.928207
  0
LINE
  8
0
 10
256.000000
 20
-217.250031
 11
257.051849
 21
-219.071838
  0
LINE
  8
0
 10
257.051819
 20
-219.071854
 11
257.051819
 21
-232.928116
  0
LINE
  8
0
 10
256.000000
 20
-182.750046
 11
256.000000
 21
-165.250198
  0
LINE
  8
0
 10
254.999939
 20
-165.250183
 11
256.000000
 21
-165.250183
  0
LINE
  8
0
  6
CENTER
 10
-562.000000
 20
150.000000
 11
268.000000
 21
150.000000
  0
LINE
  8
0
 10
263.000000
 20
186.999954
 11
263.000000
 21
112.999954
  0
LINE
  8
0
 10
231.000000
 20
186.999954
 11
231.000000
 21
112.999954
  0
LINE
  8
0
 10
231.000000
 20
187.000000
 11
263.000000
 21
187.000000
  0
LINE
  8
0
 10
231.000000
 20
113.000000
 11
263.000000
 21
113.000000
  0
LINE
  8
0
 10
-557.000000
 20
187.000000
 11
-557.000000
 21
113.000000
  0
LINE
  8
0
 10
-551.051819
 20
130.000000
 11
-557.000000
 21
130.000000
  0
LINE
  8
0
 10
-525.000000
 20
187.000000
 11
-525.000000
 21
113.000000
  0
LINE
  8
0
 10
-525.000000
 20
187.000000
 11
-557.000000
 21
187.000000
  0
LINE
  8
0
 10
-525.000000
 20
113.000000
 11
-557.000000
 21
113.000000
  0
LINE
  8
0
 10
-549.000000
 20
165.000000
 11
-549.000000
 21
187.000000
  0
LINE
  8
0
 10
-549.000000
 20
165.000000
 11
-557.000000
 21
165.000000
  0
LINE
  8
0
 10
-551.051819
 20
118.000000
 11
-557.000000
 21
118.000000
  0
LINE
  8
0
 10
-551.051819
 20
124.000000
 11
-557.000000
 21
124.000000
  0
LINE
  8
0
 10
-549.000000
 20
135.000000
 11
-549.000000
 21
113.000000
  0
LINE
  8
0
 10
-549.000000
 20
135.000000
 11
-557.000000
 21
135.000000
  0
LINE
  8
0
 10
-525.000000
 20
115.000000
 11
231.000000
 21
115.000000
  0
LINE
  8
0
 10
-525.000000
 20
185.000000
 11
231.000000
 21
185.000000
  0
LINE
  8
0
  6
CENTER
 10
-397.000000
 20
189.999985
 11
-397.000000
 21
109.999985
  0
LINE
  8
0
  6
CENTER
 10
103.000000
 20
189.999969
 11
103.000000
 21
109.999969
  0
LINE
  8
0
 10
-297.000000
 20
163.999969
 11
-297.000000
 21
135.999969
  0
LINE
  8
0
 10
-497.000000
 20
163.999985
 11
-497.000000
 21
135.999985
  0
LINE
  8
0
 10
-497.000000
 20
163.999985
 11
-297.000000
 21
163.999985
  0
LINE
  8
0
 10
-497.000000
 20
159.000000
 11
-297.000000
 21
159.000000
  0
LINE
  8
0
 10
-497.000000
 20
140.999985
 11
-297.000000
 21
140.999985
  0
LINE
  8
0
 10
-497.000000
 20
135.999985
 11
-297.000000
 21
135.999985
  0
LINE
  8
0
 10
-491.000000
 20
159.000000
 11
-491.000000
 21
140.999985
  0
LINE
  8
0
 10
-303.000000
 20
158.999985
 11
-303.000000
 21
140.999969
  0
LINE
  8
0
  6
CENTER
 10
-477.000000
 20
176.999954
 11
-477.000000
 21
124.999985
  0
LINE
  8
0
 10
-472.000000
 20
135.999985
 11
-472.000000
 21
129.999985
  0
LINE
  8
0
 10
-482.000000
 20
135.999985
 11
-482.000000
 21
129.999985
  0
LINE
  8
0
 10
-482.000000
 20
129.999985
 11
-472.000000
 21
129.999985
  0
LINE
  8
0
 10
-482.000000
 20
168.999954
 11
-472.000000
 21
168.999954
  0
LINE
  8
0
 10
-477.000000
 20
168.999954
 11
-477.000000
 21
163.999985
  0
LINE
  8
0
 10
-482.000000
 20
168.999954
 11
-482.000000
 21
163.999985
  0
LINE
  8
0
 10
-472.000000
 20
168.999954
 11
-472.000000
 21
163.999985
  0
LINE
  8
0
  6
CENTER
 10
-457.000000
 20
156.000000
 11
-457.000000
 21
144.000000
  0
LINE
  8
0
 10
-502.000000
 20
161.000000
 11
-502.000000
 21
139.000000
  0
LINE
  8
0
 10
-292.000000
 20
160.999985
 11
-292.000000
 21
138.999985
  0
LINE
  8
0
 10
-497.000000
 20
134.000000
 11
-482.000000
 21
134.000000
  0
LINE
  8
0
 10
-497.000000
 20
166.000000
 11
-482.000000
 21
166.000000
  0
LINE
  8
0
  6
CENTER
 10
-437.000000
 20
171.000000
 11
-437.000000
 21
129.000000
  0
LINE
  8
0
 10
-472.000000
 20
134.000000
 11
-322.000000
 21
134.000000
  0
LINE
  8
0
 10
-472.000000
 20
166.000000
 11
-322.000000
 21
166.000000
  0
LINE
  8
0
  6
CENTER
 10
-357.000000
 20
170.999985
 11
-357.000000
 21
128.999985
  0
LINE
  8
0
  6
CENTER
 10
-317.000000
 20
176.999939
 11
-317.000000
 21
124.999969
  0
LINE
  8
0
 10
-322.000000
 20
135.999969
 11
-322.000000
 21
129.999969
  0
LINE
  8
0
 10
-312.000000
 20
135.999969
 11
-312.000000
 21
129.999969
  0
LINE
  8
0
 10
-312.000000
 20
129.999985
 11
-322.000000
 21
129.999985
  0
LINE
  8
0
 10
-312.000000
 20
168.999954
 11
-322.000000
 21
168.999954
  0
LINE
  8
0
 10
-317.000000
 20
168.999939
 11
-317.000000
 21
163.999969
  0
LINE
  8
0
 10
-312.000000
 20
168.999939
 11
-312.000000
 21
163.999969
  0
LINE
  8
0
 10
-322.000000
 20
168.999939
 11
-322.000000
 21
163.999969
  0
LINE
  8
0
  6
CENTER
 10
-337.000000
 20
155.999985
 11
-337.000000
 21
143.999985
  0
LINE
  8
0
 10
-392.000000
 20
163.999969
 11
-392.000000
 21
158.999985
  0
LINE
  8
0
 10
-402.000000
 20
163.999969
 11
-402.000000
 21
158.999985
  0
LINE
  8
0
 10
-402.000000
 20
140.999969
 11
-402.000000
 21
135.999969
  0
LINE
  8
0
 10
-392.000000
 20
140.999969
 11
-392.000000
 21
135.999969
  0
LINE
  8
0
 10
-507.000000
 20
158.000000
 11
-507.000000
 21
142.000000
  0
LINE
  8
0
 10
-505.000000
 20
160.000000
 11
-502.000000
 21
160.000000
  0
LINE
  8
0
 10
-505.000000
 20
140.000000
 11
-502.000000
 21
140.000000
  0
LINE
  8
0
 10
-525.000000
 20
142.000000
 11
-507.000000
 21
142.000000
  0
LINE
  8
0
 10
-525.000000
 20
158.000000
 11
-507.000000
 21
158.000000
  0
LINE
  8
0
 10
-287.000000
 20
157.999985
 11
-287.000000
 21
141.999985
  0
LINE
  8
0
 10
-289.000000
 20
160.000000
 11
-292.000000
 21
160.000000
  0
LINE
  8
0
 10
-289.000000
 20
140.000000
 11
-292.000000
 21
140.000000
  0
LINE
  8
0
 10
231.000000
 20
142.000000
 11
-287.000000
 21
142.000000
  0
LINE
  8
0
 10
231.000000
 20
158.000000
 11
-287.000000
 21
158.000000
  0
LINE
  8
0
 10
-312.000000
 20
166.000000
 11
-297.000000
 21
166.000000
  0
LINE
  8
0
 10
-312.000000
 20
134.000000
 11
-297.000000
 21
134.000000
  0
LINE
  8
0
 10
-473.750000
 20
171.499954
 11
-480.250000
 21
171.499954
  0
LINE
  8
0
 10
-472.500000
 20
170.249954
 11
-472.500000
 21
168.999954
  0
LINE
  8
0
 10
-481.500000
 20
170.249954
 11
-481.500000
 21
168.999954
  0
LINE
  8
0
 10
-321.500000
 20
170.249939
 11
-321.500000
 21
168.999939
  0
LINE
  8
0
 10
-313.750000
 20
171.499954
 11
-320.250000
 21
171.499954
  0
LINE
  8
0
 10
-312.500000
 20
170.249939
 11
-312.500000
 21
168.999939
  0
LINE
  8
0
 10
-550.000000
 20
132.749939
 11
-550.000000
 21
115.250038
  0
LINE
  8
0
 10
-551.051819
 20
130.928177
 11
-551.051819
 21
117.071808
  0
LINE
  8
0
 10
-548.999878
 20
132.749939
 11
-550.000000
 21
132.749939
  0
LINE
  8
0
 10
-548.999939
 20
115.250038
 11
-550.000000
 21
115.250038
  0
LINE
  8
0
 10
-550.000000
 20
115.250023
 11
-551.051758
 21
117.071800
  0
LINE
  8
0
 10
-549.999878
 20
132.749893
 11
-551.051697
 21
130.928131
  0
LINE
  8
0
  6
CENTER
 10
-544.000000
 20
124.000000
 11
-562.000000
 21
124.000000
  0
LINE
  8
0
 10
-551.051819
 20
170.000000
 11
-557.000000
 21
170.000000
  0
LINE
  8
0
 10
-551.051819
 20
182.000000
 11
-557.000000
 21
182.000000
  0
LINE
  8
0
 10
-551.051819
 20
176.000000
 11
-557.000000
 21
176.000000
  0
LINE
  8
0
 10
-550.000000
 20
167.250061
 11
-550.000000
 21
184.749969
  0
LINE
  8
0
 10
-551.051819
 20
169.071823
 11
-551.051819
 21
182.928192
  0
LINE
  8
0
 10
-548.999878
 20
167.250061
 11
-550.000000
 21
167.250061
  0
LINE
  8
0
 10
-548.999939
 20
184.749969
 11
-550.000000
 21
184.749969
  0
LINE
  8
0
 10
-549.999939
 20
184.749939
 11
-551.051697
 21
182.928162
  0
LINE
  8
0
 10
-549.999939
 20
167.250031
 11
-551.051697
 21
169.071777
  0
LINE
  8
0
  6
CENTER
 10
-544.000000
 20
176.000000
 11
-562.000000
 21
176.000000
  0
LINE
  8
0
 10
255.999908
 20
184.749908
 11
257.051666
 21
182.928131
  0
LINE
  8
0
 10
255.999939
 20
167.250061
 11
257.051697
 21
169.071823
  0
LINE
  8
0
 10
257.051758
 20
130.000000
 11
263.000000
 21
130.000000
  0
LINE
  8
0
  6
CENTER
 10
250.000000
 20
176.000000
 11
268.000000
 21
176.000000
  0
LINE
  8
0
 10
254.999939
 20
184.749969
 11
256.000000
 21
184.749969
  0
LINE
  8
0
 10
255.000000
 20
164.999954
 11
255.000000
 21
186.999954
  0
LINE
  8
0
 10
255.000000
 20
165.000000
 11
263.000000
 21
165.000000
  0
LINE
  8
0
 10
257.051758
 20
118.000000
 11
263.000000
 21
118.000000
  0
LINE
  8
0
 10
257.051758
 20
124.000000
 11
263.000000
 21
124.000000
  0
LINE
  8
0
 10
255.000000
 20
134.999954
 11
255.000000
 21
112.999954
  0
LINE
  8
0
 10
255.000000
 20
135.000000
 11
263.000000
 21
135.000000
  0
LINE
  8
0
 10
256.000000
 20
132.749893
 11
256.000000
 21
115.249992
  0
LINE
  8
0
 10
257.051758
 20
130.928131
 11
257.051758
 21
117.071762
  0
LINE
  8
0
 10
254.999878
 20
132.749939
 11
256.000000
 21
132.749939
  0
LINE
  8
0
 10
254.999939
 20
115.250038
 11
256.000000
 21
115.250038
  0
LINE
  8
0
 10
255.999954
 20
115.250015
 11
257.051697
 21
117.071785
  0
LINE
  8
0
 10
255.999893
 20
132.749832
 11
257.051636
 21
130.928055
  0
LINE
  8
0
  6
CENTER
 10
250.000000
 20
124.000000
 11
268.000000
 21
124.000000
  0
LINE
  8
0
 10
257.051758
 20
170.000000
 11
263.000000
 21
170.000000
  0
LINE
  8
0
 10
257.051758
 20
182.000000
 11
263.000000
 21
182.000000
  0
LINE
  8
0
 10
257.051758
 20
176.000000
 11
263.000000
 21
176.000000
  0
LINE
  8
0
 10
256.000000
 20
167.250015
 11
256.000000
 21
184.749908
  0
LINE
  8
0
 10
257.051758
 20
169.071777
 11
257.051758
 21
182.928146
  0
LINE
  8
0
 10
254.999878
 20
167.250061
 11
256.000000
 21
167.250061
  0
LINE
  8
0
  6
CENTER
 10
458.000000
 20
-200.000000
 11
542.000000
 21
-200.000000
  0
LINE
  8
0
  6
CENTER
 10
500.000000
 20
-126.000000
 11
500.000000
 21
-245.000000
  0
LINE
  8
0
 10
474.000092
 20
-163.000000
 11
526.000122
 21
-163.000000
  0
LINE
  8
0
 10
473.999908
 20
-237.000000
 11
486.999908
 21
-237.000000
  0
LINE
  8
0
 10
537.000000
 20
-174.000076
 11
537.000000
 21
-226.000076
  0
LINE
  8
0
 10
463.000000
 20
-173.999924
 11
463.000000
 21
-225.999924
  0
LINE
  8
0
  6
CENTER
 10
460.999939
 20
-226.000000
 11
486.999939
 21
-226.000000
  0
LINE
  8
0
  6
CENTER
 10
474.000000
 20
-212.999939
 11
474.000000
 21
-238.999939
  0
LINE
  8
0
 10
467.999939
 20
-229.464066
 11
473.999969
 21
-232.928177
  0
LINE
  8
0
 10
474.000000
 20
-232.928268
 11
480.000000
 21
-229.464172
  0
LINE
  8
0
 10
480.000000
 20
-229.464066
 11
480.000000
 21
-222.535858
  0
LINE
  8
0
 10
479.999969
 20
-222.535873
 11
473.999939
 21
-219.071762
  0
LINE
  8
0
 10
474.000122
 20
-219.072006
 11
468.000092
 21
-222.536118
  0
LINE
  8
0
 10
468.000000
 20
-222.535873
 11
468.000000
 21
-229.464096
  0
LINE
  8
0
  6
CENTER
 10
538.999939
 20
-226.000000
 11
512.999939
 21
-226.000000
  0
LINE
  8
0
  6
CENTER
 10
526.000000
 20
-213.000061
 11
526.000000
 21
-239.000061
  0
LINE
  8
0
 10
531.999817
 20
-229.464050
 11
525.999817
 21
-232.928146
  0
LINE
  8
0
 10
526.000061
 20
-232.928207
 11
520.000061
 21
-229.464096
  0
LINE
  8
0
 10
520.000000
 20
-229.464157
 11
520.000000
 21
-222.535950
  0
LINE
  8
0
 10
520.000122
 20
-222.536148
 11
526.000122
 21
-219.072037
  0
LINE
  8
0
 10
526.000122
 20
-219.071884
 11
532.000183
 21
-222.535995
  0
LINE
  8
0
 10
532.000000
 20
-222.535995
 11
532.000000
 21
-229.464218
  0
LINE
  8
0
  6
CENTER
 10
461.000061
 20
-174.000000
 11
487.000061
 21
-174.000000
  0
LINE
  8
0
  6
CENTER
 10
474.000000
 20
-186.999939
 11
474.000000
 21
-160.999939
  0
LINE
  8
0
 10
468.000061
 20
-170.535706
 11
474.000092
 21
-167.071609
  0
LINE
  8
0
 10
474.000061
 20
-167.071762
 11
480.000061
 21
-170.535873
  0
LINE
  8
0
 10
480.000000
 20
-170.535843
 11
480.000000
 21
-177.464050
  0
LINE
  8
0
 10
480.000183
 20
-177.464188
 11
474.000183
 21
-180.928299
  0
LINE
  8
0
 10
474.000092
 20
-180.928131
 11
468.000061
 21
-177.464005
  0
LINE
  8
0
 10
468.000000
 20
-177.464005
 11
468.000000
 21
-170.535782
  0
LINE
  8
0
  6
CENTER
 10
539.000061
 20
-174.000000
 11
513.000061
 21
-174.000000
  0
LINE
  8
0
  6
CENTER
 10
526.000000
 20
-187.000061
 11
526.000000
 21
-161.000061
  0
LINE
  8
0
 10
531.999939
 20
-170.535904
 11
525.999878
 21
-167.071808
  0
LINE
  8
0
 10
526.000061
 20
-167.071823
 11
520.000061
 21
-170.535889
  0
LINE
  8
0
 10
520.000000
 20
-170.535934
 11
520.000000
 21
-177.464142
  0
LINE
  8
0
 10
520.000122
 20
-177.464096
 11
526.000122
 21
-180.928207
  0
LINE
  8
0
 10
526.000244
 20
-180.928284
 11
532.000244
 21
-177.464188
  0
LINE
  8
0
 10
532.000000
 20
-177.464127
 11
532.000000
 21
-170.535904
  0
LINE
  8
0
  6
CENTER
 10
514.000000
 20
-188.500031
 11
514.000000
 21
-211.500031
  0
LINE
  8
0
 10
485.000000
 20
-162.999969
 11
485.000000
 21
-173.999969
  0
LINE
  8
0
 10
515.000000
 20
-163.000031
 11
515.000000
 21
-174.000031
  0
LINE
  8
0
 10
462.999969
 20
-215.000000
 11
473.999969
 21
-215.000000
  0
LINE
  8
0
 10
463.000031
 20
-185.000000
 11
474.000031
 21
-185.000000
  0
LINE
  8
0
 10
485.000000
 20
-225.999969
 11
485.000000
 21
-236.999969
  0
LINE
  8
0
 10
515.000000
 20
-226.000031
 11
515.000000
 21
-237.000031
  0
LINE
  8
0
 10
526.000000
 20
-185.000000
 11
537.000000
 21
-185.000000
  0
LINE
  8
0
 10
526.000000
 20
-215.000000
 11
537.000000
 21
-215.000000
  0
LINE
  8
0
 10
479.999908
 20
-240.000000
 11
495.749908
 21
-240.000000
  0
LINE
  8
0
 10
493.249908
 20
-238.000000
 11
495.749908
 21
-238.000000
  0
LINE
  8
0
 10
512.999878
 20
-237.000000
 11
525.999878
 21
-237.000000
  0
LINE
  8
0
 10
495.750000
 20
-237.999985
 11
495.750000
 21
-239.999985
  0
LINE
  8
0
 10
504.250000
 20
-238.000015
 11
504.250000
 21
-240.000015
  0
LINE
  8
0
 10
493.250000
 20
-232.699982
 11
493.250000
 21
-237.999985
  0
LINE
  8
0
 10
506.750000
 20
-232.700012
 11
506.750000
 21
-238.000015
  0
LINE
  8
0
 10
504.249908
 20
-240.000000
 11
519.999878
 21
-240.000000
  0
LINE
  8
0
 10
504.249908
 20
-238.000000
 11
506.749908
 21
-238.000000
  0
LINE
  8
0
 10
520.000000
 20
-237.000046
 11
520.000000
 21
-240.000046
  0
LINE
  8
0
 10
480.000000
 20
-236.999954
 11
480.000000
 21
-239.999954
  0
LINE
  8
0
 10
491.000153
 20
-131.000000
 11
509.000153
 21
-131.000000
  0
LINE
  8
0
 10
486.000122
 20
-135.000000
 11
514.000122
 21
-135.000000
  0
LINE
  8
0
  6
CENTER
 10
475.000122
 20
-143.000000
 11
527.000122
 21
-143.000000
  0
LINE
  8
0
 10
491.000000
 20
-130.999985
 11
491.000000
 21
-159.999985
  0
LINE
  8
0
 10
509.000000
 20
-131.000015
 11
509.000000
 21
-160.000015
  0
LINE
  8
0
 10
514.000000
 20
-135.000031
 11
514.000000
 21
-160.000031
  0
LINE
  8
0
 10
486.000000
 20
-134.999969
 11
486.000000
 21
-159.999969
  0
LINE
  8
0
 10
486.500092
 20
-160.000000
 11
513.500122
 21
-160.000000
  0
LINE
  8
0
 10
480.000000
 20
-137.999954
 11
480.000000
 21
-147.999954
  0
LINE
  8
0
 10
480.000122
 20
-148.000000
 11
486.000122
 21
-148.000000
  0
LINE
  8
0
 10
480.000122
 20
-138.000000
 11
486.000122
 21
-138.000000
  0
LINE
  8
0
 10
519.000000
 20
-137.226547
 11
519.000000
 21
-148.773575
  0
LINE
  8
0
 10
519.000122
 20
-137.226501
 11
514.000122
 21
-137.226501
  0
LINE
  8
0
 10
519.000122
 20
-140.113251
 11
514.000122
 21
-140.113251
  0
LINE
  8
0
 10
519.000122
 20
-145.886749
 11
514.000122
 21
-145.886749
  0
LINE
  8
0
 10
519.000122
 20
-148.773529
 11
514.000122
 21
-148.773529
  0
LINE
  8
0
  6
CENTER
 10
486.000000
 20
-188.499969
 11
486.000000
 21
-211.499969
  0
LINE
  8
0
 10
493.249939
 20
-232.699997
 11
506.749939
 21
-232.699997
  0
LINE
  8
0
 10
521.500000
 20
-139.750046
 11
521.500000
 21
-146.250046
  0
LINE
  8
0
 10
519.000122
 20
-147.500000
 11
520.250122
 21
-147.500000
  0
LINE
  8
0
 10
519.000122
 20
-138.500000
 11
520.250122
 21
-138.500000
  0
LINE
  8
0
 10
-455.499878
 20
152.598022
 11
-405.038361
 21
239.999924
  0
LINE
  8
0
 10
-455.499878
 20
152.598022
 11
-453.558716
 21
159.842468
  0
LINE
  8
0
 10
-455.499878
 20
152.598022
 11
-450.196594
 21
157.901321
  0
LINE
  8
0
 10
-405.038361
 20
239.999924
 11
-306.250000
 21
239.999924
  0
LINE
  8
0
 10
245.834503
 20
-192.785126
 11
189.378250
 21
-94.999985
  0
LINE
  8
0
 10
245.834503
 20
-192.785126
 11
243.893356
 21
-185.540680
  0
LINE
  8
0
 10
245.834488
 20
-192.785126
 11
240.531189
 21
-187.481812
  0
LINE
  8
0
 10
85.530586
 20
-94.999985
 11
189.378250
 21
-94.999985
  0
LINE
  8
0
 10
-397.000000
 20
-245.000000
 11
-397.000000
 21
-325.000000
  0
LINE
  8
0
 10
103.000000
 20
-245.000015
 11
103.000000
 21
-325.000000
  0
LINE
  8
0
 10
-397.000000
 20
-320.000000
 11
103.000000
 21
-320.000000
  0
LINE
  8
0
 10
-397.000000
 20
-320.000000
 11
-389.755554
 21
-318.058838
  0
LINE
  8
0
 10
95.755547
 20
-321.941132
 11
102.999992
 21
-319.999969
  0
LINE
  8
0
 10
95.755547
 20
-318.058838
 11
102.999992
 21
-319.999969
  0
LINE
  8
0
 10
-396.999969
 20
-320.000000
 11
-389.755524
 21
-321.941132
  0
ARC
  8
0
 62
     5
 10
655.008484
 20
-465.668823
 40
6.635708
 50
291.688293
 51
0.000000
  0
ARC
  8
0
 62
     5
 10
652.796448
 20
-464.168060
 40
2.211920
 50
291.688660
 51
0.000000
  0
ARC
  8
0
 62
     5
 10
546.072388
 20
-470.092651
 40
4.423828
 50
0.000000
 51
90.000000
  0
ARC
  8
0
 62
     5
 10
582.568787
 20
-493.870697
 40
4.423798
 50
270.000000
 51
0.000000
  0
ARC
  8
0
 62
     5
 10
580.356750
 20
-472.304474
 40
6.635681
 50
0.000000
 51
90.000000
  0
ARC
  8
0
 62
     5
 10
620.723999
 20
-470.092651
 40
4.423828
 50
0.000000
 51
90.000000
  0
ARC
  8
0
 62
     5
 10
620.723999
 20
-473.626892
 40
4.423808
 50
294.999786
 51
0.000000
  0
CIRCLE
  8
0
 10
-317.000000
 20
-143.000000
 40
5.000000
  0
CIRCLE
  8
0
 10
-357.000000
 20
-143.000000
 40
3.500000
  0
ARC
  8
0
 10
-397.000000
 20
-141.000000
 40
5.999997
 50
33.557270
 51
146.442734
  0
CIRCLE
  8
0
 10
-437.000000
 20
-143.000000
 40
3.500000
  0
CIRCLE
  8
0
 10
239.000000
 20
-186.000015
 40
5.000000
  0
CIRCLE
  8
0
 10
-533.000000
 20
-186.000000
 40
5.000000
  0
CIRCLE
  8
0
 10
-544.000000
 20
-200.000000
 40
8.331000
  0
CIRCLE
  8
0
 10
-544.000000
 20
-200.000000
 40
7.475000
  0
ARC
  8
0
 10
242.848877
 20
-426.648743
 40
200.000000
 50
93.396461
 51
111.053810
  0
ARC
  8
0
 10
-294.500000
 20
-162.500000
 40
2.500000
 50
270.000000
 51
90.000000
  0
ARC
  8
0
 10
-499.500000
 20
-162.500000
 40
2.500000
 50
90.000000
 51
270.000000
  0
ARC
  8
0
 10
-397.000000
 20
-144.000000
 40
5.000000
 50
180.000000
 51
0.000000
  0
CIRCLE
  8
0
 10
-477.000000
 20
-143.000000
 40
5.000000
  0
ARC
  8
0
 10
-397.000000
 20
-141.000000
 40
8.000001
 50
48.590370
 51
131.409622
  0
ARC
  8
0
 10
-397.000000
 20
-141.000000
 40
6.000010
 50
213.748871
 51
326.251129
  0
CIRCLE
  8
0
 10
250.000000
 20
-200.000015
 40
7.475000
  0
CIRCLE
  8
0
 10
250.000000
 20
-200.000015
 40
8.331000
  0
ARC
  8
0
 10
-505.000000
 20
142.000000
 40
2.000000
 50
180.000000
 51
270.000000
  0
ARC
  8
0
 10
-289.000000
 20
141.999985
 40
2.000000
 50
270.000000
 51
0.000000
  0
ARC
  8
0
 10
-505.000000
 20
158.000000
 40
2.000000
 50
90.000000
 51
180.000000
  0
ARC
  8
0
 10
-289.000000
 20
157.999985
 40
2.000000
 50
0.000000
 51
90.000000
  0
CIRCLE
  8
0
 10
-457.000000
 20
150.000000
 40
3.000000
  0
CIRCLE
  8
0
 10
-457.000000
 20
150.000000
 40
2.098500
  0
ARC
  8
0
 10
-497.000000
 20
161.000000
 40
5.000000
 50
90.000000
 51
180.000000
  0
ARC
  8
0
 10
-497.000000
 20
139.000000
 40
5.000000
 50
180.000000
 51
270.000000
  0
ARC
  8
0
 10
-297.000000
 20
160.999985
 40
5.000000
 50
0.000000
 51
90.000000
  0
ARC
  8
0
 10
-297.000000
 20
138.999985
 40
5.000000
 50
270.000000
 51
0.000000
  0
CIRCLE
  8
0
 10
-337.000000
 20
149.999985
 40
3.000000
  0
CIRCLE
  8
0
 10
-337.000000
 20
149.999985
 40
2.098500
  0
ARC
  8
0
 10
-480.250000
 20
170.249954
 40
1.250000
 50
90.000000
 51
180.000000
  0
ARC
  8
0
 10
-473.750000
 20
170.249954
 40
1.250000
 50
0.000000
 51
90.000000
  0
ARC
  8
0
 10
-320.250000
 20
170.249939
 40
1.250000
 50
90.000000
 51
180.000000
  0
ARC
  8
0
 10
-313.750000
 20
170.249939
 40
1.250000
 50
0.000000
 51
90.000000
  0
CIRCLE
  8
0
 10
486.000000
 20
-199.999969
 40
8.331000
  0
CIRCLE
  8
0
 10
486.000000
 20
-199.999969
 40
7.475000
  0
CIRCLE
  8
0
 10
473.999939
 20
-225.999939
 40
4.000000
  0
CIRCLE
  8
0
 10
473.999939
 20
-225.999939
 40
3.323500
  0
CIRCLE
  8
0
 10
473.999939
 20
-225.999939
 40
8.750000
  0
CIRCLE
  8
0
 10
525.999939
 20
-226.000061
 40
8.750000
  0
CIRCLE
  8
0
 10
525.999939
 20
-226.000061
 40
4.000000
  0
CIRCLE
  8
0
 10
525.999939
 20
-226.000061
 40
3.323500
  0
CIRCLE
  8
0
 10
526.000061
 20
-174.000061
 40
3.323500
  0
CIRCLE
  8
0
 10
474.000061
 20
-173.999939
 40
4.000000
  0
CIRCLE
  8
0
 10
474.000061
 20
-173.999939
 40
3.323500
  0
CIRCLE
  8
0
 10
474.000061
 20
-173.999939
 40
8.750000
  0
CIRCLE
  8
0
 10
526.000061
 20
-174.000061
 40
8.750000
  0
CIRCLE
  8
0
 10
526.000061
 20
-174.000061
 40
4.000000
  0
CIRCLE
  8
0
 10
514.000000
 20
-200.000031
 40
7.475000
  0
CIRCLE
  8
0
 10
514.000000
 20
-200.000031
 40
8.331000
  0
ARC
  8
0
 10
473.999939
 20
-225.999939
 40
11.000000
 50
0.000000
 51
90.000000
  0
ARC
  8
0
 10
473.999939
 20
-225.999939
 40
11.000000
 50
180.000000
 51
270.000000
  0
ARC
  8
0
 10
474.000061
 20
-173.999939
 40
11.000000
 50
90.000000
 51
180.000000
  0
ARC
  8
0
 10
474.000061
 20
-173.999939
 40
11.000000
 50
270.000000
 51
0.000000
  0
ARC
  8
0
 10
526.000061
 20
-174.000061
 40
11.000000
 50
0.000000
 51
90.000000
  0
ARC
  8
0
 10
526.000061
 20
-174.000061
 40
11.000000
 50
180.000000
 51
270.000000
  0
ARC
  8
0
 10
525.999939
 20
-226.000061
 40
11.000000
 50
270.000000
 51
0.000000
  0
ARC
  8
0
 10
525.999939
 20
-226.000061
 40
11.000000
 50
90.000000
 51
180.000000
  0
ARC
  8
0
 10
499.999908
 20
-243.562500
 40
14.562528
 50
26.784941
 51
153.215012
  0
ARC
  8
0
 10
520.250122
 20
-139.750046
 40
1.250000
 50
0.000000
 51
90.000000
  0
ARC
  8
0
 10
520.250122
 20
-146.250046
 40
1.250000
 50
270.000000
 51
0.000000
  0
ARC
  8
0
 10
513.500061
 20
-162.500031
 40
2.499974
 50
348.462921
 51
90.000000
  0
ARC
  8
0
 10
486.500092
 20
-162.499969
 40
2.500000
 50
90.000000
 51
191.536942
  0
TEXT
  8
0
 10
452.676331
 20
466.216309
 40
17.000000
  1
DATE : MAY ,1991
 50
0.000000
 41
1.052631
 51
0.000000
  7
STANDARD
  0
TEXT
  8
0
 10
-692.223755
 20
463.516205
 40
20.000000
  1
RODLESS CYLINDER
 50
0.000000
 41
1.052632
 51
0.000000
  7
STANDARD
  0
TEXT
  8
0
 10
-684.357117
 20
364.914032
 40
20.000000
  1
MODEL : ORCA 50xST(500)
 50
0.000000
 41
1.052632
 51
0.000000
  7
STANDARD
  0
TEXT
  8
0
 10
-399.788391
 20
238.399933
 40
14.000000
  1
2-M6x1
 50
0.000000
 41
1.052632
 51
0.000000
  7
STANDARD
  0
TEXT
  8
0
 10
86.628250
 20
-96.599991
 40
14.000000
  1
6-Rc3/8
 50
0.000000
 41
1.052632
 51
0.000000
  7
STANDARD
  0
TEXT
  8
0
 10
-190.750000
 20
-317.600006
 40
14.000000
  1
STROKE
 50
0.000000
 41
1.052632
 51
0.000000
  7
STANDARD
  0
ENDSEC
  0
EOF
