  0
SECTION
  2
HEADER
  0
ENDSEC
  0
SECTION
  2
TABLES
  0
TABLE
  2
LTYPE
 70
     4
  0
LTYPE
  2
CONTINUOUS
 70
    64
  3
Solid line
 72
    65
 73
     0
 40
0.000000
  0
LTYPE
  2
DASHED
 70
    64
  3
__ __ __ __ __ __ __ __ __ __ __ __ __ __ __
 72
    65
 73
     2
 40
3.500000
 49
2.000000
 49
-1.500000
  0
LTYPE
  2
CENTER
 70
    64
  3
____ _ ____ _ ____ _ ____ _ ____ _ ____ _ ____
 72
    65
 73
     4
 40
17.500000
 49
13.000000
 49
-1.500000
 49
1.500000
 49
-1.500000
  0
LTYPE
  2
PHANTOM
 70
    64
  3
_____ _ _ _____ _ _ _____ _ _ _____ _ _ ____  
 72
    65
 73
     6
 40
15.500000
 49
8.000000
 49
-1.500000
 49
1.500000
 49
-1.500000
 49
1.500000
 49
-1.500000
  0
LTYPE
  2
DASHED1
 70
    64
  3
__ __ __ __ __ __ __ __ __ __ __ __ __ __ __
 72
    65
 73
     2
 40
1.500000
 49
1.000000
 49
-0.500000
  0
LTYPE
  2
DASHED2
 70
    64
  3
__ __ __ __ __ __ __ __ __ __ __ __ __ __ __
 72
    65
 73
     2
 40
3.500000
 49
2.500000
 49
-1.000000
  0
LTYPE
  2
DASHED3
 70
    64
  3
__ __ __ __ __ __ __ __ __ __ __ __ __ __ __
 72
    65
 73
     2
 40
6.000000
 49
4.000000
 49
-2.000000
  0
LTYPE
  2
DASHED4
 70
    64
  3
__ __ __ __ __ __ __ __ __ __ __ __ __ __ __
 72
    65
 73
     2
 40
12.000000
 49
10.000000
 49
-2.000000
  0
LTYPE
  2
DASHED5
 70
    64
  3
__ __ __ __ __ __ __ __ __ __ __ __ __ __ __
 72
    65
 73
     2
 40
17.000000
 49
15.000000
 49
-2.000000
  0
LTYPE
  2
DASHED6
 70
    64
  3
__ __ __ __ __ __ __ __ __ __ __ __ __ __ __
 72
    65
 73
     2
 40
29.000000
 49
27.000000
 49
-2.000000
  0
LTYPE
  2
PHANTOM1
 70
    64
  3
_____ _ _ _____ _ _ _____ _ _ _____ _ _ ____  
 72
    65
 73
     6
 40
31.000000
 49
25.000000
 49
-1.500000
 49
1.000000
 49
-1.000000
 49
1.000000
 49
-1.500000
  0
LTYPE
  2
PHANTOM2
 70
    64
  3
_____ _ _ _____ _ _ _____ _ _ _____ _ _ ____  
 72
    65
 73
     6
 40
36.000000
 49
27.000000
 49
-1.500000
 49
2.500000
 49
-1.000000
 49
2.500000
 49
-1.500000
  0
LTYPE
  2
PHANTOM3
 70
    64
  3
_____ _ _ _____ _ _ _____ _ _ _____ _ _ ____  
 72
    65
 73
     6
 40
78.000000
 49
64.000000
 49
-2.000000
 49
4.000000
 49
-2.000000
 49
4.000000
 49
-2.000000
  0
LTYPE
  2
CENTER1
 70
    64
  3
____ _ ____ _ ____ _ ____ _ ____ _ ____ _ ____
 72
    65
 73
     4
 40
19.000000
 49
14.000000
 49
-1.000000
 49
3.000000
 49
-1.000000
  0
LTYPE
  2
CENTER2
 70
    64
  3
____ _ ____ _ ____ _ ____ _ ____ _ ____ _ ____
 72
    65
 73
     4
 40
28.500000
 49
25.000000
 49
-1.000000
 49
1.500000
 49
-1.000000
  0
LTYPE
  2
CENTER3
 70
    64
  3
____ _ ____ _ ____ _ ____ _ ____ _ ____ _ ____
 72
    65
 73
     4
 40
31.500000
 49
27.000000
 49
-1.000000
 49
2.500000
 49
-1.000000
  0
LTYPE
  2
CENTER4
 70
    64
  3
____ _ ____ _ ____ _ ____ _ ____ _ ____ _ ____
 72
    65
 73
     4
 40
50.000000
 49
45.000000
 49
-1.000000
 49
3.000000
 49
-1.000000
  0
LTYPE
  2
CENTER5
 70
    64
  3
____ _ ____ _ ____ _ ____ _ ____ _ ____ _ ____
 72
    65
 73
     4
 40
100.000000
 49
92.000000
 49
-2.000000
 49
4.000000
 49
-2.000000
  0
LTYPE
  2
SBK1
 70
    64
  3
______ _ _ _ ______ _ _ _ ______ _ _ _ _____  
 72
    65
 73
     8
 40
60.500000
 49
45.000000
 49
-2.000000
 49
2.500000
 49
-2.000000
 49
2.500000
 49
-2.000000
 49
2.500000
 49
-2.000000
  0
LTYPE
  2
SBK2
 70
    64
  3
______ _ _ _ ______ _ _ _ ______ _ _ _ _____  
 72
    65
 73
     8
 40
84.000000
 49
64.000000
 49
-2.000000
 49
4.000000
 49
-2.000000
 49
4.000000
 49
-2.000000
 49
4.000000
 49
-2.000000
  0
LTYPE
  2
STCH
 70
    64
  3
__ __ __ __ __ __ __ __ __ __ __ __ __ __ __
 72
    65
 73
     2
 40
3.000000
 49
1.000000
 49
-2.000000
  0
LTYPE
  2
MTCH
 70
    64
  3
_____ _ _ _____ _ _ _____ _ _ _____ _ _ ____  
 72
    65
 73
     6
 40
80.000000
 49
66.000000
 49
-2.000000
 49
4.000000
 49
-2.000000
 49
4.000000
 49
-2.000000
  0
ENDTAB
  0
TABLE
  2
LAYER
 70
     1
  0
LAYER
  2
0
 70
     0
 62
     7
  6
CONTINUOUS
  0
ENDTAB
  0
TABLE
  2
STYLE
 70
     1
  0
STYLE
  2
STANDARD
 70
     0
 40
0.000000
 41
1.000000
 50
0.000000
 71
     0
 42
0.200000
  3
txt
  4
BIGFONT
  0
ENDTAB
  0
TABLE
  2
VIEW
 70
     0
  0
ENDTAB
  0
ENDSEC
  0
SECTION
  2
BLOCKS
  0
ENDSEC
  0
SECTION
  2
ENTITIES
  0
POINT
  8
0
 10
-521.747192
 20
104.558464
  0
POINT
  8
0
 10
-521.747192
 20
289.117035
  0
POINT
  8
0
 10
-220.873749
 20
104.558578
  0
POINT
  8
0
 10
-491.747192
 20
104.558464
  0
POINT
  8
0
 10
-491.747223
 20
289.117035
  0
POINT
  8
0
 10
-212.373749
 20
104.558578
  0
POINT
  8
0
 10
-519.126526
 20
-140.882965
  0
POINT
  8
0
 10
-519.126526
 20
-395.441589
  0
POINT
  8
0
 10
-178.253220
 20
-395.441223
  0
POINT
  8
0
 10
-397.126526
 20
-395.441589
  0
POINT
  8
0
 10
-397.126495
 20
-140.882965
  0
POINT
  8
0
 10
-134.253220
 20
-395.441223
  0
POINT
  8
0
 10
220.873505
 20
-184.558472
  0
POINT
  8
0
 10
220.873611
 20
150.000015
  0
POINT
  8
0
 10
591.747131
 20
-184.558472
  0
POINT
  8
0
 10
375.873505
 20
-184.558472
  0
POINT
  8
0
 10
375.873596
 20
150.000015
  0
POINT
  8
0
 10
647.747131
 20
-184.558472
  0
LINE
  8
0
 10
436.658356
 20
-451.912964
 11
741.747192
 21
-451.912964
  0
LINE
  8
0
 10
-436.658356
 20
451.912811
 11
-436.658356
 21
509.117035
  0
LINE
  8
0
 10
-741.747192
 20
451.912811
 11
-436.658356
 21
451.912811
  0
LINE
  8
0
 10
-741.747192
 20
509.117035
 11
741.747192
 21
509.117035
  0
LINE
  8
0
 10
-741.747192
 20
-509.117035
 11
741.747192
 21
-509.117035
  0
LINE
  8
0
 10
741.747192
 20
509.117035
 11
741.747192
 21
-509.117035
  0
LINE
  8
0
 10
-741.747192
 20
-509.117035
 11
-741.747192
 21
509.117035
  0
LINE
  8
0
 10
436.658356
 20
-451.912964
 11
436.658356
 21
-509.117035
  0
LINE
  8
0
 10
436.658356
 20
509.117035
 11
436.658356
 21
451.912811
  0
LINE
  8
0
 10
436.658356
 20
451.912811
 11
741.747192
 21
451.912811
  0
LINE
  8
0
 10
516.763306
 20
-472.303223
 11
541.647156
 21
-472.303223
  0
LINE
  8
0
 10
516.763306
 20
-498.292999
 11
550.494751
 21
-498.292999
  0
LINE
  8
0
 10
516.763306
 20
-491.657379
 11
541.647156
 21
-491.657379
  0
LINE
  8
0
 10
516.763306
 20
-465.667511
 11
546.070862
 21
-465.667511
  0
LINE
  8
0
 10
541.647156
 20
-472.303223
 11
541.647156
 21
-491.657379
  0
LINE
  8
0
 10
550.494751
 20
-470.091400
 11
550.494751
 21
-498.292999
  0
LINE
  8
0
 10
516.763306
 20
-491.657379
 11
516.763306
 21
-498.292999
  0
LINE
  8
0
 10
586.990845
 20
-472.303223
 11
586.990845
 21
-493.869354
  0
LINE
  8
0
 10
555.471375
 20
-465.667511
 11
555.471375
 21
-472.303223
  0
LINE
  8
0
 10
587.875732
 20
-465.169983
 11
591.027710
 21
-465.169983
  0
LINE
  8
0
 10
587.875732
 20
-460.746094
 11
591.027710
 21
-460.746094
  0
LINE
  8
0
 10
591.027710
 20
-460.746094
 11
591.027710
 21
-465.169983
  0
LINE
  8
0
 10
587.875732
 20
-460.746094
 11
587.875732
 21
-465.169983
  0
LINE
  8
0
 10
586.216614
 20
-460.746094
 11
586.216614
 21
-465.169983
  0
LINE
  8
0
 10
565.532166
 20
-460.746094
 11
572.401855
 21
-460.746094
  0
LINE
  8
0
 10
571.082458
 20
-465.666931
 11
572.401123
 21
-460.745453
  0
LINE
  8
0
 10
564.213440
 20
-465.667480
 11
565.532104
 21
-460.746002
  0
LINE
  8
0
 10
571.083191
 20
-465.667511
 11
580.355164
 21
-465.667511
  0
LINE
  8
0
 10
569.305176
 20
-472.303223
 11
578.143372
 21
-472.303223
  0
LINE
  8
0
 10
573.285767
 20
-498.292999
 11
582.567200
 21
-498.292999
  0
LINE
  8
0
 10
571.507446
 20
-491.657257
 11
573.285522
 21
-498.292725
  0
LINE
  8
0
 10
571.507568
 20
-491.657379
 11
578.143372
 21
-491.657379
  0
LINE
  8
0
 10
562.341553
 20
-498.293396
 11
569.305420
 21
-472.303528
  0
LINE
  8
0
 10
555.471375
 20
-472.303223
 11
562.435425
 21
-472.303223
  0
LINE
  8
0
 10
555.471130
 20
-498.292755
 11
562.435242
 21
-472.302887
  0
LINE
  8
0
 10
555.471375
 20
-498.292999
 11
562.341248
 21
-498.292999
  0
LINE
  8
0
 10
555.471375
 20
-465.667511
 11
564.213440
 21
-465.667511
  0
LINE
  8
0
 10
578.143372
 20
-472.303223
 11
578.143372
 21
-491.657379
  0
LINE
  8
0
 10
583.064636
 20
-460.746094
 11
586.216614
 21
-460.746094
  0
LINE
  8
0
 10
583.064636
 20
-465.169983
 11
586.216614
 21
-465.169983
  0
LINE
  8
0
 10
583.064636
 20
-460.746094
 11
583.064636
 21
-465.169983
  0
LINE
  8
0
 10
603.027161
 20
-460.746094
 11
611.874634
 21
-460.746094
  0
LINE
  8
0
 10
616.684692
 20
-480.390106
 11
622.592529
 21
-477.635315
  0
LINE
  8
0
 10
611.874634
 20
-485.468903
 11
611.874634
 21
-498.292999
  0
LINE
  8
0
 10
603.027161
 20
-486.758148
 11
603.027161
 21
-498.292999
  0
LINE
  8
0
 10
611.874634
 20
-465.667511
 11
620.722290
 21
-465.667511
  0
LINE
  8
0
 10
611.874634
 20
-460.746094
 11
611.874634
 21
-465.667511
  0
LINE
  8
0
 10
603.027161
 20
-460.746094
 11
603.027161
 21
-465.667511
  0
LINE
  8
0
 10
625.146118
 20
-470.091400
 11
625.146118
 21
-473.625641
  0
LINE
  8
0
 10
616.684753
 20
-480.389984
 11
625.146667
 21
-484.335999
  0
LINE
  8
0
 10
611.874634
 20
-485.468781
 11
625.146179
 21
-491.657349
  0
LINE
  8
0
 10
592.520630
 20
-484.335693
 11
592.520630
 21
-491.657379
  0
LINE
  8
0
 10
592.521545
 20
-484.336395
 11
618.325195
 21
-472.303925
  0
LINE
  8
0
 10
592.520630
 20
-491.657349
 11
603.027344
 21
-486.757965
  0
LINE
  8
0
 10
625.146118
 20
-484.335693
 11
625.146118
 21
-491.657379
  0
LINE
  8
0
 10
592.520630
 20
-465.667511
 11
592.520630
 21
-472.303223
  0
LINE
  8
0
 10
603.027161
 20
-498.292999
 11
611.874634
 21
-498.292999
  0
LINE
  8
0
 10
592.520630
 20
-472.303223
 11
618.324219
 21
-472.303223
  0
LINE
  8
0
 10
592.520630
 20
-465.667511
 11
603.027161
 21
-465.667511
  0
LINE
  8
0
 10
655.007935
 20
-472.809448
 11
657.460022
 21
-471.834076
  0
LINE
  8
0
 10
655.006836
 20
-472.808868
 11
655.006836
 21
-498.292999
  0
LINE
  8
0
 10
646.159119
 20
-498.292999
 11
655.006836
 21
-498.292999
  0
LINE
  8
0
 10
627.910522
 20
-483.584991
 11
646.158691
 21
-476.327423
  0
LINE
  8
0
 10
627.911011
 20
-476.443848
 11
653.612183
 21
-466.222107
  0
LINE
  8
0
 10
646.159119
 20
-476.327606
 11
646.159119
 21
-498.292999
  0
LINE
  8
0
 10
655.006836
 20
-462.736908
 11
655.006836
 21
-464.166809
  0
LINE
  8
0
 10
661.642273
 20
-462.736908
 11
661.642273
 21
-465.667572
  0
LINE
  8
0
 10
627.911011
 20
-476.443878
 11
627.911011
 21
-483.585083
  0
LINE
  8
0
 10
655.006836
 20
-462.736908
 11
661.642273
 21
-462.736908
  0
LINE
  8
0
 10
516.763306
 20
-465.667511
 11
516.763306
 21
-472.303223
  0
LINE
  8
0
 10
0.000000
 20
-509.117035
 11
0.000000
 21
509.117035
  0
LINE
  8
0
 10
-741.747192
 20
0.000000
 11
0.000000
 21
0.000000
  0
LINE
  8
0
  6
PHANTOM
 10
-549.469604
 20
113.058472
 11
-489.469635
 21
113.058472
  0
LINE
  8
0
  6
PHANTOM
 10
-554.024780
 20
96.058472
 11
-494.024750
 21
96.058472
  0
LINE
  8
0
  6
PHANTOM
 10
-549.158813
 20
114.217690
 11
-554.335205
 21
94.899170
  0
LINE
  8
0
  6
PHANTOM
 10
-494.335419
 20
94.899246
 11
-489.159027
 21
114.217758
  0
LINE
  8
0
  6
PHANTOM
 10
-549.469604
 20
297.617004
 11
-531.747192
 21
297.617004
  0
LINE
  8
0
  6
PHANTOM
 10
-554.024780
 20
280.617004
 11
-531.747192
 21
280.617004
  0
LINE
  8
0
  6
PHANTOM
 10
-550.541382
 20
293.617004
 11
-546.747192
 21
293.617004
  0
LINE
  8
0
  6
PHANTOM
 10
-552.953003
 20
284.617004
 11
-546.747192
 21
284.617004
  0
LINE
  8
0
  6
PHANTOM
 10
-496.747192
 20
284.617004
 11
-492.952972
 21
284.617004
  0
LINE
  8
0
  6
PHANTOM
 10
-496.747192
 20
293.617004
 11
-490.541412
 21
293.617004
  0
LINE
  8
0
  6
PHANTOM
 10
-511.747192
 20
297.617004
 11
-489.469635
 21
297.617004
  0
LINE
  8
0
  6
PHANTOM
 10
-511.747192
 20
280.617004
 11
-494.024750
 21
280.617004
  0
LINE
  8
0
  6
PHANTOM
 10
-549.158752
 20
298.776184
 11
-554.335144
 21
279.457672
  0
LINE
  8
0
  6
PHANTOM
 10
-494.335388
 20
279.457764
 11
-489.158997
 21
298.776306
  0
LINE
  8
0
  6
PHANTOM
 10
-228.373596
 20
113.058472
 11
-213.373596
 21
113.058472
  0
LINE
  8
0
  6
PHANTOM
 10
-228.373596
 20
96.058472
 11
-213.373596
 21
96.058472
  0
LINE
  8
0
  6
PHANTOM
 10
-212.373596
 20
112.058472
 11
-212.373596
 21
97.058472
  0
LINE
  8
0
  6
PHANTOM
 10
-229.373596
 20
112.058472
 11
-229.373596
 21
97.058472
  0
LINE
  8
0
  6
PHANTOM
 10
-641.126404
 20
-351.441498
 11
-631.126404
 21
-351.441498
  0
LINE
  8
0
  6
PHANTOM
 10
-641.126404
 20
-439.441498
 11
-397.126404
 21
-439.441498
  0
LINE
  8
0
  6
PHANTOM
 10
-407.126404
 20
-351.441498
 11
-397.126404
 21
-351.441498
  0
LINE
  8
0
  6
PHANTOM
 10
-641.126404
 20
-184.882965
 11
-575.126404
 21
-184.882965
  0
LINE
  8
0
  6
PHANTOM
 10
-641.126404
 20
-96.882965
 11
-575.126343
 21
-96.882965
  0
LINE
  8
0
  6
PHANTOM
 10
-636.907898
 20
-153.997833
 11
-631.126404
 21
-153.997833
  0
LINE
  8
0
  6
PHANTOM
 10
-645.344910
 20
-127.768097
 11
-631.126404
 21
-127.768097
  0
LINE
  8
0
  6
PHANTOM
 10
-407.126404
 20
-127.768097
 11
-401.344910
 21
-127.768097
  0
LINE
  8
0
  6
PHANTOM
 10
-407.126404
 20
-153.997833
 11
-392.907898
 21
-153.997833
  0
LINE
  8
0
  6
PHANTOM
 10
-463.126404
 20
-96.882965
 11
-397.126404
 21
-96.882965
  0
LINE
  8
0
  6
PHANTOM
 10
-463.126404
 20
-184.882965
 11
-397.126404
 21
-184.882965
  0
LINE
  8
0
  6
PHANTOM
 10
65.873611
 20
-128.558533
 11
78.873596
 21
-128.558533
  0
LINE
  8
0
  6
PHANTOM
 10
65.873581
 20
-240.558533
 11
375.873596
 21
-240.558533
  0
LINE
  8
0
  6
PHANTOM
 10
362.873596
 20
-128.558533
 11
375.873596
 21
-128.558533
  0
LINE
  8
0
  6
PHANTOM
 10
65.873581
 20
94.000000
 11
375.873596
 21
94.000000
  0
LINE
  8
0
  6
PHANTOM
 10
65.873611
 20
206.000000
 11
375.873596
 21
206.000000
  0
LINE
  8
0
  6
PHANTOM
 10
73.866638
 20
135.167603
 11
78.873596
 21
135.167603
  0
LINE
  8
0
  6
PHANTOM
 10
57.880554
 20
164.832397
 11
78.873596
 21
164.832397
  0
LINE
  8
0
  6
PHANTOM
 10
362.873596
 20
135.167603
 11
383.866638
 21
135.167603
  0
LINE
  8
0
  6
PHANTOM
 10
362.873596
 20
164.832397
 11
367.880554
 21
164.832397
  0
LINE
  8
0
  6
CENTER
 10
-559.007813
 20
104.558502
 11
-481.993042
 21
104.558502
  0
LINE
  8
0
  6
CENTER
 10
-521.747192
 20
134.782684
 11
-521.747192
 21
92.073059
  0
LINE
  8
0
  6
CENTER
 10
-220.873627
 20
134.753174
 11
-220.873627
 21
91.381744
  0
LINE
  8
0
  6
CENTER
 10
-233.643585
 20
104.558472
 11
-207.951324
 21
104.558472
  0
LINE
  8
0
  6
CENTER
 10
-519.126343
 20
-285.441498
 11
-519.126343
 21
-449.441498
  0
LINE
  8
0
  6
CENTER
 10
-651.126465
 20
-395.441498
 11
-387.126343
 21
-395.441498
  0
LINE
  8
0
  6
CENTER
 10
-519.126404
 20
-85.882965
 11
-519.126404
 21
-195.882965
  0
LINE
  8
0
  6
CENTER
 10
-651.126465
 20
-140.882965
 11
-387.126343
 21
-140.882965
  0
LINE
  8
0
  6
CENTER
 10
-178.253235
 20
-285.441498
 11
-178.253235
 21
-449.441498
  0
LINE
  8
0
  6
CENTER
 10
-232.252808
 20
-395.441254
 11
-124.252808
 21
-395.441254
  0
LINE
  8
0
  6
CENTER
 10
55.873611
 20
-184.558533
 11
385.873596
 21
-184.558533
  0
LINE
  8
0
  6
CENTER
 10
220.873596
 20
-52.558533
 11
220.873596
 21
-250.558533
  0
LINE
  8
0
  6
CENTER
 10
55.873611
 20
150.000000
 11
385.873596
 21
150.000000
  0
LINE
  8
0
  6
CENTER
 10
220.873596
 20
215.000000
 11
220.873596
 21
85.000000
  0
LINE
  8
0
  6
CENTER
 10
591.747070
 20
-52.558533
 11
591.747070
 21
-250.558533
  0
LINE
  8
0
  6
CENTER
 10
525.747192
 20
-184.558472
 11
657.747192
 21
-184.558472
  0
LINE
  8
0
  6
CENTER
 10
-521.747192
 20
301.844269
 11
-521.747192
 21
276.727020
  0
LINE
  8
0
  6
CENTER
 10
-558.797363
 20
289.117065
 11
-482.203461
 21
289.117065
  0
LINE
  8
0
 10
-546.747192
 20
123.558464
 11
-529.747192
 21
123.558464
  0
LINE
  8
0
 10
-546.747192
 20
123.558464
 11
-546.747192
 21
113.058464
  0
LINE
  8
0
 10
-496.747223
 20
123.558464
 11
-496.747223
 21
113.058464
  0
LINE
  8
0
 10
-546.747192
 20
127.558464
 11
-546.747192
 21
123.558464
  0
LINE
  8
0
 10
-511.747223
 20
127.558464
 11
-496.747223
 21
127.558464
  0
LINE
  8
0
 10
-531.747192
 20
131.558472
 11
-511.747223
 21
131.558472
  0
LINE
  8
0
 10
-511.747223
 20
131.558472
 11
-511.747223
 21
127.058464
  0
LINE
  8
0
 10
-513.747192
 20
123.558464
 11
-496.747223
 21
123.558464
  0
LINE
  8
0
 10
-520.747192
 20
120.058464
 11
-515.747192
 21
120.058464
  0
LINE
  8
0
 10
-520.747192
 20
127.058464
 11
-520.747192
 21
120.058464
  0
LINE
  8
0
 10
-522.747192
 20
127.058464
 11
-522.747192
 21
120.058464
  0
LINE
  8
0
 10
-511.747284
 20
127.058510
 11
-515.747253
 21
120.058510
  0
LINE
  8
0
 10
-522.747192
 20
120.058464
 11
-527.747192
 21
120.058464
  0
LINE
  8
0
 10
-531.747314
 20
127.058426
 11
-527.747314
 21
120.058426
  0
LINE
  8
0
 10
-531.747192
 20
131.558472
 11
-531.747192
 21
127.058464
  0
LINE
  8
0
 10
-546.747192
 20
127.558464
 11
-531.747192
 21
127.558464
  0
LINE
  8
0
 10
-496.747223
 20
127.558464
 11
-496.747223
 21
123.558464
  0
LINE
  8
0
  6
CENTER
 10
-502.747223
 20
128.909546
 11
-502.747223
 21
114.368553
  0
LINE
  8
0
  6
CENTER
 10
-510.747223
 20
123.558464
 11
-510.747223
 21
117.558464
  0
LINE
  8
0
  6
CENTER
 10
-507.747223
 20
120.558464
 11
-513.747192
 21
120.558464
  0
LINE
  8
0
  6
CENTER
 10
-526.747192
 20
123.558464
 11
-516.747192
 21
123.558464
  0
LINE
  8
0
  6
CENTER
 10
-532.747192
 20
123.558464
 11
-532.747192
 21
117.558464
  0
LINE
  8
0
  6
CENTER
 10
-535.747192
 20
120.558464
 11
-529.747192
 21
120.558464
  0
LINE
  8
0
  6
CENTER
 10
-540.747192
 20
128.849426
 11
-540.747192
 21
114.368553
  0
LINE
  8
0
  6
DASHED
 10
-531.747192
 20
129.558472
 11
-511.747223
 21
129.558472
  0
LINE
  8
0
  6
DASHED
 10
-529.897095
 20
129.558350
 11
-528.497070
 21
130.958359
  0
LINE
  8
0
  6
DASHED
 10
-528.497192
 20
131.558472
 11
-528.497192
 21
130.958466
  0
LINE
  8
0
  6
DASHED
 10
-524.997192
 20
130.958466
 11
-528.497192
 21
130.958466
  0
LINE
  8
0
  6
CENTER
 10
-526.747192
 20
133.558472
 11
-526.747192
 21
127.558464
  0
LINE
  8
0
  6
DASHED
 10
-524.997192
 20
131.558472
 11
-524.997192
 21
130.958466
  0
LINE
  8
0
  6
DASHED
 10
-523.597107
 20
129.558502
 11
-524.997131
 21
130.958511
  0
LINE
  8
0
  6
DASHED
 10
-519.897095
 20
129.558319
 11
-518.497070
 21
130.958313
  0
LINE
  8
0
  6
DASHED
 10
-518.497192
 20
131.558472
 11
-518.497192
 21
130.958466
  0
LINE
  8
0
  6
DASHED
 10
-514.997192
 20
130.958466
 11
-518.497192
 21
130.958466
  0
LINE
  8
0
  6
CENTER
 10
-516.747192
 20
133.558472
 11
-516.747192
 21
127.558464
  0
LINE
  8
0
  6
DASHED
 10
-514.997192
 20
131.558472
 11
-514.997192
 21
130.958466
  0
LINE
  8
0
  6
DASHED
 10
-513.597229
 20
129.558563
 11
-514.997192
 21
130.958527
  0
LINE
  8
0
 10
-544.247192
 20
296.617035
 11
-531.747192
 21
296.617035
  0
LINE
  8
0
 10
-544.247192
 20
281.617035
 11
-531.747192
 21
281.617035
  0
LINE
  8
0
 10
-531.747192
 20
278.117035
 11
-511.747223
 21
278.117035
  0
LINE
  8
0
 10
-531.747192
 20
300.117035
 11
-511.747223
 21
300.117035
  0
LINE
  8
0
 10
-511.747223
 20
300.117035
 11
-511.747223
 21
278.117035
  0
LINE
  8
0
 10
-531.747192
 20
300.117035
 11
-531.747192
 21
278.117035
  0
LINE
  8
0
 10
-546.747192
 20
294.117035
 11
-531.747192
 21
294.117035
  0
LINE
  8
0
 10
-546.747192
 20
284.117035
 11
-531.747192
 21
284.117035
  0
LINE
  8
0
 10
-546.747192
 20
294.117035
 11
-546.747192
 21
284.117035
  0
LINE
  8
0
 10
-496.747223
 20
294.117035
 11
-496.747223
 21
284.117035
  0
LINE
  8
0
 10
-511.747223
 20
294.117035
 11
-496.747223
 21
294.117035
  0
LINE
  8
0
 10
-511.747223
 20
284.117035
 11
-496.747223
 21
284.117035
  0
LINE
  8
0
 10
-511.747223
 20
296.617035
 11
-499.247223
 21
296.617035
  0
LINE
  8
0
 10
-511.747223
 20
281.617035
 11
-499.247223
 21
281.617035
  0
LINE
  8
0
 10
-541.997253
 20
288.395355
 11
-540.747253
 21
287.673676
  0
LINE
  8
0
 10
-540.747314
 20
287.673920
 11
-539.497314
 21
288.395599
  0
LINE
  8
0
 10
-539.497192
 20
288.395355
 11
-539.497192
 21
289.838715
  0
LINE
  8
0
 10
-539.497253
 20
289.838745
 11
-540.747253
 21
290.560425
  0
LINE
  8
0
 10
-540.747498
 20
290.560852
 11
-541.997498
 21
289.839172
  0
LINE
  8
0
 10
-541.997192
 20
289.838745
 11
-541.997192
 21
288.395355
  0
LINE
  8
0
 10
-502.747192
 20
287.673553
 11
-503.997162
 21
288.395233
  0
LINE
  8
0
 10
-503.997223
 20
288.395355
 11
-503.997223
 21
289.838715
  0
LINE
  8
0
 10
-503.996857
 20
289.838165
 11
-502.746826
 21
290.559875
  0
LINE
  8
0
 10
-502.747192
 20
290.560394
 11
-501.497223
 21
289.838715
  0
LINE
  8
0
 10
-501.497223
 20
289.838745
 11
-501.497223
 21
288.395355
  0
LINE
  8
0
 10
-501.497131
 20
288.395203
 11
-502.747162
 21
287.673492
  0
LINE
  8
0
  6
CENTER
 10
-540.747192
 20
293.617035
 11
-540.747192
 21
284.617035
  0
LINE
  8
0
  6
CENTER
 10
-526.747192
 20
293.617035
 11
-526.747192
 21
284.617035
  0
LINE
  8
0
  6
CENTER
 10
-516.747192
 20
293.617035
 11
-516.747192
 21
284.617035
  0
LINE
  8
0
  6
CENTER
 10
-502.747223
 20
293.617035
 11
-502.747223
 21
284.617035
  0
LINE
  8
0
 10
-229.873749
 20
121.808578
 11
-228.373749
 21
121.808578
  0
LINE
  8
0
 10
-209.873749
 20
125.308578
 11
-208.373749
 21
125.308578
  0
LINE
  8
0
 10
-228.373749
 20
123.558578
 11
-213.373749
 21
123.558578
  0
LINE
  8
0
 10
-213.373749
 20
123.558578
 11
-213.373749
 21
113.058578
  0
LINE
  8
0
 10
-228.373749
 20
123.558578
 11
-228.373749
 21
113.058578
  0
LINE
  8
0
 10
-229.873749
 20
122.122421
 11
-228.373749
 21
122.122421
  0
LINE
  8
0
 10
-211.873749
 20
124.994736
 11
-215.873749
 21
124.994736
  0
LINE
  8
0
 10
-211.873749
 20
122.122421
 11
-213.373749
 21
122.122421
  0
LINE
  8
0
 10
-231.873749
 20
129.558578
 11
-231.873749
 21
120.058578
  0
LINE
  8
0
 10
-209.873749
 20
129.558578
 11
-209.873749
 21
120.058578
  0
LINE
  8
0
 10
-229.873749
 20
131.558578
 11
-211.873749
 21
131.558578
  0
LINE
  8
0
 10
-229.873749
 20
129.558578
 11
-211.873749
 21
129.558578
  0
LINE
  8
0
 10
-229.873749
 20
129.558578
 11
-229.873749
 21
120.058578
  0
LINE
  8
0
 10
-211.873749
 20
129.558578
 11
-211.873749
 21
120.058578
  0
LINE
  8
0
 10
-231.873749
 20
120.058578
 11
-229.873749
 21
120.058578
  0
LINE
  8
0
 10
-211.873749
 20
120.058578
 11
-209.873749
 21
120.058578
  0
LINE
  8
0
 10
-209.873749
 20
121.808578
 11
-208.373749
 21
121.808578
  0
LINE
  8
0
 10
-225.873749
 20
127.558578
 11
-215.873749
 21
127.558578
  0
LINE
  8
0
 10
-215.873749
 20
127.558578
 11
-215.873749
 21
123.558578
  0
LINE
  8
0
 10
-225.873749
 20
127.558578
 11
-225.873749
 21
123.558578
  0
LINE
  8
0
 10
-233.373749
 20
125.308578
 11
-231.873749
 21
125.308578
  0
LINE
  8
0
 10
-233.373749
 20
121.808578
 11
-231.873749
 21
121.808578
  0
LINE
  8
0
 10
-233.373749
 20
125.308578
 11
-233.373749
 21
121.808578
  0
LINE
  8
0
 10
-208.373749
 20
125.308578
 11
-208.373749
 21
121.808578
  0
LINE
  8
0
 10
-233.373749
 20
122.122421
 11
-231.873749
 21
122.122421
  0
LINE
  8
0
 10
-233.373749
 20
124.994736
 11
-231.873749
 21
124.994736
  0
LINE
  8
0
 10
-208.373749
 20
124.994736
 11
-209.873749
 21
124.994736
  0
LINE
  8
0
 10
-208.373749
 20
122.122421
 11
-209.873749
 21
122.122421
  0
LINE
  8
0
 10
-215.873749
 20
125.308578
 11
-211.873749
 21
125.308578
  0
LINE
  8
0
 10
-213.373749
 20
121.808578
 11
-211.873749
 21
121.808578
  0
LINE
  8
0
 10
-229.873749
 20
125.308578
 11
-225.873749
 21
125.308578
  0
LINE
  8
0
 10
-229.873749
 20
124.994736
 11
-225.873749
 21
124.994736
  0
LINE
  8
0
  6
CENTER
 10
-234.766449
 20
123.558578
 11
-206.777405
 21
123.558578
  0
LINE
  8
0
  6
DASHED
 10
-224.023712
 20
129.558563
 11
-222.623703
 21
130.958557
  0
LINE
  8
0
  6
DASHED
 10
-222.623749
 20
131.558578
 11
-222.623749
 21
130.958572
  0
LINE
  8
0
  6
DASHED
 10
-219.123749
 20
131.558578
 11
-219.123749
 21
130.958572
  0
LINE
  8
0
  6
DASHED
 10
-219.123749
 20
130.958572
 11
-222.623749
 21
130.958572
  0
LINE
  8
0
  6
DASHED
 10
-217.723740
 20
129.558594
 11
-219.123764
 21
130.958603
  0
LINE
  8
0
  6
DASHED
 10
-228.373749
 20
122.258591
 11
-213.373749
 21
122.258591
  0
LINE
  8
0
  6
CENTER
 10
-230.024200
 20
120.558578
 11
-211.617111
 21
120.558578
  0
LINE
  8
0
  6
DASHED
 10
-228.373749
 20
118.858566
 11
-213.373749
 21
118.858566
  0
LINE
  8
0
 10
-579.126526
 20
-295.441589
 11
-459.126526
 21
-295.441589
  0
LINE
  8
0
 10
-535.706482
 20
-343.441589
 11
-524.126526
 21
-343.441589
  0
LINE
  8
0
 10
-579.126526
 20
-295.441589
 11
-579.126526
 21
-301.441589
  0
LINE
  8
0
 10
-459.126526
 20
-295.441589
 11
-459.126526
 21
-301.441589
  0
LINE
  8
0
 10
-579.126526
 20
-301.441589
 11
-459.126526
 21
-301.441589
  0
LINE
  8
0
 10
-554.126526
 20
-305.441589
 11
-522.697266
 21
-305.441589
  0
LINE
  8
0
 10
-554.126404
 20
-305.441467
 11
-558.126404
 21
-301.441467
  0
LINE
  8
0
 10
-545.653198
 20
-337.639099
 11
-554.126221
 21
-305.441528
  0
LINE
  8
0
 10
-524.126526
 20
-308.941589
 11
-524.126526
 21
-343.441589
  0
LINE
  8
0
 10
-545.653442
 20
-337.639221
 11
-535.706421
 21
-343.441681
  0
LINE
  8
0
 10
-514.126526
 20
-308.941589
 11
-514.126526
 21
-343.441589
  0
LINE
  8
0
 10
-502.546631
 20
-343.441589
 11
-514.126526
 21
-343.441589
  0
LINE
  8
0
 10
-492.599701
 20
-337.639191
 11
-502.546753
 21
-343.441650
  0
LINE
  8
0
 10
-492.599274
 20
-337.639191
 11
-484.126251
 21
-305.441650
  0
LINE
  8
0
 10
-484.126373
 20
-305.441589
 11
-480.126373
 21
-301.441589
  0
LINE
  8
0
 10
-484.126526
 20
-305.441589
 11
-515.555847
 21
-305.441589
  0
LINE
  8
0
  6
CENTER
 10
-469.126526
 20
-293.441589
 11
-469.126526
 21
-303.441589
  0
LINE
  8
0
  6
CENTER
 10
-429.126526
 20
-317.441589
 11
-429.126526
 21
-337.441589
  0
LINE
  8
0
 10
-409.126526
 20
-317.441589
 11
-409.126526
 21
-349.441589
  0
LINE
  8
0
 10
-629.126526
 20
-317.441589
 11
-629.126526
 21
-349.441589
  0
LINE
  8
0
 10
-623.126526
 20
-312.441589
 11
-552.284424
 21
-312.441589
  0
LINE
  8
0
 10
-415.126526
 20
-312.441589
 11
-415.126526
 21
-317.441589
  0
LINE
  8
0
 10
-623.126526
 20
-312.441589
 11
-623.126526
 21
-317.441589
  0
LINE
  8
0
 10
-629.126526
 20
-317.441589
 11
-550.968628
 21
-317.441589
  0
LINE
  8
0
 10
-564.126465
 20
-330.905670
 11
-567.126465
 21
-329.173615
  0
LINE
  8
0
 10
-561.126465
 20
-329.173645
 11
-564.126465
 21
-330.905701
  0
LINE
  8
0
 10
-432.126434
 20
-329.173645
 11
-429.126434
 21
-330.905701
  0
LINE
  8
0
 10
-429.126495
 20
-330.905762
 11
-426.126526
 21
-329.173737
  0
LINE
  8
0
 10
-426.126831
 20
-329.173645
 11
-426.126831
 21
-325.709534
  0
LINE
  8
0
 10
-426.126495
 20
-325.709595
 11
-429.126495
 21
-323.977539
  0
LINE
  8
0
 10
-429.126587
 20
-323.977509
 11
-432.126587
 21
-325.709564
  0
LINE
  8
0
 10
-432.126831
 20
-325.709564
 11
-432.126831
 21
-329.173645
  0
LINE
  8
0
 10
-561.126282
 20
-325.709564
 11
-561.126282
 21
-329.173645
  0
LINE
  8
0
 10
-564.126587
 20
-323.977417
 11
-561.126587
 21
-325.709442
  0
LINE
  8
0
 10
-471.126617
 20
-329.173676
 11
-474.126617
 21
-330.905762
  0
LINE
  8
0
 10
-474.126617
 20
-330.905670
 11
-477.126617
 21
-329.173645
  0
LINE
  8
0
 10
-477.126221
 20
-329.173645
 11
-477.126221
 21
-325.709534
  0
LINE
  8
0
 10
-477.126495
 20
-325.709503
 11
-474.126526
 21
-323.977478
  0
LINE
  8
0
 10
-474.126465
 20
-323.977356
 11
-471.126465
 21
-325.709412
  0
LINE
  8
0
 10
-471.126251
 20
-325.709564
 11
-471.126251
 21
-329.173645
  0
LINE
  8
0
 10
-629.126526
 20
-349.441589
 11
-409.126526
 21
-349.441589
  0
LINE
  8
0
 10
-629.126526
 20
-353.441589
 11
-409.126526
 21
-353.441589
  0
LINE
  8
0
 10
-487.284485
 20
-317.441589
 11
-409.126526
 21
-317.441589
  0
LINE
  8
0
 10
-524.126526
 20
-312.441589
 11
-514.126526
 21
-312.441589
  0
LINE
  8
0
 10
-485.968689
 20
-312.441589
 11
-415.126526
 21
-312.441589
  0
LINE
  8
0
 10
-567.126587
 20
-325.709564
 11
-564.126587
 21
-323.977478
  0
LINE
  8
0
 10
-567.126221
 20
-329.173645
 11
-567.126221
 21
-325.709534
  0
LINE
  8
0
 10
-606.126648
 20
-329.173676
 11
-609.126587
 21
-330.905701
  0
LINE
  8
0
 10
-609.126526
 20
-330.905670
 11
-612.126526
 21
-329.173645
  0
LINE
  8
0
 10
-612.126221
 20
-329.173645
 11
-612.126221
 21
-325.709534
  0
LINE
  8
0
 10
-612.126526
 20
-325.709534
 11
-609.126526
 21
-323.977478
  0
LINE
  8
0
 10
-609.126404
 20
-323.977386
 11
-606.126404
 21
-325.709442
  0
LINE
  8
0
 10
-606.126282
 20
-325.709564
 11
-606.126282
 21
-329.173645
  0
LINE
  8
0
  6
CENTER
 10
-609.126526
 20
-317.441589
 11
-609.126526
 21
-337.441589
  0
LINE
  8
0
  6
CENTER
 10
-599.126526
 20
-327.441589
 11
-619.126526
 21
-327.441589
  0
LINE
  8
0
  6
CENTER
 10
-554.126526
 20
-327.441589
 11
-574.126526
 21
-327.441589
  0
LINE
  8
0
  6
CENTER
 10
-564.126526
 20
-317.441589
 11
-564.126526
 21
-337.441589
  0
LINE
  8
0
  6
CENTER
 10
-534.126526
 20
-325.441589
 11
-503.293213
 21
-325.441589
  0
LINE
  8
0
  6
CENTER
 10
-464.126526
 20
-327.441589
 11
-484.126526
 21
-327.441589
  0
LINE
  8
0
  6
CENTER
 10
-474.126526
 20
-317.441589
 11
-474.126526
 21
-337.441589
  0
LINE
  8
0
  6
CENTER
 10
-439.126526
 20
-327.441589
 11
-419.126526
 21
-327.441589
  0
LINE
  8
0
 10
-574.126526
 20
-295.441589
 11
-574.126526
 21
-301.441589
  0
LINE
  8
0
  6
CENTER
 10
-569.126526
 20
-293.441589
 11
-569.126526
 21
-303.441589
  0
LINE
  8
0
  6
DASHED
 10
-564.626526
 20
-295.441589
 11
-564.626526
 21
-301.441589
  0
LINE
  8
0
  6
DASHED
 10
-473.626526
 20
-295.441589
 11
-473.626526
 21
-301.441589
  0
LINE
  8
0
  6
DASHED
 10
-464.626526
 20
-295.441589
 11
-464.626526
 21
-301.441589
  0
LINE
  8
0
 10
-464.126526
 20
-295.441589
 11
-464.126526
 21
-301.441589
  0
LINE
  8
0
  6
DASHED
 10
-573.626526
 20
-295.441589
 11
-573.626526
 21
-301.441589
  0
LINE
  8
0
 10
-459.126526
 20
-100.882965
 11
-459.126526
 21
-180.882965
  0
LINE
  8
0
 10
-579.126526
 20
-100.882965
 11
-579.126526
 21
-180.882965
  0
LINE
  8
0
 10
-574.126526
 20
-185.882965
 11
-464.126526
 21
-185.882965
  0
LINE
  8
0
 10
-574.126526
 20
-95.882965
 11
-464.126526
 21
-95.882965
  0
LINE
  8
0
 10
-459.126495
 20
-180.883041
 11
-464.126526
 21
-185.883072
  0
LINE
  8
0
 10
-579.126404
 20
-180.882935
 11
-574.126465
 21
-185.882919
  0
LINE
  8
0
 10
-574.126465
 20
-95.883057
 11
-579.126465
 21
-100.883041
  0
LINE
  8
0
 10
-464.126465
 20
-95.882973
 11
-459.126495
 21
-100.882957
  0
LINE
  8
0
 10
-459.126526
 20
-125.882965
 11
-409.126526
 21
-125.882965
  0
LINE
  8
0
 10
-459.126526
 20
-131.382965
 11
-409.126526
 21
-131.382965
  0
LINE
  8
0
 10
-459.126526
 20
-150.382965
 11
-409.126526
 21
-150.382965
  0
LINE
  8
0
 10
-459.126526
 20
-155.882965
 11
-409.126526
 21
-155.882965
  0
LINE
  8
0
 10
-422.626526
 20
-157.882965
 11
-409.126526
 21
-157.882965
  0
LINE
  8
0
 10
-409.126526
 20
-125.882965
 11
-409.126526
 21
-155.882965
  0
LINE
  8
0
 10
-629.126526
 20
-125.882965
 11
-629.126526
 21
-155.882965
  0
LINE
  8
0
 10
-415.126526
 20
-131.382965
 11
-415.126526
 21
-150.382965
  0
LINE
  8
0
 10
-623.126526
 20
-131.382965
 11
-623.126526
 21
-150.382965
  0
LINE
  8
0
 10
-459.126526
 20
-123.882965
 11
-435.626526
 21
-123.882965
  0
LINE
  8
0
 10
-615.626526
 20
-163.882965
 11
-602.626526
 21
-163.882965
  0
LINE
  8
0
 10
-615.626526
 20
-163.882965
 11
-615.626526
 21
-155.882965
  0
LINE
  8
0
 10
-602.626526
 20
-163.882965
 11
-602.626526
 21
-155.882965
  0
LINE
  8
0
 10
-613.126526
 20
-118.882965
 11
-605.126526
 21
-118.882965
  0
LINE
  8
0
 10
-613.126526
 20
-120.882965
 11
-613.126526
 21
-118.882965
  0
LINE
  8
0
 10
-605.126526
 20
-120.882965
 11
-605.126526
 21
-118.882965
  0
LINE
  8
0
 10
-612.450012
 20
-120.882965
 11
-612.450012
 21
-118.882965
  0
LINE
  8
0
 10
-605.803040
 20
-120.882965
 11
-605.803040
 21
-118.882965
  0
LINE
  8
0
 10
-407.126526
 20
-125.882965
 11
-407.126526
 21
-155.882965
  0
LINE
  8
0
 10
-631.126526
 20
-125.882965
 11
-631.126526
 21
-155.882965
  0
LINE
  8
0
 10
-629.126526
 20
-125.882965
 11
-579.126526
 21
-125.882965
  0
LINE
  8
0
 10
-629.126526
 20
-155.882965
 11
-579.126526
 21
-155.882965
  0
LINE
  8
0
 10
-629.126526
 20
-131.382965
 11
-579.126526
 21
-131.382965
  0
LINE
  8
0
 10
-629.126526
 20
-150.382965
 11
-579.126526
 21
-150.382965
  0
LINE
  8
0
 10
-629.126526
 20
-157.882965
 11
-615.626526
 21
-157.882965
  0
LINE
  8
0
 10
-629.126526
 20
-123.882965
 11
-615.626526
 21
-123.882965
  0
LINE
  8
0
 10
-615.626526
 20
-125.882965
 11
-615.626526
 21
-120.882965
  0
LINE
  8
0
 10
-602.626526
 20
-125.882965
 11
-602.626526
 21
-120.882965
  0
LINE
  8
0
 10
-615.626526
 20
-120.882965
 11
-602.626526
 21
-120.882965
  0
LINE
  8
0
 10
-609.126526
 20
-125.302399
 11
-609.126526
 21
-121.463531
  0
LINE
  8
0
 10
-429.126526
 20
-125.302399
 11
-429.126526
 21
-121.463531
  0
LINE
  8
0
 10
-459.126526
 20
-157.882965
 11
-435.626526
 21
-157.882965
  0
LINE
  8
0
 10
-435.626526
 20
-163.882965
 11
-422.626526
 21
-163.882965
  0
LINE
  8
0
 10
-435.626526
 20
-163.882965
 11
-435.626526
 21
-155.882965
  0
LINE
  8
0
 10
-422.626526
 20
-163.882965
 11
-422.626526
 21
-155.882965
  0
LINE
  8
0
 10
-433.126526
 20
-118.882965
 11
-425.126526
 21
-118.882965
  0
LINE
  8
0
 10
-433.126526
 20
-120.882965
 11
-433.126526
 21
-118.882965
  0
LINE
  8
0
 10
-425.126526
 20
-120.882965
 11
-425.126526
 21
-118.882965
  0
LINE
  8
0
 10
-432.450012
 20
-120.882965
 11
-432.450012
 21
-118.882965
  0
LINE
  8
0
 10
-425.803040
 20
-120.882965
 11
-425.803040
 21
-118.882965
  0
LINE
  8
0
 10
-435.626526
 20
-125.882965
 11
-435.626526
 21
-120.882965
  0
LINE
  8
0
 10
-422.626526
 20
-125.882965
 11
-422.626526
 21
-120.882965
  0
LINE
  8
0
 10
-435.626526
 20
-120.882965
 11
-422.626526
 21
-120.882965
  0
LINE
  8
0
 10
-602.626526
 20
-157.882965
 11
-579.126526
 21
-157.882965
  0
LINE
  8
0
 10
-602.626526
 20
-123.882965
 11
-579.126526
 21
-123.882965
  0
LINE
  8
0
 10
-422.626526
 20
-123.882965
 11
-409.126526
 21
-123.882965
  0
LINE
  8
0
  6
CENTER
 10
-609.126526
 20
-165.882965
 11
-609.126526
 21
-115.882965
  0
LINE
  8
0
  6
CENTER
 10
-429.126526
 20
-165.882965
 11
-429.126526
 21
-115.882965
  0
LINE
  8
0
  6
CENTER
 10
-469.126526
 20
-165.882965
 11
-469.126526
 21
-185.882965
  0
LINE
  8
0
  6
CENTER
 10
-479.126526
 20
-175.882965
 11
-459.126526
 21
-175.882965
  0
LINE
  8
0
  6
CENTER
 10
-569.126526
 20
-165.882965
 11
-569.126526
 21
-185.882965
  0
LINE
  8
0
  6
CENTER
 10
-559.126526
 20
-175.882965
 11
-579.126526
 21
-175.882965
  0
LINE
  8
0
  6
CENTER
 10
-569.126526
 20
-115.882965
 11
-569.126526
 21
-95.882965
  0
LINE
  8
0
  6
CENTER
 10
-559.126526
 20
-105.882965
 11
-579.126526
 21
-105.882965
  0
LINE
  8
0
  6
CENTER
 10
-479.126526
 20
-105.882965
 11
-459.126526
 21
-105.882965
  0
LINE
  8
0
  6
CENTER
 10
-469.126526
 20
-115.882965
 11
-469.126526
 21
-95.882965
  0
LINE
  8
0
 10
-223.253220
 20
-295.441223
 11
-223.253220
 21
-301.441223
  0
LINE
  8
0
 10
-133.253220
 20
-295.441223
 11
-133.253220
 21
-301.441223
  0
LINE
  8
0
 10
-223.253220
 20
-295.441223
 11
-133.253220
 21
-295.441223
  0
LINE
  8
0
 10
-212.253220
 20
-343.441223
 11
-203.253220
 21
-343.441223
  0
LINE
  8
0
 10
-223.253220
 20
-301.441223
 11
-133.253220
 21
-301.441223
  0
LINE
  8
0
 10
-213.753220
 20
-305.441223
 11
-201.753220
 21
-305.441223
  0
LINE
  8
0
 10
-213.753326
 20
-305.441254
 11
-217.753311
 21
-301.441254
  0
LINE
  8
0
 10
-201.753326
 20
-305.441254
 11
-197.753372
 21
-301.441315
  0
LINE
  8
0
 10
-218.253220
 20
-295.441223
 11
-218.253220
 21
-301.441223
  0
LINE
  8
0
  6
CENTER
 10
-143.253220
 20
-293.441223
 11
-143.253220
 21
-303.441223
  0
LINE
  8
0
 10
-203.253357
 20
-343.441162
 11
-201.753357
 21
-305.441162
  0
LINE
  8
0
 10
-212.253281
 20
-343.441284
 11
-213.753281
 21
-305.441284
  0
LINE
  8
0
 10
-144.253220
 20
-343.441223
 11
-153.253220
 21
-343.441223
  0
LINE
  8
0
 10
-153.253433
 20
-343.441254
 11
-154.753433
 21
-305.441254
  0
LINE
  8
0
 10
-144.253525
 20
-343.441162
 11
-142.753525
 21
-305.441193
  0
LINE
  8
0
 10
-142.753220
 20
-305.441223
 11
-138.753220
 21
-301.441193
  0
LINE
  8
0
 10
-142.753220
 20
-305.441223
 11
-154.753220
 21
-305.441223
  0
LINE
  8
0
 10
-154.753311
 20
-305.441284
 11
-158.753311
 21
-301.441254
  0
LINE
  8
0
 10
-219.253220
 20
-333.441223
 11
-212.647934
 21
-333.441223
  0
LINE
  8
0
 10
-219.253220
 20
-317.441223
 11
-213.279526
 21
-317.441223
  0
LINE
  8
0
 10
-219.253220
 20
-317.441223
 11
-219.253220
 21
-333.441223
  0
LINE
  8
0
 10
-137.253220
 20
-317.441223
 11
-137.253220
 21
-333.441223
  0
LINE
  8
0
 10
-163.253220
 20
-319.196228
 11
-154.210251
 21
-319.196228
  0
LINE
  8
0
 10
-158.253220
 20
-331.686218
 11
-153.717209
 21
-331.686218
  0
LINE
  8
0
 10
-193.253220
 20
-319.196228
 11
-202.296188
 21
-319.196228
  0
LINE
  8
0
 10
-201.253220
 20
-331.686218
 11
-202.789169
 21
-331.686218
  0
LINE
  8
0
 10
-163.253220
 20
-317.441223
 11
-163.253220
 21
-349.441223
  0
LINE
  8
0
 10
-168.753220
 20
-312.441223
 11
-168.753220
 21
-349.441223
  0
LINE
  8
0
 10
-187.753220
 20
-312.441223
 11
-168.753220
 21
-312.441223
  0
LINE
  8
0
 10
-193.253220
 20
-349.441223
 11
-163.253220
 21
-349.441223
  0
LINE
  8
0
 10
-193.253220
 20
-353.441223
 11
-163.253220
 21
-353.441223
  0
LINE
  8
0
 10
-193.253220
 20
-317.441223
 11
-193.253220
 21
-349.441223
  0
LINE
  8
0
 10
-187.753220
 20
-312.441223
 11
-187.753220
 21
-349.441223
  0
LINE
  8
0
 10
-201.253220
 20
-320.941223
 11
-201.253220
 21
-333.941223
  0
LINE
  8
0
 10
-201.253220
 20
-320.941223
 11
-193.253220
 21
-320.941223
  0
LINE
  8
0
 10
-201.253220
 20
-333.941223
 11
-193.253220
 21
-333.941223
  0
LINE
  8
0
 10
-158.253220
 20
-320.941193
 11
-158.253220
 21
-333.941315
  0
LINE
  8
0
 10
-156.253220
 20
-323.441223
 11
-156.253220
 21
-331.441223
  0
LINE
  8
0
 10
-158.253220
 20
-323.441223
 11
-156.253220
 21
-323.441223
  0
LINE
  8
0
 10
-158.253220
 20
-331.441223
 11
-156.253220
 21
-331.441223
  0
LINE
  8
0
 10
-162.672653
 20
-331.193970
 11
-158.833786
 21
-331.193970
  0
LINE
  8
0
 10
-162.672775
 20
-334.946777
 11
-158.833786
 21
-334.946777
  0
LINE
  8
0
 10
-162.672653
 20
-319.935638
 11
-158.833786
 21
-319.935638
  0
LINE
  8
0
 10
-162.672653
 20
-323.688416
 11
-158.833786
 21
-323.688416
  0
LINE
  8
0
 10
-158.252823
 20
-320.941071
 11
-158.833374
 21
-319.935486
  0
LINE
  8
0
 10
-158.253586
 20
-333.941071
 11
-158.834137
 21
-334.946655
  0
LINE
  8
0
 10
-163.253052
 20
-320.941254
 11
-162.672485
 21
-319.935669
  0
LINE
  8
0
 10
-163.253860
 20
-333.941467
 11
-162.673279
 21
-334.947083
  0
LINE
  8
0
 10
-158.253220
 20
-324.117737
 11
-156.253220
 21
-324.117737
  0
LINE
  8
0
 10
-158.253220
 20
-330.764740
 11
-156.253220
 21
-330.764740
  0
LINE
  8
0
 10
-180.020874
 20
-329.209137
 11
-176.485352
 21
-325.673615
  0
LINE
  8
0
 10
-180.020844
 20
-325.673370
 11
-176.485306
 21
-329.208893
  0
LINE
  8
0
 10
-202.858444
 20
-333.441223
 11
-201.253220
 21
-333.441223
  0
LINE
  8
0
 10
-212.717209
 20
-331.686218
 11
-219.253220
 21
-331.686218
  0
LINE
  8
0
 10
-213.210251
 20
-319.196228
 11
-219.253220
 21
-319.196228
  0
LINE
  8
0
 10
-202.226852
 20
-317.441223
 11
-154.279465
 21
-317.441223
  0
LINE
  8
0
 10
-143.858444
 20
-333.441223
 11
-137.253220
 21
-333.441223
  0
LINE
  8
0
 10
-143.789230
 20
-331.686218
 11
-137.253220
 21
-331.686218
  0
LINE
  8
0
 10
-143.296188
 20
-319.196228
 11
-137.253220
 21
-319.196228
  0
LINE
  8
0
 10
-143.226974
 20
-317.441223
 11
-137.253220
 21
-317.441223
  0
LINE
  8
0
 10
-158.253220
 20
-333.441223
 11
-153.647873
 21
-333.441223
  0
LINE
  8
0
  6
DASHED
 10
-217.753220
 20
-295.441223
 11
-217.753220
 21
-301.441223
  0
LINE
  8
0
  6
CENTER
 10
-213.253220
 20
-293.441223
 11
-213.253220
 21
-303.441223
  0
LINE
  8
0
  6
DASHED
 10
-208.753220
 20
-295.441223
 11
-208.753220
 21
-301.441223
  0
LINE
  8
0
  6
DASHED
 10
-147.753220
 20
-295.441223
 11
-147.753220
 21
-301.441223
  0
LINE
  8
0
 10
-138.253220
 20
-295.441223
 11
-138.253220
 21
-301.441223
  0
LINE
  8
0
  6
DASHED
 10
-138.753220
 20
-295.441223
 11
-138.753220
 21
-301.441223
  0
LINE
  8
0
  6
CENTER
 10
-223.253220
 20
-325.441223
 11
-133.253220
 21
-325.441223
  0
LINE
  8
0
  6
CENTER
 10
-203.253220
 20
-327.441223
 11
-153.253220
 21
-327.441223
  0
LINE
  8
0
 10
80.873505
 20
-89.558472
 11
80.873505
 21
-126.558472
  0
LINE
  8
0
 10
360.873505
 20
-89.558472
 11
360.873505
 21
-126.558472
  0
LINE
  8
0
 10
86.873505
 20
-83.558472
 11
180.501190
 21
-83.558472
  0
LINE
  8
0
 10
80.873505
 20
-89.558472
 11
182.096939
 21
-89.558472
  0
LINE
  8
0
 10
354.873505
 20
-83.558472
 11
354.873505
 21
-89.558472
  0
LINE
  8
0
 10
86.873505
 20
-83.558472
 11
86.873505
 21
-89.558472
  0
LINE
  8
0
 10
336.873535
 20
-99.249084
 11
336.873535
 21
-103.867889
  0
LINE
  8
0
 10
336.873535
 20
-103.867859
 11
340.873535
 21
-106.177261
  0
LINE
  8
0
 10
340.873413
 20
-106.177177
 11
344.873413
 21
-103.867775
  0
LINE
  8
0
 10
344.873474
 20
-103.867859
 11
344.873474
 21
-99.249054
  0
LINE
  8
0
 10
344.873474
 20
-99.249184
 11
340.873444
 21
-96.939766
  0
LINE
  8
0
 10
340.873444
 20
-96.939583
 11
336.873444
 21
-99.248985
  0
LINE
  8
0
 10
284.873444
 20
-103.867828
 11
280.873444
 21
-106.177238
  0
LINE
  8
0
 10
280.873505
 20
-96.939728
 11
284.873535
 21
-99.249146
  0
LINE
  8
0
 10
284.873474
 20
-99.249084
 11
284.873474
 21
-103.867889
  0
LINE
  8
0
 10
276.873535
 20
-103.867859
 11
276.873535
 21
-99.249054
  0
LINE
  8
0
 10
276.873505
 20
-99.249084
 11
280.873474
 21
-96.939697
  0
LINE
  8
0
 10
280.873535
 20
-106.177254
 11
276.873505
 21
-103.867851
  0
LINE
  8
0
 10
80.873505
 20
-126.558472
 11
360.873505
 21
-126.558472
  0
LINE
  8
0
 10
80.873505
 20
-130.558472
 11
360.873505
 21
-130.558472
  0
LINE
  8
0
 10
259.650055
 20
-89.558472
 11
360.873505
 21
-89.558472
  0
LINE
  8
0
 10
145.873505
 20
-62.558472
 11
295.873505
 21
-62.558472
  0
LINE
  8
0
 10
295.873505
 20
-62.558472
 11
295.873505
 21
-70.558472
  0
LINE
  8
0
 10
227.373505
 20
-122.558472
 11
242.873505
 21
-122.558472
  0
LINE
  8
0
 10
145.873505
 20
-62.558472
 11
145.873505
 21
-70.558472
  0
LINE
  8
0
 10
227.373505
 20
-79.058472
 11
227.373505
 21
-122.558472
  0
LINE
  8
0
 10
145.873505
 20
-70.558472
 11
295.873505
 21
-70.558472
  0
LINE
  8
0
 10
178.373505
 20
-75.558472
 11
215.396271
 21
-75.558472
  0
LINE
  8
0
 10
263.373383
 20
-75.558418
 11
268.373352
 21
-70.558434
  0
LINE
  8
0
 10
263.373566
 20
-75.558411
 11
253.772110
 21
-111.659851
  0
LINE
  8
0
 10
242.873764
 20
-122.558746
 11
253.772324
 21
-111.660202
  0
LINE
  8
0
 10
214.373505
 20
-122.558472
 11
198.873505
 21
-122.558472
  0
LINE
  8
0
 10
214.373505
 20
-79.058472
 11
214.373505
 21
-122.558472
  0
LINE
  8
0
 10
198.873520
 20
-122.558502
 11
187.974945
 21
-111.659935
  0
LINE
  8
0
 10
178.373352
 20
-75.558472
 11
187.974808
 21
-111.659943
  0
LINE
  8
0
 10
178.373505
 20
-75.558487
 11
173.373505
 21
-70.558479
  0
LINE
  8
0
 10
226.350739
 20
-75.558472
 11
263.373505
 21
-75.558472
  0
LINE
  8
0
 10
150.873505
 20
-62.558472
 11
150.873505
 21
-70.558472
  0
LINE
  8
0
  6
CENTER
 10
283.373505
 20
-56.558472
 11
283.373505
 21
-73.891815
  0
LINE
  8
0
 10
160.873535
 20
-96.939735
 11
164.873505
 21
-99.249123
  0
LINE
  8
0
 10
164.873459
 20
-103.867828
 11
160.873459
 21
-106.177231
  0
LINE
  8
0
 10
160.873505
 20
-106.177238
 11
156.873459
 21
-103.867836
  0
LINE
  8
0
 10
156.873581
 20
-99.249092
 11
160.873566
 21
-96.939705
  0
LINE
  8
0
 10
214.373505
 20
-83.558472
 11
227.373505
 21
-83.558472
  0
LINE
  8
0
 10
261.245789
 20
-83.558472
 11
354.873505
 21
-83.558472
  0
LINE
  8
0
 10
156.873535
 20
-103.867859
 11
156.873535
 21
-99.249054
  0
LINE
  8
0
 10
164.873474
 20
-99.249084
 11
164.873474
 21
-103.867889
  0
LINE
  8
0
 10
104.873482
 20
-103.867844
 11
100.873482
 21
-106.177246
  0
LINE
  8
0
 10
100.873520
 20
-96.939690
 11
104.873520
 21
-99.249092
  0
LINE
  8
0
 10
104.873474
 20
-99.249084
 11
104.873474
 21
-103.867889
  0
LINE
  8
0
 10
96.873535
 20
-103.867859
 11
96.873535
 21
-99.249054
  0
LINE
  8
0
 10
96.873558
 20
-99.249107
 11
100.873535
 21
-96.939720
  0
LINE
  8
0
 10
100.873512
 20
-106.177284
 11
96.873474
 21
-103.867882
  0
LINE
  8
0
  6
CENTER
 10
113.373505
 20
-101.558472
 11
88.373505
 21
-101.558472
  0
LINE
  8
0
  6
CENTER
 10
100.873505
 20
-89.058472
 11
100.873505
 21
-114.058472
  0
LINE
  8
0
  6
CENTER
 10
160.873505
 20
-89.058472
 11
160.873505
 21
-114.058472
  0
LINE
  8
0
  6
CENTER
 10
173.373505
 20
-101.558472
 11
148.373505
 21
-101.558472
  0
LINE
  8
0
  6
CENTER
 10
177.117599
 20
-98.558472
 11
264.728241
 21
-98.558472
  0
LINE
  8
0
  6
DASHED
 10
152.873505
 20
-62.558472
 11
152.873505
 21
-70.558472
  0
LINE
  8
0
  6
CENTER
 10
158.373505
 20
-56.558472
 11
158.373505
 21
-73.891815
  0
LINE
  8
0
  6
DASHED
 10
163.873505
 20
-62.558472
 11
163.873505
 21
-70.558472
  0
LINE
  8
0
  6
DASHED
 10
277.873505
 20
-62.558472
 11
277.873505
 21
-70.558472
  0
LINE
  8
0
  6
DASHED
 10
288.873505
 20
-62.558472
 11
288.873505
 21
-70.558472
  0
LINE
  8
0
 10
290.873505
 20
-62.558472
 11
290.873505
 21
-70.558472
  0
LINE
  8
0
  6
CENTER
 10
293.373505
 20
-101.558472
 11
268.373505
 21
-101.558472
  0
LINE
  8
0
  6
CENTER
 10
280.873505
 20
-89.058472
 11
280.873505
 21
-114.058472
  0
LINE
  8
0
  6
CENTER
 10
328.373505
 20
-101.558472
 11
353.373505
 21
-101.558472
  0
LINE
  8
0
  6
CENTER
 10
340.873505
 20
-89.058472
 11
340.873505
 21
-114.058472
  0
LINE
  8
0
 10
332.873596
 20
124.000015
 11
348.873596
 21
124.000015
  0
LINE
  8
0
 10
332.873596
 20
124.000015
 11
332.873596
 21
134.000015
  0
LINE
  8
0
 10
348.873596
 20
124.000015
 11
348.873596
 21
134.000015
  0
LINE
  8
0
 10
335.873596
 20
174.000015
 11
345.873596
 21
174.000015
  0
LINE
  8
0
 10
335.873596
 20
172.000015
 11
335.873596
 21
174.000015
  0
LINE
  8
0
 10
336.685608
 20
172.000015
 11
336.685608
 21
174.000015
  0
LINE
  8
0
 10
345.061584
 20
172.000015
 11
345.061584
 21
174.000015
  0
LINE
  8
0
 10
345.873596
 20
172.000015
 11
345.873596
 21
174.000015
  0
LINE
  8
0
 10
80.873611
 20
166.000015
 11
80.873611
 21
134.000015
  0
LINE
  8
0
 10
86.873611
 20
160.000015
 11
86.873611
 21
140.000015
  0
LINE
  8
0
 10
360.873596
 20
166.000015
 11
360.873596
 21
134.000015
  0
LINE
  8
0
 10
354.873596
 20
160.000015
 11
354.873596
 21
140.000015
  0
LINE
  8
0
 10
80.873611
 20
166.000015
 11
145.873611
 21
166.000015
  0
LINE
  8
0
 10
80.873611
 20
134.000015
 11
145.873611
 21
134.000015
  0
LINE
  8
0
 10
80.873611
 20
132.000015
 11
92.873611
 21
132.000015
  0
LINE
  8
0
 10
80.873611
 20
168.000015
 11
92.373611
 21
168.000015
  0
LINE
  8
0
 10
78.873611
 20
166.000015
 11
78.873611
 21
134.000015
  0
LINE
  8
0
 10
362.873596
 20
166.000015
 11
362.873596
 21
134.000015
  0
LINE
  8
0
 10
80.873611
 20
160.000015
 11
145.873611
 21
160.000015
  0
LINE
  8
0
 10
80.873611
 20
140.000015
 11
145.873611
 21
140.000015
  0
LINE
  8
0
 10
92.873611
 20
124.000015
 11
108.873611
 21
124.000015
  0
LINE
  8
0
 10
92.873611
 20
124.000015
 11
92.873611
 21
134.000015
  0
LINE
  8
0
 10
108.873611
 20
124.000015
 11
108.873611
 21
134.000015
  0
LINE
  8
0
 10
92.373611
 20
172.000015
 11
109.373611
 21
172.000015
  0
LINE
  8
0
 10
95.873611
 20
174.000015
 11
105.873611
 21
174.000015
  0
LINE
  8
0
 10
95.873611
 20
172.000015
 11
95.873611
 21
174.000015
  0
LINE
  8
0
 10
96.685623
 20
172.000015
 11
96.685623
 21
174.000015
  0
LINE
  8
0
 10
105.061600
 20
172.000015
 11
105.061600
 21
174.000015
  0
LINE
  8
0
 10
105.873611
 20
172.000015
 11
105.873611
 21
174.000015
  0
LINE
  8
0
 10
108.873611
 20
132.000015
 11
145.873611
 21
132.000015
  0
LINE
  8
0
 10
109.373611
 20
168.000015
 11
145.873611
 21
168.000015
  0
LINE
  8
0
 10
109.373611
 20
172.000015
 11
109.373611
 21
166.000015
  0
LINE
  8
0
 10
92.373611
 20
172.000015
 11
92.373611
 21
166.000015
  0
LINE
  8
0
 10
100.873611
 20
171.240799
 11
100.873611
 21
166.759232
  0
LINE
  8
0
 10
349.373596
 20
172.000015
 11
349.373596
 21
166.000015
  0
LINE
  8
0
 10
349.373596
 20
172.000015
 11
332.373596
 21
172.000015
  0
LINE
  8
0
 10
332.373596
 20
172.000015
 11
332.373596
 21
166.000015
  0
LINE
  8
0
 10
340.873596
 20
171.240799
 11
340.873596
 21
166.759232
  0
LINE
  8
0
 10
349.373596
 20
168.000015
 11
360.873596
 21
168.000015
  0
LINE
  8
0
 10
348.873596
 20
132.000015
 11
360.873596
 21
132.000015
  0
LINE
  8
0
 10
150.873611
 20
95.000015
 11
290.873596
 21
95.000015
  0
LINE
  8
0
 10
150.873611
 20
205.000015
 11
290.873596
 21
205.000015
  0
LINE
  8
0
 10
295.873596
 20
200.000015
 11
295.873596
 21
100.000015
  0
LINE
  8
0
 10
145.873611
 20
200.000015
 11
145.873611
 21
100.000015
  0
LINE
  8
0
 10
295.873596
 20
160.000015
 11
360.873596
 21
160.000015
  0
LINE
  8
0
 10
295.873596
 20
166.000015
 11
360.873596
 21
166.000015
  0
LINE
  8
0
 10
295.873596
 20
168.000015
 11
332.373596
 21
168.000015
  0
LINE
  8
0
 10
295.873596
 20
140.000015
 11
360.873596
 21
140.000015
  0
LINE
  8
0
 10
295.873596
 20
134.000015
 11
360.873596
 21
134.000015
  0
LINE
  8
0
 10
290.873566
 20
95.000038
 11
295.873566
 21
100.000023
  0
LINE
  8
0
 10
290.873566
 20
204.999985
 11
295.873566
 21
199.999969
  0
LINE
  8
0
 10
150.873611
 20
205.000015
 11
145.873611
 21
200.000000
  0
LINE
  8
0
 10
145.873581
 20
99.999969
 11
150.873581
 21
94.999969
  0
LINE
  8
0
 10
295.873596
 20
132.000015
 11
332.873596
 21
132.000015
  0
LINE
  8
0
  6
CENTER
 10
100.873611
 20
117.256302
 11
100.873611
 21
180.114578
  0
LINE
  8
0
  6
CENTER
 10
340.873596
 20
117.256302
 11
340.873596
 21
180.114578
  0
LINE
  8
0
  6
CENTER
 10
283.373596
 20
117.500015
 11
283.373596
 21
97.500015
  0
LINE
  8
0
  6
CENTER
 10
273.373596
 20
107.500015
 11
293.373596
 21
107.500015
  0
LINE
  8
0
  6
CENTER
 10
158.373611
 20
117.500015
 11
158.373611
 21
97.500015
  0
LINE
  8
0
  6
CENTER
 10
168.373611
 20
107.500015
 11
148.373611
 21
107.500015
  0
LINE
  8
0
  6
CENTER
 10
158.373611
 20
182.500015
 11
158.373611
 21
202.500015
  0
LINE
  8
0
  6
CENTER
 10
168.373611
 20
192.500015
 11
148.373611
 21
192.500015
  0
LINE
  8
0
  6
CENTER
 10
273.373596
 20
192.500015
 11
293.373596
 21
192.500015
  0
LINE
  8
0
  6
CENTER
 10
283.373596
 20
182.500015
 11
283.373596
 21
202.500015
  0
LINE
  8
0
 10
581.747131
 20
-83.558472
 11
601.747131
 21
-83.558472
  0
LINE
  8
0
 10
575.747131
 20
-89.558472
 11
607.747131
 21
-89.558472
  0
LINE
  8
0
 10
601.747131
 20
-83.558472
 11
601.747131
 21
-126.558472
  0
LINE
  8
0
 10
581.747131
 20
-83.558472
 11
581.747131
 21
-126.558472
  0
LINE
  8
0
 10
575.747131
 20
-89.558472
 11
575.747131
 21
-126.558472
  0
LINE
  8
0
 10
565.747131
 20
-93.558472
 11
565.747131
 21
-109.558472
  0
LINE
  8
0
 10
565.747131
 20
-93.558472
 11
575.747131
 21
-93.558472
  0
LINE
  8
0
 10
565.747131
 20
-109.558472
 11
575.747131
 21
-109.558472
  0
LINE
  8
0
 10
613.747131
 20
-93.058472
 11
613.747131
 21
-110.058502
  0
LINE
  8
0
 10
608.506287
 20
-106.466034
 11
612.987915
 21
-106.466034
  0
LINE
  8
0
 10
608.506348
 20
-96.651001
 11
612.987915
 21
-96.651001
  0
LINE
  8
0
 10
608.506348
 20
-91.743469
 11
612.987915
 21
-91.743469
  0
LINE
  8
0
 10
612.987183
 20
-91.744026
 11
613.746399
 21
-93.059029
  0
LINE
  8
0
 10
612.987061
 20
-111.373039
 11
613.746277
 21
-110.058037
  0
LINE
  8
0
 10
608.506409
 20
-111.373474
 11
612.987915
 21
-111.373474
  0
LINE
  8
0
 10
608.505371
 20
-91.743164
 11
607.746155
 21
-93.058159
  0
LINE
  8
0
 10
608.505615
 20
-111.373772
 11
607.746399
 21
-110.058769
  0
LINE
  8
0
 10
615.747131
 20
-96.558472
 11
615.747131
 21
-106.558472
  0
LINE
  8
0
 10
613.747131
 20
-96.558472
 11
615.747131
 21
-96.558472
  0
LINE
  8
0
 10
613.747131
 20
-97.370483
 11
615.747131
 21
-97.370483
  0
LINE
  8
0
 10
613.747131
 20
-105.746460
 11
615.747131
 21
-105.746460
  0
LINE
  8
0
 10
613.747131
 20
-106.558472
 11
615.747131
 21
-106.558472
  0
LINE
  8
0
 10
607.747131
 20
-89.558472
 11
607.747131
 21
-126.558472
  0
LINE
  8
0
 10
589.979614
 20
-103.326393
 11
593.515137
 21
-99.790863
  0
LINE
  8
0
 10
589.979553
 20
-99.790527
 11
593.515137
 21
-103.326065
  0
LINE
  8
0
 10
646.747131
 20
-62.558472
 11
646.747131
 21
-70.558472
  0
LINE
  8
0
 10
536.747131
 20
-62.558472
 11
536.747131
 21
-70.558472
  0
LINE
  8
0
 10
536.747131
 20
-62.558472
 11
646.747131
 21
-62.558472
  0
LINE
  8
0
 10
536.747131
 20
-70.558472
 11
646.747131
 21
-70.558472
  0
LINE
  8
0
 10
641.747131
 20
-62.558472
 11
641.747131
 21
-70.558472
  0
LINE
  8
0
 10
563.747131
 20
-122.558472
 11
551.747131
 21
-122.558472
  0
LINE
  8
0
 10
565.247131
 20
-75.558472
 11
550.247131
 21
-75.558472
  0
LINE
  8
0
 10
565.246948
 20
-75.558357
 11
570.246948
 21
-70.558372
  0
LINE
  8
0
 10
550.247375
 20
-75.558128
 11
545.247437
 21
-70.558144
  0
LINE
  8
0
 10
541.747131
 20
-62.558472
 11
541.747131
 21
-70.558472
  0
LINE
  8
0
 10
563.746460
 20
-122.558502
 11
565.246460
 21
-75.558495
  0
LINE
  8
0
 10
551.746887
 20
-122.558495
 11
550.246887
 21
-75.558495
  0
LINE
  8
0
 10
619.746521
 20
-122.558479
 11
618.246521
 21
-75.558472
  0
LINE
  8
0
 10
619.747131
 20
-122.558472
 11
631.747131
 21
-122.558472
  0
LINE
  8
0
 10
631.746643
 20
-122.558456
 11
633.246643
 21
-75.558472
  0
LINE
  8
0
 10
618.246826
 20
-75.558594
 11
613.246887
 21
-70.558609
  0
LINE
  8
0
 10
618.247131
 20
-75.558472
 11
633.247131
 21
-75.558472
  0
LINE
  8
0
 10
633.247070
 20
-75.558380
 11
638.247070
 21
-70.558350
  0
LINE
  8
0
 10
575.747131
 20
-126.558472
 11
607.747131
 21
-126.558472
  0
LINE
  8
0
 10
575.747131
 20
-130.558472
 11
607.747131
 21
-130.558472
  0
LINE
  8
0
 10
538.747131
 20
-108.558472
 11
551.300171
 21
-108.558472
  0
LINE
  8
0
 10
538.747131
 20
-88.558472
 11
538.747131
 21
-108.558472
  0
LINE
  8
0
 10
538.747131
 20
-88.558472
 11
550.661926
 21
-88.558472
  0
LINE
  8
0
 10
565.747131
 20
-106.157806
 11
564.270325
 21
-106.157806
  0
LINE
  8
0
 10
575.747131
 20
-90.959137
 11
564.755371
 21
-90.959137
  0
LINE
  8
0
 10
564.831970
 20
-88.558472
 11
581.747131
 21
-88.558472
  0
LINE
  8
0
 10
550.738464
 20
-90.959137
 11
538.747131
 21
-90.959137
  0
LINE
  8
0
 10
551.223572
 20
-106.157806
 11
538.747131
 21
-106.157806
  0
LINE
  8
0
 10
564.193665
 20
-108.558472
 11
565.747131
 21
-108.558472
  0
LINE
  8
0
 10
644.747131
 20
-108.558472
 11
632.194092
 21
-108.558472
  0
LINE
  8
0
 10
632.270691
 20
-106.157806
 11
644.747131
 21
-106.157806
  0
LINE
  8
0
 10
644.747131
 20
-88.558472
 11
644.747131
 21
-108.558472
  0
LINE
  8
0
 10
632.755798
 20
-90.959137
 11
644.747131
 21
-90.959137
  0
LINE
  8
0
 10
644.747131
 20
-88.558472
 11
632.832336
 21
-88.558472
  0
LINE
  8
0
 10
618.662292
 20
-88.558472
 11
601.747131
 21
-88.558472
  0
LINE
  8
0
 10
607.747131
 20
-90.959137
 11
618.738892
 21
-90.959137
  0
LINE
  8
0
 10
615.747131
 20
-106.157806
 11
619.223938
 21
-106.157806
  0
LINE
  8
0
 10
619.300598
 20
-108.558472
 11
613.747131
 21
-108.558472
  0
LINE
  8
0
  6
CENTER
 10
536.747131
 20
-98.558472
 11
646.747131
 21
-98.558472
  0
LINE
  8
0
  6
CENTER
 10
559.003418
 20
-101.558472
 11
621.861694
 21
-101.558472
  0
LINE
  8
0
  6
DASHED
 10
543.747131
 20
-62.558472
 11
543.747131
 21
-70.558472
  0
LINE
  8
0
  6
CENTER
 10
549.247131
 20
-56.558472
 11
549.247131
 21
-73.558472
  0
LINE
  8
0
  6
DASHED
 10
554.747131
 20
-62.558472
 11
554.747131
 21
-70.558472
  0
LINE
  8
0
  6
DASHED
 10
628.747131
 20
-62.558472
 11
628.747131
 21
-70.558472
  0
LINE
  8
0
  6
CENTER
 10
634.247131
 20
-56.558472
 11
634.247131
 21
-73.558472
  0
LINE
  8
0
  6
DASHED
 10
639.747131
 20
-62.558472
 11
639.747131
 21
-70.558472
  0
ARC
  8
0
 10
652.794678
 20
-464.166809
 40
2.211891
 50
291.688965
 51
0.000000
  0
ARC
  8
0
 10
546.070862
 20
-470.091400
 40
4.423767
 50
0.000000
 51
90.000000
  0
ARC
  8
0
 10
582.567200
 20
-493.869354
 40
4.423798
 50
270.000000
 51
0.000000
  0
ARC
  8
0
 10
580.355164
 20
-472.303223
 40
6.635681
 50
0.000000
 51
90.000000
  0
ARC
  8
0
 10
620.722290
 20
-473.625641
 40
4.423780
 50
294.999969
 51
0.000000
  0
ARC
  8
0
 10
620.722290
 20
-470.091400
 40
4.423767
 50
0.000000
 51
90.000000
  0
ARC
  8
0
 10
655.006836
 20
-465.667572
 40
6.635680
 50
291.688385
 51
0.000000
  0
ARC
  8
0
  6
PHANTOM
 10
-228.373596
 20
112.058472
 40
1.000000
 50
90.000000
 51
180.000000
  0
ARC
  8
0
  6
PHANTOM
 10
-213.373596
 20
112.058472
 40
1.000000
 50
0.000000
 51
90.000000
  0
ARC
  8
0
  6
PHANTOM
 10
-213.373596
 20
97.058472
 40
1.000000
 50
270.000000
 51
0.000000
  0
ARC
  8
0
  6
PHANTOM
 10
-228.373596
 20
97.058472
 40
1.000000
 50
180.000000
 51
270.000000
  0
ARC
  8
0
  6
PHANTOM
 10
-687.026367
 20
-417.441498
 40
50.899994
 50
334.391388
 51
25.608458
  0
ARC
  8
0
  6
PHANTOM
 10
-595.226440
 20
-373.441498
 40
50.899979
 50
154.391418
 51
205.608490
  0
ARC
  8
0
  6
PHANTOM
 10
-443.026398
 20
-417.441498
 40
50.900021
 50
334.391388
 51
25.608458
  0
ARC
  8
0
  6
PHANTOM
 10
-351.226410
 20
-373.441498
 40
50.900005
 50
154.391357
 51
205.608414
  0
ARC
  8
0
  6
PHANTOM
 10
-687.026367
 20
-162.882965
 40
50.899986
 50
334.391418
 51
25.608475
  0
ARC
  8
0
  6
PHANTOM
 10
-595.226440
 20
-118.882965
 40
50.899979
 50
154.391418
 51
205.608490
  0
ARC
  8
0
  6
PHANTOM
 10
-351.226410
 20
-118.882965
 40
50.900009
 50
154.391342
 51
205.608398
  0
ARC
  8
0
  6
PHANTOM
 10
-443.026398
 20
-162.882965
 40
50.900013
 50
334.391418
 51
25.608475
  0
ARC
  8
0
  6
PHANTOM
 10
-178.252808
 20
-395.441498
 40
44.000000
 50
107.341454
 51
72.658546
  0
ARC
  8
0
  6
PHANTOM
 10
100.073608
 20
-156.558533
 40
44.200005
 50
140.692352
 51
219.307617
  0
ARC
  8
0
  6
PHANTOM
 10
31.673584
 20
-212.558533
 40
44.199997
 50
320.692413
 51
39.307678
  0
ARC
  8
0
  6
PHANTOM
 10
341.673584
 20
-212.558533
 40
44.200005
 50
320.692444
 51
39.307678
  0
ARC
  8
0
  6
PHANTOM
 10
410.073608
 20
-156.558533
 40
44.200001
 50
140.692383
 51
219.307632
  0
ARC
  8
0
  6
PHANTOM
 10
100.073608
 20
178.000000
 40
44.200005
 50
140.692352
 51
219.307617
  0
ARC
  8
0
  6
PHANTOM
 10
31.673584
 20
122.000000
 40
44.199997
 50
320.692413
 51
39.307678
  0
ARC
  8
0
  6
PHANTOM
 10
341.673584
 20
122.000000
 40
44.200005
 50
320.692444
 51
39.307678
  0
ARC
  8
0
  6
PHANTOM
 10
410.073608
 20
178.000000
 40
44.200001
 50
140.692383
 51
219.307632
  0
ARC
  8
0
  6
PHANTOM
 10
591.747192
 20
-184.558533
 40
56.000000
 50
105.358887
 51
74.641113
  0
ARC
  8
0
 10
-521.747192
 20
123.558464
 40
2.250000
 50
63.612194
 51
116.387802
  0
ARC
  8
0
 10
-521.747192
 20
123.558464
 40
1.750001
 50
55.150120
 51
124.849876
  0
ARC
  8
0
 10
-521.747192
 20
123.558464
 40
1.750001
 50
235.150116
 51
304.849884
  0
ARC
  8
0
 10
-521.747192
 20
127.058464
 40
1.000025
 50
2.229445
 51
180.000000
  0
ARC
  8
0
 10
-521.747192
 20
123.558464
 40
2.250000
 50
243.612198
 51
296.387817
  0
CIRCLE
  8
0
 10
-510.747223
 20
120.558464
 40
1.700000
  0
CIRCLE
  8
0
 10
-532.747192
 20
120.558464
 40
1.700000
  0
CIRCLE
  8
0
 10
-540.747192
 20
289.117035
 40
2.750000
  0
CIRCLE
  8
0
 10
-540.747192
 20
289.117035
 40
3.250000
  0
ARC
  8
0
 10
-499.247223
 20
294.117035
 40
2.500000
 50
0.000000
 51
90.000000
  0
CIRCLE
  8
0
 10
-526.747192
 20
289.117035
 40
1.750000
  0
CIRCLE
  8
0
 10
-516.747192
 20
289.117035
 40
1.750000
  0
CIRCLE
  8
0
 10
-502.747223
 20
289.117035
 40
3.250000
  0
CIRCLE
  8
0
 10
-502.747223
 20
289.117035
 40
2.750000
  0
ARC
  8
0
 10
-499.247223
 20
284.117035
 40
2.500000
 50
270.000000
 51
0.000000
  0
ARC
  8
0
 10
-544.247192
 20
294.117035
 40
2.500000
 50
90.000000
 51
180.000000
  0
ARC
  8
0
 10
-544.247192
 20
284.117035
 40
2.500000
 50
180.000000
 51
270.000000
  0
CIRCLE
  8
0
  6
DASHED
 10
-526.747192
 20
289.117035
 40
3.150000
  0
CIRCLE
  8
0
  6
DASHED
 10
-516.747192
 20
289.117035
 40
3.150000
  0
ARC
  8
0
 10
-211.873749
 20
129.558578
 40
2.000000
 50
0.000000
 51
90.000000
  0
ARC
  8
0
 10
-229.873749
 20
129.558578
 40
2.000000
 50
90.000000
 51
180.000000
  0
CIRCLE
  8
0
 10
-564.126526
 20
-327.441589
 40
6.500000
  0
CIRCLE
  8
0
 10
-609.126526
 20
-327.441589
 40
6.500000
  0
ARC
  8
0
 10
-519.126526
 20
-325.441589
 40
7.999998
 50
231.317795
 51
308.682190
  0
ARC
  8
0
 10
-519.126526
 20
-329.941589
 40
5.999997
 50
213.557266
 51
326.442719
  0
ARC
  8
0
 10
-629.126526
 20
-351.441589
 40
2.000000
 50
90.000000
 51
270.000000
  0
ARC
  8
0
 10
-409.126526
 20
-351.441589
 40
2.000000
 50
270.000000
 51
90.000000
  0
CIRCLE
  8
0
 10
-474.126526
 20
-327.441589
 40
6.500000
  0
CIRCLE
  8
0
 10
-429.126526
 20
-327.441589
 40
6.500000
  0
ARC
  8
0
 10
-519.126526
 20
-325.441589
 40
7.999998
 50
51.317799
 51
128.682205
  0
ARC
  8
0
 10
-519.126526
 20
-308.941589
 40
5.000000
 50
0.000000
 51
180.000000
  0
ARC
  8
0
 10
-432.376526
 20
-116.495941
 40
9.387001
 50
249.743500
 51
290.256470
  0
ARC
  8
0
 10
-425.876526
 20
-130.269989
 40
9.387001
 50
69.743500
 51
110.256500
  0
ARC
  8
0
 10
-432.376526
 20
-130.269989
 40
9.387001
 50
69.743500
 51
110.256500
  0
ARC
  8
0
 10
-425.876526
 20
-116.495941
 40
9.387001
 50
249.743500
 51
290.256470
  0
ARC
  8
0
 10
-605.876526
 20
-116.495941
 40
9.387001
 50
249.743500
 51
290.256470
  0
ARC
  8
0
 10
-612.376526
 20
-116.495941
 40
9.387001
 50
249.743500
 51
290.256470
  0
ARC
  8
0
 10
-605.876526
 20
-130.269989
 40
9.387001
 50
69.743500
 51
110.256500
  0
ARC
  8
0
 10
-612.376526
 20
-130.269989
 40
9.387001
 50
69.743500
 51
110.256500
  0
ARC
  8
0
 10
-409.126526
 20
-155.882965
 40
2.000000
 50
270.000000
 51
0.000000
  0
ARC
  8
0
 10
-409.126526
 20
-125.882965
 40
2.000000
 50
0.000000
 51
90.000000
  0
ARC
  8
0
 10
-629.126526
 20
-155.882965
 40
2.000000
 50
180.000000
 51
270.000000
  0
ARC
  8
0
 10
-629.126526
 20
-125.882965
 40
2.000000
 50
90.000000
 51
180.000000
  0
CIRCLE
  8
0
 10
-569.126526
 20
-105.882965
 40
4.500000
  0
CIRCLE
  8
0
 10
-569.126526
 20
-175.882965
 40
4.500000
  0
CIRCLE
  8
0
 10
-469.126526
 20
-105.882965
 40
4.500000
  0
CIRCLE
  8
0
 10
-469.126526
 20
-175.882965
 40
4.500000
  0
CIRCLE
  8
0
 10
-178.253220
 20
-327.441223
 40
5.000000
  0
ARC
  8
0
 10
-159.930710
 20
-333.070435
 40
3.322533
 50
145.615005
 51
214.384995
  0
ARC
  8
0
 10
-150.834030
 20
-327.441193
 40
12.419250
 50
162.411758
 51
197.588242
  0
ARC
  8
0
 10
-159.930710
 20
-321.812042
 40
3.322533
 50
145.615005
 51
214.384995
  0
ARC
  8
0
 10
-161.575729
 20
-333.070435
 40
3.322533
 50
325.614990
 51
34.384998
  0
ARC
  8
0
 10
-170.672470
 20
-327.441193
 40
12.419250
 50
342.411774
 51
17.588238
  0
ARC
  8
0
 10
-161.575729
 20
-321.812042
 40
3.322533
 50
325.614990
 51
34.384998
  0
ARC
  8
0
 10
-193.253220
 20
-351.441223
 40
2.000000
 50
90.000000
 51
270.000000
  0
ARC
  8
0
 10
-163.253220
 20
-351.441223
 40
2.000000
 50
270.000000
 51
90.000000
  0
CIRCLE
  8
0
 10
160.873505
 20
-101.558472
 40
8.000000
  0
CIRCLE
  8
0
 10
100.873505
 20
-101.558472
 40
8.000000
  0
ARC
  8
0
 10
220.873505
 20
-98.558472
 40
12.000000
 50
57.202831
 51
122.797173
  0
ARC
  8
0
 10
220.873505
 20
-98.558472
 40
10.000000
 50
229.458405
 51
310.541595
  0
ARC
  8
0
 10
220.873505
 20
-98.558472
 40
12.000000
 50
237.202835
 51
302.797180
  0
ARC
  8
0
 10
220.873505
 20
-98.558472
 40
10.000000
 50
49.458401
 51
130.541595
  0
ARC
  8
0
 10
220.873505
 20
-79.058472
 40
6.500000
 50
0.000000
 51
179.999939
  0
ARC
  8
0
 10
360.873505
 20
-128.558472
 40
2.000000
 50
270.000000
 51
90.000000
  0
ARC
  8
0
 10
80.873505
 20
-128.558472
 40
2.000000
 50
90.000000
 51
270.000000
  0
CIRCLE
  8
0
 10
280.873505
 20
-101.558472
 40
8.000000
  0
CIRCLE
  8
0
 10
340.873505
 20
-101.558472
 40
8.000000
  0
CIRCLE
  8
0
 10
158.373611
 20
192.500015
 40
5.500000
  0
CIRCLE
  8
0
 10
158.373611
 20
107.500015
 40
5.500000
  0
CIRCLE
  8
0
 10
283.373596
 20
192.500015
 40
5.500000
  0
CIRCLE
  8
0
 10
283.373596
 20
107.500015
 40
5.500000
  0
ARC
  8
0
 10
336.623596
 20
178.275101
 40
12.275101
 50
249.743149
 51
290.256897
  0
ARC
  8
0
 10
336.623596
 20
159.724930
 40
12.275086
 50
69.743118
 51
110.256859
  0
ARC
  8
0
 10
345.123596
 20
159.724930
 40
12.275086
 50
69.743118
 51
110.256859
  0
ARC
  8
0
 10
345.123596
 20
178.275101
 40
12.275101
 50
249.743149
 51
290.256897
  0
ARC
  8
0
 10
105.123611
 20
178.275101
 40
12.275091
 50
249.743057
 51
290.256836
  0
ARC
  8
0
 10
96.623611
 20
178.275101
 40
12.275091
 50
249.743057
 51
290.256836
  0
ARC
  8
0
 10
105.123611
 20
159.724930
 40
12.275104
 50
69.743111
 51
110.256889
  0
ARC
  8
0
 10
96.623611
 20
159.724930
 40
12.275104
 50
69.743111
 51
110.256889
  0
ARC
  8
0
 10
360.873596
 20
134.000015
 40
2.000000
 50
270.000000
 51
0.000000
  0
ARC
  8
0
 10
360.873596
 20
166.000015
 40
2.000000
 50
0.000000
 51
90.000000
  0
ARC
  8
0
 10
80.873611
 20
166.000015
 40
2.000000
 50
90.000000
 51
180.000000
  0
ARC
  8
0
 10
80.873611
 20
134.000015
 40
2.000000
 50
180.000000
 51
270.000000
  0
ARC
  8
0
 10
607.747131
 20
-128.558472
 40
2.000000
 50
270.000000
 51
90.000000
  0
ARC
  8
0
 10
575.747131
 20
-128.558472
 40
2.000000
 50
90.000000
 51
270.000000
  0
CIRCLE
  8
0
 10
591.747131
 20
-101.558472
 40
5.000000
  0
ARC
  8
0
 10
612.091980
 20
-108.919708
 40
4.344831
 50
146.227173
 51
214.384949
  0
ARC
  8
0
 10
612.091980
 20
-94.197235
 40
4.344842
 50
145.615051
 51
213.772827
  0
ARC
  8
0
 10
623.987732
 20
-101.558533
 40
16.240604
 50
162.411591
 51
197.588318
  0
ARC
  8
0
 10
609.402283
 20
-108.919708
 40
4.344846
 50
325.614960
 51
33.772831
  0
ARC
  8
0
 10
597.506531
 20
-101.558533
 40
16.240599
 50
342.411621
 51
17.588364
  0
ARC
  8
0
 10
609.402283
 20
-94.197235
 40
4.344831
 50
326.227173
 51
34.384953
  0
TEXT
  8
0
 10
452.675018
 20
466.214996
 40
17.000000
  1
DATE : NOV ,1991
 50
0.000000
 41
1.052631
 51
0.000000
  7
STANDARD
  0
TEXT
  8
0
 10
-711.809937
 20
463.514984
 40
20.000000
  1
ORC SM MOUNT
 50
0.000000
 41
1.052632
 51
0.000000
  7
STANDARD
  0
TEXT
  8
0
 10
17.392859
 20
404.912811
 40
20.000000
  1
BORE : 80
 50
0.000000
 41
1.052632
 51
0.000000
  7
STANDARD
  0
TEXT
  8
0
 10
-724.354309
 20
404.912811
 40
20.000000
  1
BORE : 10
 50
0.000000
 41
1.052632
 51
0.000000
  7
STANDARD
  0
TEXT
  8
0
 10
-724.354309
 20
-47.000000
 40
20.000000
  1
BORE : 63
 50
0.000000
 41
1.052632
 51
0.000000
  7
STANDARD
  0
ENDSEC
  0
EOF
