  0
SECTION
  2
HEADER
  0
ENDSEC
  0
SECTION
  2
TABLES
  0
TABLE
  2
LTYPE
 70
     4
  0
LTYPE
  2
CONTINUOUS
 70
    64
  3
Solid line
 72
    65
 73
     0
 40
0.000000
  0
LTYPE
  2
DASHED
 70
    64
  3
__ __ __ __ __ __ __ __ __ __ __ __ __ __ __
 72
    65
 73
     2
 40
3.500000
 49
2.000000
 49
-1.500000
  0
LTYPE
  2
CENTER
 70
    64
  3
____ _ ____ _ ____ _ ____ _ ____ _ ____ _ ____
 72
    65
 73
     4
 40
17.500000
 49
13.000000
 49
-1.500000
 49
1.500000
 49
-1.500000
  0
LTYPE
  2
PHANTOM
 70
    64
  3
_____ _ _ _____ _ _ _____ _ _ _____ _ _ ____  
 72
    65
 73
     6
 40
15.500000
 49
8.000000
 49
-1.500000
 49
1.500000
 49
-1.500000
 49
1.500000
 49
-1.500000
  0
LTYPE
  2
DASHED1
 70
    64
  3
__ __ __ __ __ __ __ __ __ __ __ __ __ __ __
 72
    65
 73
     2
 40
1.500000
 49
1.000000
 49
-0.500000
  0
LTYPE
  2
DASHED2
 70
    64
  3
__ __ __ __ __ __ __ __ __ __ __ __ __ __ __
 72
    65
 73
     2
 40
3.500000
 49
2.500000
 49
-1.000000
  0
LTYPE
  2
DASHED3
 70
    64
  3
__ __ __ __ __ __ __ __ __ __ __ __ __ __ __
 72
    65
 73
     2
 40
6.000000
 49
4.000000
 49
-2.000000
  0
LTYPE
  2
DASHED4
 70
    64
  3
__ __ __ __ __ __ __ __ __ __ __ __ __ __ __
 72
    65
 73
     2
 40
12.000000
 49
10.000000
 49
-2.000000
  0
LTYPE
  2
DASHED5
 70
    64
  3
__ __ __ __ __ __ __ __ __ __ __ __ __ __ __
 72
    65
 73
     2
 40
17.000000
 49
15.000000
 49
-2.000000
  0
LTYPE
  2
DASHED6
 70
    64
  3
__ __ __ __ __ __ __ __ __ __ __ __ __ __ __
 72
    65
 73
     2
 40
29.000000
 49
27.000000
 49
-2.000000
  0
LTYPE
  2
PHANTOM1
 70
    64
  3
_____ _ _ _____ _ _ _____ _ _ _____ _ _ ____  
 72
    65
 73
     6
 40
31.000000
 49
25.000000
 49
-1.500000
 49
1.000000
 49
-1.000000
 49
1.000000
 49
-1.500000
  0
LTYPE
  2
PHANTOM2
 70
    64
  3
_____ _ _ _____ _ _ _____ _ _ _____ _ _ ____  
 72
    65
 73
     6
 40
36.000000
 49
27.000000
 49
-1.500000
 49
2.500000
 49
-1.000000
 49
2.500000
 49
-1.500000
  0
LTYPE
  2
PHANTOM3
 70
    64
  3
_____ _ _ _____ _ _ _____ _ _ _____ _ _ ____  
 72
    65
 73
     6
 40
78.000000
 49
64.000000
 49
-2.000000
 49
4.000000
 49
-2.000000
 49
4.000000
 49
-2.000000
  0
LTYPE
  2
CENTER1
 70
    64
  3
____ _ ____ _ ____ _ ____ _ ____ _ ____ _ ____
 72
    65
 73
     4
 40
19.000000
 49
14.000000
 49
-1.000000
 49
3.000000
 49
-1.000000
  0
LTYPE
  2
CENTER2
 70
    64
  3
____ _ ____ _ ____ _ ____ _ ____ _ ____ _ ____
 72
    65
 73
     4
 40
28.500000
 49
25.000000
 49
-1.000000
 49
1.500000
 49
-1.000000
  0
LTYPE
  2
CENTER3
 70
    64
  3
____ _ ____ _ ____ _ ____ _ ____ _ ____ _ ____
 72
    65
 73
     4
 40
31.500000
 49
27.000000
 49
-1.000000
 49
2.500000
 49
-1.000000
  0
LTYPE
  2
CENTER4
 70
    64
  3
____ _ ____ _ ____ _ ____ _ ____ _ ____ _ ____
 72
    65
 73
     4
 40
50.000000
 49
45.000000
 49
-1.000000
 49
3.000000
 49
-1.000000
  0
LTYPE
  2
CENTER5
 70
    64
  3
____ _ ____ _ ____ _ ____ _ ____ _ ____ _ ____
 72
    65
 73
     4
 40
100.000000
 49
92.000000
 49
-2.000000
 49
4.000000
 49
-2.000000
  0
LTYPE
  2
SBK1
 70
    64
  3
______ _ _ _ ______ _ _ _ ______ _ _ _ _____  
 72
    65
 73
     8
 40
60.500000
 49
45.000000
 49
-2.000000
 49
2.500000
 49
-2.000000
 49
2.500000
 49
-2.000000
 49
2.500000
 49
-2.000000
  0
LTYPE
  2
SBK2
 70
    64
  3
______ _ _ _ ______ _ _ _ ______ _ _ _ _____  
 72
    65
 73
     8
 40
84.000000
 49
64.000000
 49
-2.000000
 49
4.000000
 49
-2.000000
 49
4.000000
 49
-2.000000
 49
4.000000
 49
-2.000000
  0
LTYPE
  2
STCH
 70
    64
  3
__ __ __ __ __ __ __ __ __ __ __ __ __ __ __
 72
    65
 73
     2
 40
3.000000
 49
1.000000
 49
-2.000000
  0
LTYPE
  2
MTCH
 70
    64
  3
_____ _ _ _____ _ _ _____ _ _ _____ _ _ ____  
 72
    65
 73
     6
 40
80.000000
 49
66.000000
 49
-2.000000
 49
4.000000
 49
-2.000000
 49
4.000000
 49
-2.000000
  0
ENDTAB
  0
TABLE
  2
LAYER
 70
     1
  0
LAYER
  2
0
 70
     0
 62
     7
  6
CONTINUOUS
  0
ENDTAB
  0
TABLE
  2
STYLE
 70
     1
  0
STYLE
  2
STANDARD
 70
     0
 40
0.000000
 41
1.000000
 50
0.000000
 71
     0
 42
0.200000
  3
txt
  4
BIGFONT
  0
ENDTAB
  0
TABLE
  2
VIEW
 70
     0
  0
ENDTAB
  0
ENDSEC
  0
SECTION
  2
BLOCKS
  0
ENDSEC
  0
SECTION
  2
ENTITIES
  0
POINT
  8
0
 10
-139.563202
 20
112.978188
  0
POINT
  8
0
 10
-139.563339
 20
368.934662
  0
POINT
  8
0
 10
321.310303
 20
112.978233
  0
POINT
  8
0
 10
112.436798
 20
112.978188
  0
POINT
  8
0
 10
112.436676
 20
368.934662
  0
POINT
  8
0
 10
365.310303
 20
112.978233
  0
POINT
  8
0
 10
-161.747208
 20
-381.837769
  0
POINT
  8
0
 10
-161.747223
 20
-127.279236
  0
POINT
  8
0
 10
363.252899
 20
-381.837860
  0
POINT
  8
0
 10
133.252792
 20
-381.837769
  0
POINT
  8
0
 10
133.252777
 20
-127.279236
  0
POINT
  8
0
 10
419.252869
 20
-381.837860
  0
LINE
  8
0
 10
436.658356
 20
-451.912964
 11
741.747192
 21
-451.912964
  0
LINE
  8
0
 10
-436.658356
 20
451.912811
 11
-436.658356
 21
509.117035
  0
LINE
  8
0
 10
-741.747192
 20
451.912811
 11
-436.658356
 21
451.912811
  0
LINE
  8
0
 10
-741.747192
 20
509.117035
 11
741.747192
 21
509.117035
  0
LINE
  8
0
 10
-741.747192
 20
-509.117035
 11
741.747192
 21
-509.117035
  0
LINE
  8
0
 10
741.747192
 20
509.117035
 11
741.747192
 21
-509.117035
  0
LINE
  8
0
 10
-741.747192
 20
-509.117035
 11
-741.747192
 21
509.117035
  0
LINE
  8
0
 10
436.658356
 20
-451.912964
 11
436.658356
 21
-509.117035
  0
LINE
  8
0
 10
436.658356
 20
509.117035
 11
436.658356
 21
451.912811
  0
LINE
  8
0
 10
436.658356
 20
451.912811
 11
741.747192
 21
451.912811
  0
LINE
  8
0
 10
516.763306
 20
-472.303223
 11
541.647156
 21
-472.303223
  0
LINE
  8
0
 10
516.763306
 20
-498.292999
 11
550.494751
 21
-498.292999
  0
LINE
  8
0
 10
516.763306
 20
-491.657379
 11
541.647156
 21
-491.657379
  0
LINE
  8
0
 10
516.763306
 20
-465.667511
 11
546.070862
 21
-465.667511
  0
LINE
  8
0
 10
541.647156
 20
-472.303223
 11
541.647156
 21
-491.657379
  0
LINE
  8
0
 10
550.494751
 20
-470.091400
 11
550.494751
 21
-498.292999
  0
LINE
  8
0
 10
516.763306
 20
-491.657379
 11
516.763306
 21
-498.292999
  0
LINE
  8
0
 10
586.990845
 20
-472.303223
 11
586.990845
 21
-493.869354
  0
LINE
  8
0
 10
555.471375
 20
-465.667511
 11
555.471375
 21
-472.303223
  0
LINE
  8
0
 10
587.875732
 20
-465.169983
 11
591.027710
 21
-465.169983
  0
LINE
  8
0
 10
587.875732
 20
-460.746094
 11
591.027710
 21
-460.746094
  0
LINE
  8
0
 10
591.027710
 20
-460.746094
 11
591.027710
 21
-465.169983
  0
LINE
  8
0
 10
587.875732
 20
-460.746094
 11
587.875732
 21
-465.169983
  0
LINE
  8
0
 10
586.216614
 20
-460.746094
 11
586.216614
 21
-465.169983
  0
LINE
  8
0
 10
565.532166
 20
-460.746094
 11
572.401855
 21
-460.746094
  0
LINE
  8
0
 10
571.082458
 20
-465.666931
 11
572.401123
 21
-460.745453
  0
LINE
  8
0
 10
564.213440
 20
-465.667480
 11
565.532104
 21
-460.746002
  0
LINE
  8
0
 10
571.083191
 20
-465.667511
 11
580.355164
 21
-465.667511
  0
LINE
  8
0
 10
569.305176
 20
-472.303223
 11
578.143372
 21
-472.303223
  0
LINE
  8
0
 10
573.285767
 20
-498.292999
 11
582.567200
 21
-498.292999
  0
LINE
  8
0
 10
571.507446
 20
-491.657257
 11
573.285522
 21
-498.292725
  0
LINE
  8
0
 10
571.507568
 20
-491.657379
 11
578.143372
 21
-491.657379
  0
LINE
  8
0
 10
562.341553
 20
-498.293396
 11
569.305420
 21
-472.303528
  0
LINE
  8
0
 10
555.471375
 20
-472.303223
 11
562.435425
 21
-472.303223
  0
LINE
  8
0
 10
555.471130
 20
-498.292755
 11
562.435242
 21
-472.302887
  0
LINE
  8
0
 10
555.471375
 20
-498.292999
 11
562.341248
 21
-498.292999
  0
LINE
  8
0
 10
555.471375
 20
-465.667511
 11
564.213440
 21
-465.667511
  0
LINE
  8
0
 10
578.143372
 20
-472.303223
 11
578.143372
 21
-491.657379
  0
LINE
  8
0
 10
583.064636
 20
-460.746094
 11
586.216614
 21
-460.746094
  0
LINE
  8
0
 10
583.064636
 20
-465.169983
 11
586.216614
 21
-465.169983
  0
LINE
  8
0
 10
583.064636
 20
-460.746094
 11
583.064636
 21
-465.169983
  0
LINE
  8
0
 10
603.027161
 20
-460.746094
 11
611.874634
 21
-460.746094
  0
LINE
  8
0
 10
616.684692
 20
-480.390106
 11
622.592529
 21
-477.635315
  0
LINE
  8
0
 10
611.874634
 20
-485.468903
 11
611.874634
 21
-498.292999
  0
LINE
  8
0
 10
603.027161
 20
-486.758148
 11
603.027161
 21
-498.292999
  0
LINE
  8
0
 10
611.874634
 20
-465.667511
 11
620.722290
 21
-465.667511
  0
LINE
  8
0
 10
611.874634
 20
-460.746094
 11
611.874634
 21
-465.667511
  0
LINE
  8
0
 10
603.027161
 20
-460.746094
 11
603.027161
 21
-465.667511
  0
LINE
  8
0
 10
625.146118
 20
-470.091400
 11
625.146118
 21
-473.625641
  0
LINE
  8
0
 10
616.684753
 20
-480.389984
 11
625.146667
 21
-484.335999
  0
LINE
  8
0
 10
611.874634
 20
-485.468781
 11
625.146179
 21
-491.657349
  0
LINE
  8
0
 10
592.520630
 20
-484.335693
 11
592.520630
 21
-491.657379
  0
LINE
  8
0
 10
592.521545
 20
-484.336395
 11
618.325195
 21
-472.303925
  0
LINE
  8
0
 10
592.520630
 20
-491.657349
 11
603.027344
 21
-486.757965
  0
LINE
  8
0
 10
625.146118
 20
-484.335693
 11
625.146118
 21
-491.657379
  0
LINE
  8
0
 10
592.520630
 20
-465.667511
 11
592.520630
 21
-472.303223
  0
LINE
  8
0
 10
603.027161
 20
-498.292999
 11
611.874634
 21
-498.292999
  0
LINE
  8
0
 10
592.520630
 20
-472.303223
 11
618.324219
 21
-472.303223
  0
LINE
  8
0
 10
592.520630
 20
-465.667511
 11
603.027161
 21
-465.667511
  0
LINE
  8
0
 10
655.007935
 20
-472.809448
 11
657.460022
 21
-471.834076
  0
LINE
  8
0
 10
655.006836
 20
-472.808868
 11
655.006836
 21
-498.292999
  0
LINE
  8
0
 10
646.159119
 20
-498.292999
 11
655.006836
 21
-498.292999
  0
LINE
  8
0
 10
627.910522
 20
-483.584991
 11
646.158691
 21
-476.327423
  0
LINE
  8
0
 10
627.911011
 20
-476.443848
 11
653.612183
 21
-466.222107
  0
LINE
  8
0
 10
646.159119
 20
-476.327606
 11
646.159119
 21
-498.292999
  0
LINE
  8
0
 10
655.006836
 20
-462.736908
 11
655.006836
 21
-464.166809
  0
LINE
  8
0
 10
661.642273
 20
-462.736908
 11
661.642273
 21
-465.667572
  0
LINE
  8
0
 10
627.911011
 20
-476.443878
 11
627.911011
 21
-483.585083
  0
LINE
  8
0
 10
655.006836
 20
-462.736908
 11
661.642273
 21
-462.736908
  0
LINE
  8
0
 10
516.763306
 20
-465.667511
 11
516.763306
 21
-472.303223
  0
LINE
  8
0
 10
-741.747192
 20
0.000000
 11
741.747192
 21
0.000000
  0
LINE
  8
0
  6
PHANTOM
 10
102.436798
 20
156.978210
 11
112.436798
 21
156.978210
  0
LINE
  8
0
  6
PHANTOM
 10
-391.563202
 20
68.978203
 11
112.436798
 21
68.978203
  0
LINE
  8
0
  6
PHANTOM
 10
-391.563202
 20
156.978210
 11
-381.563202
 21
156.978210
  0
LINE
  8
0
  6
PHANTOM
 10
-391.563202
 20
324.934601
 11
112.436798
 21
324.934601
  0
LINE
  8
0
  6
PHANTOM
 10
-395.781708
 20
382.049469
 11
-381.563202
 21
382.049469
  0
LINE
  8
0
  6
PHANTOM
 10
-387.344696
 20
355.819733
 11
-381.563202
 21
355.819733
  0
LINE
  8
0
  6
PHANTOM
 10
-391.563202
 20
412.934601
 11
112.436798
 21
412.934601
  0
LINE
  8
0
  6
PHANTOM
 10
102.436798
 20
382.049469
 11
108.218292
 21
382.049469
  0
LINE
  8
0
  6
PHANTOM
 10
102.436798
 20
355.819733
 11
116.655304
 21
355.819733
  0
LINE
  8
0
  6
PHANTOM
 10
-456.747192
 20
-71.279259
 11
133.252808
 21
-71.279259
  0
LINE
  8
0
  6
PHANTOM
 10
-448.754150
 20
-142.111664
 11
-443.747192
 21
-142.111664
  0
LINE
  8
0
  6
PHANTOM
 10
-464.740234
 20
-112.446861
 11
-443.747192
 21
-112.446861
  0
LINE
  8
0
  6
PHANTOM
 10
-456.747192
 20
-183.279266
 11
133.252808
 21
-183.279266
  0
LINE
  8
0
  6
PHANTOM
 10
120.252808
 20
-142.111664
 11
141.245850
 21
-142.111664
  0
LINE
  8
0
  6
PHANTOM
 10
120.252808
 20
-112.446861
 11
125.259766
 21
-112.446861
  0
LINE
  8
0
  6
PHANTOM
 10
120.252808
 20
-325.837769
 11
133.252808
 21
-325.837769
  0
LINE
  8
0
  6
PHANTOM
 10
-456.747192
 20
-437.837769
 11
133.252808
 21
-437.837769
  0
LINE
  8
0
  6
PHANTOM
 10
-456.747192
 20
-325.837769
 11
-443.747192
 21
-325.837769
  0
LINE
  8
0
  6
CENTER
 10
-139.563202
 20
218.909698
 11
-139.563202
 21
49.389168
  0
LINE
  8
0
  6
CENTER
 10
-426.292572
 20
112.978203
 11
140.875580
 21
112.978203
  0
LINE
  8
0
  6
CENTER
 10
-139.563187
 20
432.932648
 11
-139.563187
 21
305.345581
  0
LINE
  8
0
  6
CENTER
 10
-421.916077
 20
368.934601
 11
139.603455
 21
368.934601
  0
LINE
  8
0
  6
CENTER
 10
321.310425
 20
201.199768
 11
321.310425
 21
47.978203
  0
LINE
  8
0
  6
CENTER
 10
256.310425
 20
112.978203
 11
386.310425
 21
112.978203
  0
LINE
  8
0
  6
CENTER
 10
-488.015503
 20
-381.837769
 11
154.146423
 21
-381.837769
  0
LINE
  8
0
  6
CENTER
 10
-161.747192
 20
-268.285919
 11
-161.747192
 21
-447.837769
  0
LINE
  8
0
  6
CENTER
 10
-476.031128
 20
-127.279228
 11
152.570984
 21
-127.279228
  0
LINE
  8
0
  6
CENTER
 10
-161.747192
 20
-61.404533
 11
-161.747192
 21
-193.279236
  0
LINE
  8
0
  6
CENTER
 10
363.252838
 20
-270.868744
 11
363.252838
 21
-461.837769
  0
LINE
  8
0
  6
CENTER
 10
283.252838
 20
-381.837769
 11
443.252838
 21
-381.837769
  0
LINE
  8
0
 10
100.436798
 20
190.978195
 11
100.436798
 21
158.978195
  0
LINE
  8
0
 10
-373.563202
 20
195.978195
 11
94.436798
 21
195.978195
  0
LINE
  8
0
 10
94.436798
 20
195.978195
 11
94.436798
 21
190.978195
  0
LINE
  8
0
 10
-336.562897
 20
182.710220
 11
-336.562897
 21
179.246124
  0
LINE
  8
0
 10
57.436806
 20
179.246094
 11
60.436779
 21
177.514038
  0
LINE
  8
0
 10
60.436832
 20
177.514145
 11
63.436821
 21
179.246170
  0
LINE
  8
0
 10
63.436493
 20
179.246140
 11
63.436493
 21
182.710251
  0
LINE
  8
0
 10
63.436775
 20
182.710236
 11
60.436802
 21
184.442276
  0
LINE
  8
0
 10
60.436775
 20
184.442291
 11
57.436764
 21
182.710251
  0
LINE
  8
0
 10
57.436493
 20
182.710220
 11
57.436493
 21
179.246124
  0
LINE
  8
0
 10
-379.563202
 20
158.978195
 11
100.436798
 21
158.978195
  0
LINE
  8
0
 10
-379.563202
 20
154.978195
 11
100.436798
 21
154.978195
  0
LINE
  8
0
 10
-379.563202
 20
190.978195
 11
100.436798
 21
190.978195
  0
LINE
  8
0
 10
-379.563202
 20
190.978195
 11
-379.563202
 21
158.978195
  0
LINE
  8
0
 10
-373.563202
 20
195.978195
 11
-373.563202
 21
190.978195
  0
LINE
  8
0
 10
-339.563141
 20
184.442291
 11
-336.563110
 21
182.710251
  0
LINE
  8
0
 10
-342.563171
 20
182.710220
 11
-339.563171
 21
184.442276
  0
LINE
  8
0
 10
-342.562897
 20
179.246140
 11
-342.562897
 21
182.710251
  0
LINE
  8
0
 10
-339.563232
 20
177.514069
 11
-342.563263
 21
179.246124
  0
LINE
  8
0
 10
-336.563293
 20
179.246246
 11
-339.563263
 21
177.514191
  0
LINE
  8
0
  6
CENTER
 10
-339.563202
 20
190.978195
 11
-339.563202
 21
170.978195
  0
LINE
  8
0
  6
CENTER
 10
-329.563202
 20
180.978195
 11
-349.563202
 21
180.978195
  0
LINE
  8
0
  6
CENTER
 10
-232.063202
 20
180.978195
 11
-247.063202
 21
180.978195
  0
LINE
  8
0
  6
CENTER
 10
-239.563202
 20
188.478195
 11
-239.563202
 21
173.478195
  0
LINE
  8
0
  6
CENTER
 10
-47.063202
 20
180.978195
 11
-32.063202
 21
180.978195
  0
LINE
  8
0
  6
CENTER
 10
-39.563202
 20
188.478195
 11
-39.563202
 21
173.478195
  0
LINE
  8
0
  6
CENTER
 10
60.436798
 20
190.978195
 11
60.436798
 21
170.978195
  0
LINE
  8
0
  6
CENTER
 10
50.436798
 20
180.978195
 11
70.436798
 21
180.978195
  0
LINE
  8
0
 10
100.436676
 20
383.934662
 11
100.436676
 21
353.934662
  0
LINE
  8
0
 10
-379.563354
 20
383.934662
 11
-379.563354
 21
353.934662
  0
LINE
  8
0
 10
94.436676
 20
378.434662
 11
94.436676
 21
359.434662
  0
LINE
  8
0
 10
-373.563354
 20
378.434662
 11
-373.563354
 21
359.434662
  0
LINE
  8
0
 10
-346.063354
 20
345.934662
 11
-333.063354
 21
345.934662
  0
LINE
  8
0
 10
-346.063354
 20
345.934662
 11
-346.063354
 21
353.934662
  0
LINE
  8
0
 10
-333.063354
 20
345.934662
 11
-333.063354
 21
353.934662
  0
LINE
  8
0
 10
-343.563354
 20
390.934662
 11
-335.563354
 21
390.934662
  0
LINE
  8
0
 10
-343.563354
 20
388.934662
 11
-343.563354
 21
390.934662
  0
LINE
  8
0
 10
-335.563354
 20
388.934662
 11
-335.563354
 21
390.934662
  0
LINE
  8
0
 10
-342.886841
 20
388.934662
 11
-342.886841
 21
390.934662
  0
LINE
  8
0
 10
-336.239868
 20
388.934662
 11
-336.239868
 21
390.934662
  0
LINE
  8
0
 10
102.436676
 20
383.934662
 11
102.436676
 21
353.934662
  0
LINE
  8
0
 10
-381.563354
 20
383.934662
 11
-381.563354
 21
353.934662
  0
LINE
  8
0
 10
-379.563354
 20
383.934662
 11
100.436676
 21
383.934662
  0
LINE
  8
0
 10
-379.563354
 20
353.934662
 11
100.436676
 21
353.934662
  0
LINE
  8
0
 10
-379.563354
 20
378.434662
 11
100.436676
 21
378.434662
  0
LINE
  8
0
 10
-379.563354
 20
359.434662
 11
100.436676
 21
359.434662
  0
LINE
  8
0
 10
-379.563354
 20
351.934662
 11
-346.063354
 21
351.934662
  0
LINE
  8
0
 10
-379.563354
 20
385.934662
 11
-346.063354
 21
385.934662
  0
LINE
  8
0
 10
-346.063354
 20
383.934662
 11
-346.063354
 21
388.934662
  0
LINE
  8
0
 10
-333.063354
 20
383.934662
 11
-333.063354
 21
388.934662
  0
LINE
  8
0
 10
-346.063354
 20
388.934662
 11
-333.063354
 21
388.934662
  0
LINE
  8
0
 10
-339.563354
 20
384.515228
 11
-339.563354
 21
388.354095
  0
LINE
  8
0
 10
60.436676
 20
384.515228
 11
60.436676
 21
388.354095
  0
LINE
  8
0
 10
66.936676
 20
351.934662
 11
100.436676
 21
351.934662
  0
LINE
  8
0
 10
53.936676
 20
345.934662
 11
66.936676
 21
345.934662
  0
LINE
  8
0
 10
53.936676
 20
345.934662
 11
53.936676
 21
353.934662
  0
LINE
  8
0
 10
66.936676
 20
345.934662
 11
66.936676
 21
353.934662
  0
LINE
  8
0
 10
56.436676
 20
390.934662
 11
64.436676
 21
390.934662
  0
LINE
  8
0
 10
56.436676
 20
388.934662
 11
56.436676
 21
390.934662
  0
LINE
  8
0
 10
64.436676
 20
388.934662
 11
64.436676
 21
390.934662
  0
LINE
  8
0
 10
57.113190
 20
388.934662
 11
57.113190
 21
390.934662
  0
LINE
  8
0
 10
63.760162
 20
388.934662
 11
63.760162
 21
390.934662
  0
LINE
  8
0
 10
53.936676
 20
383.934662
 11
53.936676
 21
388.934662
  0
LINE
  8
0
 10
66.936676
 20
383.934662
 11
66.936676
 21
388.934662
  0
LINE
  8
0
 10
53.936676
 20
388.934662
 11
66.936676
 21
388.934662
  0
LINE
  8
0
 10
-333.063354
 20
351.934662
 11
53.936676
 21
351.934662
  0
LINE
  8
0
 10
-333.063354
 20
385.934662
 11
53.936676
 21
385.934662
  0
LINE
  8
0
 10
66.936676
 20
385.934662
 11
100.436676
 21
385.934662
  0
LINE
  8
0
  6
CENTER
 10
-339.563354
 20
343.934662
 11
-339.563354
 21
393.934662
  0
LINE
  8
0
  6
CENTER
 10
-239.563354
 20
343.934662
 11
-239.563354
 21
393.934662
  0
LINE
  8
0
  6
CENTER
 10
-39.563324
 20
343.934662
 11
-39.563324
 21
393.934662
  0
LINE
  8
0
  6
CENTER
 10
60.436676
 20
343.934662
 11
60.436676
 21
393.934662
  0
LINE
  8
0
 10
336.310303
 20
190.978241
 11
336.310303
 21
158.978241
  0
LINE
  8
0
 10
330.810303
 20
195.978241
 11
330.810303
 21
158.978241
  0
LINE
  8
0
 10
311.810303
 20
195.978241
 11
330.810303
 21
195.978241
  0
LINE
  8
0
 10
306.310303
 20
190.978241
 11
336.310303
 21
190.978241
  0
LINE
  8
0
 10
306.310303
 20
190.978241
 11
306.310303
 21
158.978241
  0
LINE
  8
0
 10
311.810303
 20
195.978241
 11
311.810303
 21
158.978241
  0
LINE
  8
0
 10
298.310303
 20
187.478241
 11
298.310303
 21
174.478241
  0
LINE
  8
0
 10
298.310303
 20
187.478241
 11
306.310303
 21
187.478241
  0
LINE
  8
0
 10
298.310303
 20
174.478241
 11
306.310303
 21
174.478241
  0
LINE
  8
0
 10
341.310303
 20
187.478271
 11
341.310303
 21
174.478149
  0
LINE
  8
0
 10
343.310303
 20
184.978241
 11
343.310303
 21
176.978241
  0
LINE
  8
0
 10
341.310303
 20
184.978241
 11
343.310303
 21
184.978241
  0
LINE
  8
0
 10
341.310303
 20
176.978241
 11
343.310303
 21
176.978241
  0
LINE
  8
0
 10
336.890869
 20
177.225494
 11
340.729736
 21
177.225494
  0
LINE
  8
0
 10
336.890808
 20
173.472687
 11
340.729797
 21
173.472687
  0
LINE
  8
0
 10
336.890869
 20
188.483826
 11
340.729736
 21
188.483826
  0
LINE
  8
0
 10
336.890869
 20
184.731049
 11
340.729736
 21
184.731049
  0
LINE
  8
0
 10
341.310974
 20
187.478561
 11
340.730438
 21
188.484131
  0
LINE
  8
0
 10
341.309723
 20
174.478607
 11
340.729156
 21
173.473007
  0
LINE
  8
0
 10
336.310455
 20
187.478149
 11
336.891022
 21
188.483749
  0
LINE
  8
0
 10
336.308624
 20
174.477325
 11
336.889191
 21
173.471710
  0
LINE
  8
0
 10
341.310303
 20
184.301727
 11
343.310303
 21
184.301727
  0
LINE
  8
0
 10
341.310303
 20
177.654724
 11
343.310303
 21
177.654724
  0
LINE
  8
0
 10
319.542725
 20
179.210419
 11
323.078247
 21
182.745956
  0
LINE
  8
0
 10
319.542786
 20
182.746201
 11
323.078308
 21
179.210678
  0
LINE
  8
0
 10
306.310303
 20
158.978241
 11
336.310303
 21
158.978241
  0
LINE
  8
0
 10
306.310303
 20
154.978241
 11
336.310303
 21
154.978241
  0
LINE
  8
0
  6
CENTER
 10
296.310303
 20
180.978241
 11
346.310303
 21
180.978241
  0
LINE
  8
0
 10
-441.747192
 20
-286.837769
 11
-441.747192
 21
-323.837769
  0
LINE
  8
0
 10
-435.747192
 20
-280.837769
 11
112.252792
 21
-280.837769
  0
LINE
  8
0
 10
-441.747192
 20
-286.837769
 11
118.252792
 21
-286.837769
  0
LINE
  8
0
 10
-435.747192
 20
-280.837769
 11
-435.747192
 21
-286.837769
  0
LINE
  8
0
 10
78.252838
 20
-294.219055
 11
74.252815
 21
-296.528473
  0
LINE
  8
0
 10
-397.747192
 20
-301.147278
 11
-401.747162
 21
-303.456665
  0
LINE
  8
0
 10
-401.747162
 20
-294.218903
 11
-397.747162
 21
-296.528290
  0
LINE
  8
0
 10
-397.747192
 20
-296.528381
 11
-397.747192
 21
-301.147186
  0
LINE
  8
0
 10
-405.747192
 20
-301.147156
 11
-405.747192
 21
-296.528351
  0
LINE
  8
0
 10
-405.747101
 20
-296.528473
 11
-401.747131
 21
-294.219086
  0
LINE
  8
0
 10
-401.747192
 20
-303.456573
 11
-405.747253
 21
-301.147186
  0
LINE
  8
0
 10
-441.747192
 20
-323.837769
 11
118.252792
 21
-323.837769
  0
LINE
  8
0
 10
-441.747192
 20
-327.837769
 11
118.252792
 21
-327.837769
  0
LINE
  8
0
 10
118.252792
 20
-286.837769
 11
118.252792
 21
-323.837769
  0
LINE
  8
0
 10
112.252792
 20
-280.837769
 11
112.252792
 21
-286.837769
  0
LINE
  8
0
 10
74.252823
 20
-296.528381
 11
74.252823
 21
-301.147186
  0
LINE
  8
0
 10
78.252754
 20
-303.456451
 11
82.252800
 21
-301.147034
  0
LINE
  8
0
 10
82.252739
 20
-296.528381
 11
78.252739
 21
-294.218964
  0
LINE
  8
0
 10
82.252762
 20
-301.147156
 11
82.252762
 21
-296.528351
  0
LINE
  8
0
 10
74.252792
 20
-301.147186
 11
78.252792
 21
-303.456573
  0
LINE
  8
0
  6
CENTER
 10
-401.747192
 20
-286.337769
 11
-401.747192
 21
-311.337769
  0
LINE
  8
0
  6
CENTER
 10
-389.247192
 20
-298.837769
 11
-414.247192
 21
-298.837769
  0
LINE
  8
0
  6
CENTER
 10
-281.747192
 20
-288.837769
 11
-281.747192
 21
-308.837769
  0
LINE
  8
0
  6
CENTER
 10
-271.747192
 20
-298.837769
 11
-291.747192
 21
-298.837769
  0
LINE
  8
0
  6
CENTER
 10
-41.747208
 20
-288.837769
 11
-41.747208
 21
-308.837769
  0
LINE
  8
0
  6
CENTER
 10
-51.747208
 20
-298.837769
 11
-31.747208
 21
-298.837769
  0
LINE
  8
0
  6
CENTER
 10
78.252792
 20
-286.337769
 11
78.252792
 21
-311.337769
  0
LINE
  8
0
  6
CENTER
 10
65.752792
 20
-298.837769
 11
90.752792
 21
-298.837769
  0
LINE
  8
0
 10
-409.747223
 20
-153.279236
 11
-393.747223
 21
-153.279236
  0
LINE
  8
0
 10
-409.747223
 20
-153.279236
 11
-409.747223
 21
-143.279236
  0
LINE
  8
0
 10
-393.747223
 20
-153.279236
 11
-393.747223
 21
-143.279236
  0
LINE
  8
0
 10
-406.747223
 20
-103.279236
 11
-396.747223
 21
-103.279236
  0
LINE
  8
0
 10
-406.747223
 20
-105.279236
 11
-406.747223
 21
-103.279236
  0
LINE
  8
0
 10
-405.935211
 20
-105.279236
 11
-405.935211
 21
-103.279236
  0
LINE
  8
0
 10
-397.559235
 20
-105.279236
 11
-397.559235
 21
-103.279236
  0
LINE
  8
0
 10
-396.747223
 20
-105.279236
 11
-396.747223
 21
-103.279236
  0
LINE
  8
0
 10
-441.747223
 20
-111.279236
 11
-441.747223
 21
-143.279236
  0
LINE
  8
0
 10
-435.747223
 20
-117.279236
 11
-435.747223
 21
-137.279236
  0
LINE
  8
0
 10
118.252777
 20
-111.279236
 11
118.252777
 21
-143.279236
  0
LINE
  8
0
 10
112.252777
 20
-117.279236
 11
112.252777
 21
-137.279236
  0
LINE
  8
0
 10
-441.747223
 20
-111.279236
 11
118.252777
 21
-111.279236
  0
LINE
  8
0
 10
-441.747223
 20
-143.279236
 11
118.252777
 21
-143.279236
  0
LINE
  8
0
 10
-441.747223
 20
-145.279236
 11
-409.747223
 21
-145.279236
  0
LINE
  8
0
 10
-441.747223
 20
-109.279236
 11
-410.247223
 21
-109.279236
  0
LINE
  8
0
 10
120.252777
 20
-111.279236
 11
120.252777
 21
-143.279236
  0
LINE
  8
0
 10
-441.747223
 20
-117.279236
 11
118.252777
 21
-117.279236
  0
LINE
  8
0
 10
-441.747223
 20
-137.279236
 11
118.252777
 21
-137.279236
  0
LINE
  8
0
 10
-393.747223
 20
-145.279236
 11
70.252777
 21
-145.279236
  0
LINE
  8
0
 10
-393.247223
 20
-109.279236
 11
69.752777
 21
-109.279236
  0
LINE
  8
0
 10
-393.247223
 20
-105.279236
 11
-393.247223
 21
-111.279236
  0
LINE
  8
0
 10
-393.247223
 20
-105.279236
 11
-410.247223
 21
-105.279236
  0
LINE
  8
0
 10
-410.247223
 20
-105.279236
 11
-410.247223
 21
-111.279236
  0
LINE
  8
0
 10
-401.747223
 20
-106.038452
 11
-401.747223
 21
-110.520020
  0
LINE
  8
0
 10
86.752777
 20
-109.279236
 11
118.252777
 21
-109.279236
  0
LINE
  8
0
 10
86.252777
 20
-145.279236
 11
118.252777
 21
-145.279236
  0
LINE
  8
0
 10
-443.747223
 20
-111.279236
 11
-443.747223
 21
-143.279236
  0
LINE
  8
0
 10
78.252777
 20
-106.038452
 11
78.252777
 21
-110.520020
  0
LINE
  8
0
 10
70.252777
 20
-153.279236
 11
86.252777
 21
-153.279236
  0
LINE
  8
0
 10
70.252777
 20
-153.279236
 11
70.252777
 21
-143.279236
  0
LINE
  8
0
 10
86.252777
 20
-153.279236
 11
86.252777
 21
-143.279236
  0
LINE
  8
0
 10
73.252777
 20
-103.279236
 11
83.252777
 21
-103.279236
  0
LINE
  8
0
 10
73.252777
 20
-105.279236
 11
73.252777
 21
-103.279236
  0
LINE
  8
0
 10
74.064789
 20
-105.279236
 11
74.064789
 21
-103.279236
  0
LINE
  8
0
 10
82.440765
 20
-105.279236
 11
82.440765
 21
-103.279236
  0
LINE
  8
0
 10
83.252777
 20
-105.279236
 11
83.252777
 21
-103.279236
  0
LINE
  8
0
 10
86.752777
 20
-105.279236
 11
86.752777
 21
-111.279236
  0
LINE
  8
0
 10
86.752777
 20
-105.279236
 11
69.752777
 21
-105.279236
  0
LINE
  8
0
 10
69.752777
 20
-105.279236
 11
69.752777
 21
-111.279236
  0
LINE
  8
0
  6
CENTER
 10
-401.747223
 20
-160.022949
 11
-401.747223
 21
-97.164673
  0
LINE
  8
0
  6
CENTER
 10
-281.747223
 20
-160.022949
 11
-281.747223
 21
-97.164673
  0
LINE
  8
0
  6
CENTER
 10
-41.747223
 20
-160.022949
 11
-41.747223
 21
-97.164673
  0
LINE
  8
0
  6
CENTER
 10
78.252777
 20
-160.022949
 11
78.252777
 21
-97.164673
  0
LINE
  8
0
 10
353.252899
 20
-280.837860
 11
373.252899
 21
-280.837860
  0
LINE
  8
0
 10
347.252899
 20
-286.837860
 11
379.252899
 21
-286.837860
  0
LINE
  8
0
 10
373.252899
 20
-280.837860
 11
373.252899
 21
-323.837860
  0
LINE
  8
0
 10
353.252899
 20
-280.837860
 11
353.252899
 21
-323.837860
  0
LINE
  8
0
 10
347.252899
 20
-286.837860
 11
347.252899
 21
-323.837860
  0
LINE
  8
0
 10
337.252899
 20
-290.837860
 11
337.252899
 21
-306.837860
  0
LINE
  8
0
 10
337.252899
 20
-290.837860
 11
347.252899
 21
-290.837860
  0
LINE
  8
0
 10
337.252899
 20
-306.837860
 11
347.252899
 21
-306.837860
  0
LINE
  8
0
 10
385.252899
 20
-290.337860
 11
385.252899
 21
-307.337891
  0
LINE
  8
0
 10
380.012054
 20
-303.745422
 11
384.493683
 21
-303.745422
  0
LINE
  8
0
 10
380.012115
 20
-293.930389
 11
384.493683
 21
-293.930389
  0
LINE
  8
0
 10
380.012115
 20
-289.022858
 11
384.493683
 21
-289.022858
  0
LINE
  8
0
 10
384.492950
 20
-289.023407
 11
385.252167
 21
-290.338409
  0
LINE
  8
0
 10
384.492859
 20
-308.652435
 11
385.252075
 21
-307.337433
  0
LINE
  8
0
 10
380.012177
 20
-308.652863
 11
384.493683
 21
-308.652863
  0
LINE
  8
0
 10
380.011108
 20
-289.022369
 11
379.251892
 21
-290.337372
  0
LINE
  8
0
 10
380.011261
 20
-308.653198
 11
379.252045
 21
-307.338196
  0
LINE
  8
0
 10
387.252899
 20
-293.837860
 11
387.252899
 21
-303.837860
  0
LINE
  8
0
 10
385.252899
 20
-293.837860
 11
387.252899
 21
-293.837860
  0
LINE
  8
0
 10
385.252899
 20
-294.649872
 11
387.252899
 21
-294.649872
  0
LINE
  8
0
 10
385.252899
 20
-303.025848
 11
387.252899
 21
-303.025848
  0
LINE
  8
0
 10
385.252899
 20
-303.837860
 11
387.252899
 21
-303.837860
  0
LINE
  8
0
 10
379.252899
 20
-286.837860
 11
379.252899
 21
-323.837860
  0
LINE
  8
0
 10
361.485413
 20
-300.605865
 11
365.020935
 21
-297.070343
  0
LINE
  8
0
 10
361.485413
 20
-297.069824
 11
365.020966
 21
-300.605377
  0
LINE
  8
0
 10
347.252899
 20
-323.837860
 11
379.252899
 21
-323.837860
  0
LINE
  8
0
 10
347.252899
 20
-327.837860
 11
379.252899
 21
-327.837860
  0
LINE
  8
0
  6
CENTER
 10
330.509186
 20
-298.837860
 11
393.367462
 21
-298.837860
  0
ARC
  8
0
 10
652.794678
 20
-464.166809
 40
2.211891
 50
291.688965
 51
0.000000
  0
ARC
  8
0
 10
546.070862
 20
-470.091400
 40
4.423767
 50
0.000000
 51
90.000000
  0
ARC
  8
0
 10
582.567200
 20
-493.869354
 40
4.423798
 50
270.000000
 51
0.000000
  0
ARC
  8
0
 10
580.355164
 20
-472.303223
 40
6.635681
 50
0.000000
 51
90.000000
  0
ARC
  8
0
 10
620.722290
 20
-473.625641
 40
4.423780
 50
294.999969
 51
0.000000
  0
ARC
  8
0
 10
620.722290
 20
-470.091400
 40
4.423767
 50
0.000000
 51
90.000000
  0
ARC
  8
0
 10
655.006836
 20
-465.667572
 40
6.635680
 50
291.688385
 51
0.000000
  0
ARC
  8
0
  6
PHANTOM
 10
158.336792
 20
134.978210
 40
50.900005
 50
154.391342
 51
205.608414
  0
ARC
  8
0
  6
PHANTOM
 10
66.536804
 20
90.978203
 40
50.900002
 50
334.391418
 51
25.608475
  0
ARC
  8
0
  6
PHANTOM
 10
-437.463196
 20
90.978203
 40
50.900013
 50
334.391418
 51
25.608475
  0
ARC
  8
0
  6
PHANTOM
 10
-345.663208
 20
134.978210
 40
50.900009
 50
154.391434
 51
205.608490
  0
ARC
  8
0
  6
PHANTOM
 10
-437.463196
 20
346.934601
 40
50.900021
 50
334.391388
 51
25.608458
  0
ARC
  8
0
  6
PHANTOM
 10
-345.663208
 20
390.934601
 40
50.900009
 50
154.391434
 51
205.608490
  0
ARC
  8
0
  6
PHANTOM
 10
158.336792
 20
390.934601
 40
50.900002
 50
154.391357
 51
205.608414
  0
ARC
  8
0
  6
PHANTOM
 10
66.536804
 20
346.934601
 40
50.900005
 50
334.391388
 51
25.608458
  0
ARC
  8
0
  6
PHANTOM
 10
321.310425
 20
112.978203
 40
44.000000
 50
107.341476
 51
72.658524
  0
ARC
  8
0
  6
PHANTOM
 10
-422.547180
 20
-99.279259
 40
44.200005
 50
140.692368
 51
219.307617
  0
ARC
  8
0
  6
PHANTOM
 10
-490.947205
 20
-155.279266
 40
44.200005
 50
320.692444
 51
39.307686
  0
ARC
  8
0
  6
PHANTOM
 10
99.052795
 20
-155.279266
 40
44.200005
 50
320.692444
 51
39.307686
  0
ARC
  8
0
  6
PHANTOM
 10
167.452820
 20
-99.279259
 40
44.199993
 50
140.692383
 51
219.307648
  0
ARC
  8
0
  6
PHANTOM
 10
167.452820
 20
-353.837769
 40
44.199989
 50
140.692398
 51
219.307648
  0
ARC
  8
0
  6
PHANTOM
 10
99.052795
 20
-409.837769
 40
44.200012
 50
320.692413
 51
39.307693
  0
ARC
  8
0
  6
PHANTOM
 10
-490.947205
 20
-409.837769
 40
44.200008
 50
320.692352
 51
39.307693
  0
ARC
  8
0
  6
PHANTOM
 10
-422.547180
 20
-353.837769
 40
44.200008
 50
140.692368
 51
219.307602
  0
ARC
  8
0
  6
PHANTOM
 10
363.252808
 20
-381.837769
 40
56.000008
 50
105.358917
 51
74.641113
  0
ARC
  8
0
 10
-379.563202
 20
156.978195
 40
2.000000
 50
90.000000
 51
270.000000
  0
CIRCLE
  8
0
 10
-339.563202
 20
180.978195
 40
6.500000
  0
CIRCLE
  8
0
 10
-239.563202
 20
180.978195
 40
4.500000
  0
ARC
  8
0
 10
100.436798
 20
156.978195
 40
2.000000
 50
270.000000
 51
90.000000
  0
CIRCLE
  8
0
 10
60.436798
 20
180.978195
 40
6.500000
  0
CIRCLE
  8
0
 10
-39.563202
 20
180.978195
 40
4.500000
  0
ARC
  8
0
 10
-379.563354
 20
383.934662
 40
2.000000
 50
90.000000
 51
180.000000
  0
ARC
  8
0
 10
-379.563354
 20
353.934662
 40
2.000000
 50
180.000000
 51
270.000000
  0
ARC
  8
0
 10
57.186676
 20
393.321655
 40
9.386998
 50
249.743423
 51
290.256439
  0
ARC
  8
0
 10
63.686676
 20
379.547668
 40
9.386994
 50
69.743484
 51
110.256516
  0
ARC
  8
0
 10
57.186676
 20
379.547668
 40
9.386992
 50
69.743507
 51
110.256538
  0
ARC
  8
0
 10
63.686676
 20
393.321655
 40
9.386998
 50
249.743423
 51
290.256470
  0
ARC
  8
0
 10
-336.313354
 20
393.321655
 40
9.386994
 50
249.743484
 51
290.256500
  0
ARC
  8
0
 10
-342.813354
 20
393.321655
 40
9.386994
 50
249.743484
 51
290.256500
  0
ARC
  8
0
 10
-336.313354
 20
379.547668
 40
9.386994
 50
69.743484
 51
110.256516
  0
ARC
  8
0
 10
-342.813354
 20
379.547668
 40
9.386994
 50
69.743484
 51
110.256516
  0
ARC
  8
0
 10
100.436676
 20
353.934662
 40
2.000000
 50
270.000000
 51
0.000000
  0
ARC
  8
0
 10
100.436676
 20
383.934662
 40
2.000000
 50
0.000000
 51
90.000000
  0
ARC
  8
0
 10
306.310303
 20
156.978241
 40
2.000000
 50
90.000000
 51
270.000000
  0
ARC
  8
0
 10
336.310303
 20
156.978241
 40
2.000000
 50
270.000000
 51
90.000000
  0
CIRCLE
  8
0
 10
321.310303
 20
180.978241
 40
5.000000
  0
ARC
  8
0
 10
337.987793
 20
186.607422
 40
3.322512
 50
325.615082
 51
34.384930
  0
ARC
  8
0
 10
328.891052
 20
180.978271
 40
12.419250
 50
342.411774
 51
17.588238
  0
ARC
  8
0
 10
337.987793
 20
175.349030
 40
3.322521
 50
325.614868
 51
34.384930
  0
ARC
  8
0
 10
339.632812
 20
186.607422
 40
3.322521
 50
145.614853
 51
214.384933
  0
ARC
  8
0
 10
348.729553
 20
180.978271
 40
12.419250
 50
162.411758
 51
197.588165
  0
ARC
  8
0
 10
339.632812
 20
175.349030
 40
3.322512
 50
145.615067
 51
214.384933
  0
CIRCLE
  8
0
 10
78.252792
 20
-298.837769
 40
8.000000
  0
ARC
  8
0
 10
118.252792
 20
-325.837769
 40
2.000000
 50
270.000000
 51
90.000000
  0
CIRCLE
  8
0
 10
-41.747208
 20
-298.837769
 40
5.500000
  0
ARC
  8
0
 10
-441.747192
 20
-325.837769
 40
2.000000
 50
90.000000
 51
270.000000
  0
CIRCLE
  8
0
 10
-401.747192
 20
-298.837769
 40
8.000000
  0
CIRCLE
  8
0
 10
-281.747192
 20
-298.837769
 40
5.500000
  0
ARC
  8
0
 10
82.502777
 20
-99.004150
 40
12.275101
 50
249.743149
 51
290.256927
  0
ARC
  8
0
 10
74.002777
 20
-117.554321
 40
12.275099
 50
69.743065
 51
110.256859
  0
ARC
  8
0
 10
74.002777
 20
-99.004150
 40
12.275101
 50
249.743149
 51
290.256927
  0
ARC
  8
0
 10
82.502777
 20
-117.554321
 40
12.275099
 50
69.743065
 51
110.256859
  0
ARC
  8
0
 10
-405.997223
 20
-99.004150
 40
12.275101
 50
249.743149
 51
290.256866
  0
ARC
  8
0
 10
-405.997223
 20
-117.554321
 40
12.275093
 50
69.743134
 51
110.256859
  0
ARC
  8
0
 10
-397.497223
 20
-117.554321
 40
12.275093
 50
69.743134
 51
110.256859
  0
ARC
  8
0
 10
-397.497223
 20
-99.004150
 40
12.275101
 50
249.743149
 51
290.256866
  0
ARC
  8
0
 10
118.252777
 20
-143.279236
 40
2.000000
 50
270.000000
 51
0.000000
  0
ARC
  8
0
 10
118.252777
 20
-111.279236
 40
2.000000
 50
0.000000
 51
90.000000
  0
ARC
  8
0
 10
-441.747223
 20
-111.279236
 40
2.000000
 50
90.000000
 51
180.000000
  0
ARC
  8
0
 10
-441.747223
 20
-143.279236
 40
2.000000
 50
180.000000
 51
270.000000
  0
ARC
  8
0
 10
379.252899
 20
-325.837860
 40
2.000000
 50
270.000000
 51
90.000000
  0
ARC
  8
0
 10
347.252899
 20
-325.837860
 40
2.000000
 50
90.000000
 51
270.000000
  0
CIRCLE
  8
0
 10
363.252899
 20
-298.837860
 40
5.000000
  0
ARC
  8
0
 10
380.908051
 20
-291.476624
 40
4.344840
 50
326.226990
 51
34.385117
  0
ARC
  8
0
 10
369.012299
 20
-298.837921
 40
16.240601
 50
342.411621
 51
17.588390
  0
ARC
  8
0
 10
380.908051
 20
-306.199097
 40
4.344851
 50
325.614868
 51
33.772663
  0
ARC
  8
0
 10
395.493500
 20
-298.837921
 40
16.240601
 50
162.411606
 51
197.588287
  0
ARC
  8
0
 10
383.597748
 20
-291.476624
 40
4.344851
 50
145.614883
 51
213.772659
  0
ARC
  8
0
 10
383.597748
 20
-306.199097
 40
4.344840
 50
146.227005
 51
214.385117
  0
TEXT
  8
0
 10
452.675018
 20
466.214996
 40
17.000000
  1
DATE : NOV ,1991
 50
0.000000
 41
1.052631
 51
0.000000
  7
STANDARD
  0
TEXT
  8
0
 10
-731.809937
 20
463.514984
 40
20.000000
  1
ORC LONG MOUNT
 50
0.000000
 41
1.052632
 51
0.000000
  7
STANDARD
  0
TEXT
  8
0
 10
-724.354309
 20
404.912811
 40
20.000000
  1
BORE : 63
 50
0.000000
 41
1.052632
 51
0.000000
  7
STANDARD
  0
TEXT
  8
0
 10
-724.354309
 20
-47.000000
 40
20.000000
  1
BORE : 80
 50
0.000000
 41
1.052632
 51
0.000000
  7
STANDARD
  0
ENDSEC
  0
EOF
