  0
SECTION
  2
HEADER
  0
ENDSEC
  0
SECTION
  2
TABLES
  0
TABLE
  2
LTYPE
 70
     4
  0
LTYPE
  2
CONTINUOUS
 70
    64
  3
Solid line
 72
    65
 73
     0
 40
0.000000
  0
LTYPE
  2
DASHED
 70
    64
  3
__ __ __ __ __ __ __ __ __ __ __ __ __ __ __
 72
    65
 73
     2
 40
3.500000
 49
2.000000
 49
-1.500000
  0
LTYPE
  2
CENTER
 70
    64
  3
____ _ ____ _ ____ _ ____ _ ____ _ ____ _ ____
 72
    65
 73
     4
 40
17.500000
 49
13.000000
 49
-1.500000
 49
1.500000
 49
-1.500000
  0
LTYPE
  2
PHANTOM
 70
    64
  3
_____ _ _ _____ _ _ _____ _ _ _____ _ _ ____  
 72
    65
 73
     6
 40
15.500000
 49
8.000000
 49
-1.500000
 49
1.500000
 49
-1.500000
 49
1.500000
 49
-1.500000
  0
LTYPE
  2
DASHED1
 70
    64
  3
__ __ __ __ __ __ __ __ __ __ __ __ __ __ __
 72
    65
 73
     2
 40
1.500000
 49
1.000000
 49
-0.500000
  0
LTYPE
  2
DASHED2
 70
    64
  3
__ __ __ __ __ __ __ __ __ __ __ __ __ __ __
 72
    65
 73
     2
 40
3.500000
 49
2.500000
 49
-1.000000
  0
LTYPE
  2
DASHED3
 70
    64
  3
__ __ __ __ __ __ __ __ __ __ __ __ __ __ __
 72
    65
 73
     2
 40
6.000000
 49
4.000000
 49
-2.000000
  0
LTYPE
  2
DASHED4
 70
    64
  3
__ __ __ __ __ __ __ __ __ __ __ __ __ __ __
 72
    65
 73
     2
 40
12.000000
 49
10.000000
 49
-2.000000
  0
LTYPE
  2
DASHED5
 70
    64
  3
__ __ __ __ __ __ __ __ __ __ __ __ __ __ __
 72
    65
 73
     2
 40
17.000000
 49
15.000000
 49
-2.000000
  0
LTYPE
  2
DASHED6
 70
    64
  3
__ __ __ __ __ __ __ __ __ __ __ __ __ __ __
 72
    65
 73
     2
 40
29.000000
 49
27.000000
 49
-2.000000
  0
LTYPE
  2
PHANTOM1
 70
    64
  3
_____ _ _ _____ _ _ _____ _ _ _____ _ _ ____  
 72
    65
 73
     6
 40
31.000000
 49
25.000000
 49
-1.500000
 49
1.000000
 49
-1.000000
 49
1.000000
 49
-1.500000
  0
LTYPE
  2
PHANTOM2
 70
    64
  3
_____ _ _ _____ _ _ _____ _ _ _____ _ _ ____  
 72
    65
 73
     6
 40
36.000000
 49
27.000000
 49
-1.500000
 49
2.500000
 49
-1.000000
 49
2.500000
 49
-1.500000
  0
LTYPE
  2
PHANTOM3
 70
    64
  3
_____ _ _ _____ _ _ _____ _ _ _____ _ _ ____  
 72
    65
 73
     6
 40
78.000000
 49
64.000000
 49
-2.000000
 49
4.000000
 49
-2.000000
 49
4.000000
 49
-2.000000
  0
LTYPE
  2
CENTER1
 70
    64
  3
____ _ ____ _ ____ _ ____ _ ____ _ ____ _ ____
 72
    65
 73
     4
 40
19.000000
 49
14.000000
 49
-1.000000
 49
3.000000
 49
-1.000000
  0
LTYPE
  2
CENTER2
 70
    64
  3
____ _ ____ _ ____ _ ____ _ ____ _ ____ _ ____
 72
    65
 73
     4
 40
28.500000
 49
25.000000
 49
-1.000000
 49
1.500000
 49
-1.000000
  0
LTYPE
  2
CENTER3
 70
    64
  3
____ _ ____ _ ____ _ ____ _ ____ _ ____ _ ____
 72
    65
 73
     4
 40
31.500000
 49
27.000000
 49
-1.000000
 49
2.500000
 49
-1.000000
  0
LTYPE
  2
CENTER4
 70
    64
  3
____ _ ____ _ ____ _ ____ _ ____ _ ____ _ ____
 72
    65
 73
     4
 40
50.000000
 49
45.000000
 49
-1.000000
 49
3.000000
 49
-1.000000
  0
LTYPE
  2
CENTER5
 70
    64
  3
____ _ ____ _ ____ _ ____ _ ____ _ ____ _ ____
 72
    65
 73
     4
 40
100.000000
 49
92.000000
 49
-2.000000
 49
4.000000
 49
-2.000000
  0
LTYPE
  2
SBK1
 70
    64
  3
______ _ _ _ ______ _ _ _ ______ _ _ _ _____  
 72
    65
 73
     8
 40
60.500000
 49
45.000000
 49
-2.000000
 49
2.500000
 49
-2.000000
 49
2.500000
 49
-2.000000
 49
2.500000
 49
-2.000000
  0
LTYPE
  2
SBK2
 70
    64
  3
______ _ _ _ ______ _ _ _ ______ _ _ _ _____  
 72
    65
 73
     8
 40
84.000000
 49
64.000000
 49
-2.000000
 49
4.000000
 49
-2.000000
 49
4.000000
 49
-2.000000
 49
4.000000
 49
-2.000000
  0
LTYPE
  2
STCH
 70
    64
  3
__ __ __ __ __ __ __ __ __ __ __ __ __ __ __
 72
    65
 73
     2
 40
3.000000
 49
1.000000
 49
-2.000000
  0
LTYPE
  2
MTCH
 70
    64
  3
_____ _ _ _____ _ _ _____ _ _ _____ _ _ ____  
 72
    65
 73
     6
 40
80.000000
 49
66.000000
 49
-2.000000
 49
4.000000
 49
-2.000000
 49
4.000000
 49
-2.000000
  0
ENDTAB
  0
TABLE
  2
LAYER
 70
     1
  0
LAYER
  2
0
 70
     0
 62
     7
  6
CONTINUOUS
  0
ENDTAB
  0
TABLE
  2
STYLE
 70
     1
  0
STYLE
  2
STANDARD
 70
     0
 40
0.000000
 41
1.000000
 50
0.000000
 71
     0
 42
0.200000
  3
txt
  4
BIGFONT
  0
ENDTAB
  0
TABLE
  2
VIEW
 70
     0
  0
ENDTAB
  0
ENDSEC
  0
SECTION
  2
BLOCKS
  0
ENDSEC
  0
SECTION
  2
ENTITIES
  0
POINT
  8
0
 10
-360.932617
 20
239.662949
  0
POINT
  8
0
 10
-360.932098
 20
119.887894
  0
POINT
  8
0
 10
-179.808517
 20
119.887802
  0
POINT
  8
0
 10
-346.932098
 20
119.887894
  0
POINT
  8
0
 10
-346.932617
 20
239.662949
  0
POINT
  8
0
 10
-170.308517
 20
119.887802
  0
POINT
  8
0
 10
-330.533997
 20
-250.112549
  0
POINT
  8
0
 10
-330.533691
 20
-70.337067
  0
POINT
  8
0
 10
-123.848572
 20
-250.112518
  0
POINT
  8
0
 10
-300.533997
 20
-250.112549
  0
POINT
  8
0
 10
-300.533691
 20
-70.337067
  0
POINT
  8
0
 10
-70.848572
 20
-250.112518
  0
POINT
  8
0
 10
206.095215
 20
-130.112579
  0
POINT
  8
0
 10
206.095505
 20
119.662888
  0
POINT
  8
0
 10
402.780579
 20
-130.112579
  0
POINT
  8
0
 10
241.095215
 20
-130.112579
  0
POINT
  8
0
 10
241.095490
 20
119.662888
  0
POINT
  8
0
 10
468.780579
 20
-130.112579
  0
LINE
  8
0
 10
308.764069
 20
-319.550690
 11
524.494446
 21
-319.550690
  0
LINE
  8
0
 10
-308.764069
 20
319.550598
 11
-308.764069
 21
360.000092
  0
LINE
  8
0
 10
-524.494446
 20
319.550598
 11
-308.764069
 21
319.550598
  0
LINE
  8
0
 10
-524.494446
 20
360.000092
 11
524.494446
 21
360.000092
  0
LINE
  8
0
 10
-524.494446
 20
-360.000092
 11
524.494446
 21
-360.000092
  0
LINE
  8
0
 10
524.494446
 20
360.000092
 11
524.494446
 21
-360.000092
  0
LINE
  8
0
 10
-524.494446
 20
-360.000092
 11
-524.494446
 21
360.000092
  0
LINE
  8
0
 10
308.764069
 20
-319.550690
 11
308.764069
 21
-360.000092
  0
LINE
  8
0
 10
308.764069
 20
360.000092
 11
308.764069
 21
319.550598
  0
LINE
  8
0
 10
308.764069
 20
319.550598
 11
524.494446
 21
319.550598
  0
LINE
  8
0
 10
365.406830
 20
-333.968781
 11
383.002350
 21
-333.968781
  0
LINE
  8
0
 10
365.406830
 20
-352.346344
 11
389.258545
 21
-352.346344
  0
LINE
  8
0
 10
365.406830
 20
-347.654236
 11
383.002350
 21
-347.654236
  0
LINE
  8
0
 10
365.406830
 20
-329.276642
 11
386.130402
 21
-329.276642
  0
LINE
  8
0
 10
383.002350
 20
-333.968781
 11
383.002350
 21
-347.654236
  0
LINE
  8
0
 10
389.258545
 20
-332.404785
 11
389.258545
 21
-352.346344
  0
LINE
  8
0
 10
365.406830
 20
-347.654236
 11
365.406830
 21
-352.346344
  0
LINE
  8
0
 10
415.065186
 20
-333.968781
 11
415.065186
 21
-349.218353
  0
LINE
  8
0
 10
392.777557
 20
-329.276642
 11
392.777557
 21
-333.968781
  0
LINE
  8
0
 10
415.690887
 20
-328.924835
 11
417.919678
 21
-328.924835
  0
LINE
  8
0
 10
415.690887
 20
-325.796661
 11
417.919678
 21
-325.796661
  0
LINE
  8
0
 10
417.919678
 20
-325.796661
 11
417.919678
 21
-328.924835
  0
LINE
  8
0
 10
415.690887
 20
-325.796661
 11
415.690887
 21
-328.924835
  0
LINE
  8
0
 10
414.517731
 20
-325.796661
 11
414.517731
 21
-328.924835
  0
LINE
  8
0
 10
399.891602
 20
-325.796661
 11
404.749207
 21
-325.796661
  0
LINE
  8
0
 10
403.816254
 20
-329.276215
 11
404.748657
 21
-325.796204
  0
LINE
  8
0
 10
398.959137
 20
-329.276611
 11
399.891571
 21
-325.796631
  0
LINE
  8
0
 10
403.816772
 20
-329.276642
 11
410.373047
 21
-329.276642
  0
LINE
  8
0
 10
402.559540
 20
-333.968781
 11
408.809052
 21
-333.968781
  0
LINE
  8
0
 10
405.374237
 20
-352.346344
 11
411.937195
 21
-352.346344
  0
LINE
  8
0
 10
404.116760
 20
-347.654144
 11
405.374054
 21
-352.346161
  0
LINE
  8
0
 10
404.116852
 20
-347.654236
 11
408.809052
 21
-347.654236
  0
LINE
  8
0
 10
397.635498
 20
-352.346588
 11
402.559692
 21
-333.968994
  0
LINE
  8
0
 10
392.777557
 20
-333.968781
 11
397.701874
 21
-333.968781
  0
LINE
  8
0
 10
392.777374
 20
-352.346161
 11
397.701782
 21
-333.968536
  0
LINE
  8
0
 10
392.777557
 20
-352.346344
 11
397.635284
 21
-352.346344
  0
LINE
  8
0
 10
392.777557
 20
-329.276642
 11
398.959137
 21
-329.276642
  0
LINE
  8
0
 10
408.809052
 20
-333.968781
 11
408.809052
 21
-347.654236
  0
LINE
  8
0
 10
412.288940
 20
-325.796661
 11
414.517731
 21
-325.796661
  0
LINE
  8
0
 10
412.288940
 20
-328.924835
 11
414.517731
 21
-328.924835
  0
LINE
  8
0
 10
412.288940
 20
-325.796661
 11
412.288940
 21
-328.924835
  0
LINE
  8
0
 10
426.404572
 20
-325.796661
 11
432.660675
 21
-325.796661
  0
LINE
  8
0
 10
436.061951
 20
-339.687103
 11
440.239410
 21
-337.739166
  0
LINE
  8
0
 10
432.660675
 20
-343.278320
 11
432.660675
 21
-352.346344
  0
LINE
  8
0
 10
426.404572
 20
-344.189972
 11
426.404572
 21
-352.346344
  0
LINE
  8
0
 10
432.660675
 20
-329.276642
 11
438.916931
 21
-329.276642
  0
LINE
  8
0
 10
432.660675
 20
-325.796661
 11
432.660675
 21
-329.276642
  0
LINE
  8
0
 10
426.404572
 20
-325.796661
 11
426.404572
 21
-329.276642
  0
LINE
  8
0
 10
442.045013
 20
-332.404785
 11
442.045013
 21
-334.903870
  0
LINE
  8
0
 10
436.061920
 20
-339.687012
 11
442.045441
 21
-342.477234
  0
LINE
  8
0
 10
432.660645
 20
-343.278229
 11
442.045074
 21
-347.654205
  0
LINE
  8
0
 10
418.975342
 20
-342.477020
 11
418.975342
 21
-347.654236
  0
LINE
  8
0
 10
418.975983
 20
-342.477539
 11
437.221924
 21
-333.969299
  0
LINE
  8
0
 10
418.975372
 20
-347.654266
 11
426.404755
 21
-344.189880
  0
LINE
  8
0
 10
442.045013
 20
-342.477020
 11
442.045013
 21
-347.654236
  0
LINE
  8
0
 10
418.975342
 20
-329.276642
 11
418.975342
 21
-333.968781
  0
LINE
  8
0
 10
426.404572
 20
-352.346344
 11
432.660675
 21
-352.346344
  0
LINE
  8
0
 10
418.975342
 20
-333.968781
 11
437.221222
 21
-333.968781
  0
LINE
  8
0
 10
418.975342
 20
-329.276642
 11
426.404572
 21
-329.276642
  0
LINE
  8
0
 10
463.160522
 20
-334.326782
 11
464.894440
 21
-333.637054
  0
LINE
  8
0
 10
463.159729
 20
-334.326324
 11
463.159729
 21
-352.346344
  0
LINE
  8
0
 10
456.903442
 20
-352.346344
 11
463.159729
 21
-352.346344
  0
LINE
  8
0
 10
443.999786
 20
-341.946228
 11
456.903168
 21
-336.814362
  0
LINE
  8
0
 10
444.000092
 20
-336.896698
 11
462.173584
 21
-329.668823
  0
LINE
  8
0
 10
456.903442
 20
-336.814453
 11
456.903442
 21
-352.346344
  0
LINE
  8
0
 10
463.159729
 20
-327.204376
 11
463.159729
 21
-328.215485
  0
LINE
  8
0
 10
467.851715
 20
-327.204376
 11
467.851715
 21
-329.276672
  0
LINE
  8
0
 10
444.000092
 20
-336.896667
 11
444.000092
 21
-341.946259
  0
LINE
  8
0
 10
463.159729
 20
-327.204376
 11
467.851715
 21
-327.204376
  0
LINE
  8
0
 10
365.406830
 20
-329.276642
 11
365.406830
 21
-333.968781
  0
LINE
  8
0
  6
PHANTOM
 10
-372.932648
 20
131.887665
 11
-372.932648
 21
110.387665
  0
LINE
  8
0
  6
PHANTOM
 10
-372.932648
 20
131.887665
 11
-360.932648
 21
131.887665
  0
LINE
  8
0
  6
PHANTOM
 10
-372.932648
 20
110.387665
 11
-360.932648
 21
110.387665
  0
LINE
  8
0
  6
PHANTOM
 10
-385.655090
 20
128.387665
 11
-372.932648
 21
128.387665
  0
LINE
  8
0
  6
PHANTOM
 10
-390.210205
 20
111.387665
 11
-372.932648
 21
111.387665
  0
LINE
  8
0
  6
PHANTOM
 10
-360.932648
 20
131.887665
 11
-360.932648
 21
110.387665
  0
LINE
  8
0
  6
PHANTOM
 10
-390.520844
 20
110.228409
 11
-385.344452
 21
129.546936
  0
LINE
  8
0
  6
PHANTOM
 10
-372.932648
 20
249.162964
 11
-372.932648
 21
230.162964
  0
LINE
  8
0
  6
PHANTOM
 10
-372.932648
 20
230.162964
 11
-360.932648
 21
230.162964
  0
LINE
  8
0
  6
PHANTOM
 10
-385.655090
 20
248.162964
 11
-372.932648
 21
248.162964
  0
LINE
  8
0
  6
PHANTOM
 10
-390.210205
 20
231.162964
 11
-372.932648
 21
231.162964
  0
LINE
  8
0
  6
PHANTOM
 10
-372.932648
 20
249.162964
 11
-360.932648
 21
249.162964
  0
LINE
  8
0
  6
PHANTOM
 10
-360.932648
 20
249.162964
 11
-360.932648
 21
230.162964
  0
LINE
  8
0
  6
PHANTOM
 10
-390.520874
 20
230.003708
 11
-385.344482
 21
249.322220
  0
LINE
  8
0
  6
PHANTOM
 10
-189.309021
 20
128.887665
 11
-189.309021
 21
113.387665
  0
LINE
  8
0
  6
PHANTOM
 10
-170.309021
 20
128.887665
 11
-170.309021
 21
113.387665
  0
LINE
  8
0
  6
PHANTOM
 10
-186.309021
 20
131.887665
 11
-173.309021
 21
131.887665
  0
LINE
  8
0
  6
PHANTOM
 10
-462.533722
 20
-294.112366
 11
-412.533691
 21
-294.112366
  0
LINE
  8
0
  6
PHANTOM
 10
-462.533783
 20
-206.112350
 11
-412.533691
 21
-206.112350
  0
LINE
  8
0
  6
PHANTOM
 10
-412.533691
 20
-197.112350
 11
-412.533691
 21
-303.112366
  0
LINE
  8
0
  6
PHANTOM
 10
-330.533691
 20
-197.112350
 11
-412.533691
 21
-197.112350
  0
LINE
  8
0
  6
PHANTOM
 10
-330.533691
 20
-303.112366
 11
-412.533691
 21
-303.112366
  0
LINE
  8
0
  6
PHANTOM
 10
-330.533691
 20
-197.112350
 11
-330.533691
 21
-303.112366
  0
LINE
  8
0
  6
PHANTOM
 10
-330.533691
 20
-123.337036
 11
-412.533691
 21
-123.337036
  0
LINE
  8
0
  6
PHANTOM
 10
-330.533691
 20
-17.337036
 11
-412.533691
 21
-17.337036
  0
LINE
  8
0
  6
PHANTOM
 10
-412.533691
 20
-17.337036
 11
-412.533691
 21
-123.337036
  0
LINE
  8
0
  6
PHANTOM
 10
-462.533722
 20
-114.337036
 11
-412.533691
 21
-114.337036
  0
LINE
  8
0
  6
PHANTOM
 10
-462.533783
 20
-26.337036
 11
-412.533691
 21
-26.337036
  0
LINE
  8
0
  6
PHANTOM
 10
-330.533691
 20
-17.337036
 11
-330.533691
 21
-123.337036
  0
LINE
  8
0
  6
PHANTOM
 10
-70.848267
 20
-211.112350
 11
-70.848267
 21
-289.112366
  0
LINE
  8
0
  6
PHANTOM
 10
-162.848267
 20
-197.112350
 11
-84.848267
 21
-197.112350
  0
LINE
  8
0
  6
PHANTOM
 10
-176.848267
 20
-211.112350
 11
-176.848267
 21
-289.112366
  0
LINE
  8
0
  6
PHANTOM
 10
54.095474
 20
-186.112427
 11
104.095474
 21
-186.112427
  0
LINE
  8
0
  6
PHANTOM
 10
54.095474
 20
-74.112427
 11
104.095474
 21
-74.112427
  0
LINE
  8
0
  6
PHANTOM
 10
104.095474
 20
-64.112427
 11
104.095474
 21
-196.112427
  0
LINE
  8
0
  6
PHANTOM
 10
206.095474
 20
-64.112427
 11
104.095474
 21
-64.112427
  0
LINE
  8
0
  6
PHANTOM
 10
206.095474
 20
-196.112427
 11
104.095474
 21
-196.112427
  0
LINE
  8
0
  6
PHANTOM
 10
206.095474
 20
-64.112427
 11
206.095474
 21
-196.112427
  0
LINE
  8
0
  6
PHANTOM
 10
54.095474
 20
63.662857
 11
104.095474
 21
63.662857
  0
LINE
  8
0
  6
PHANTOM
 10
54.095474
 20
175.662857
 11
104.095474
 21
175.662857
  0
LINE
  8
0
  6
PHANTOM
 10
104.095474
 20
185.662857
 11
104.095474
 21
53.662857
  0
LINE
  8
0
  6
PHANTOM
 10
206.095474
 20
185.662857
 11
104.095474
 21
185.662857
  0
LINE
  8
0
  6
PHANTOM
 10
206.095474
 20
53.662857
 11
104.095474
 21
53.662857
  0
LINE
  8
0
  6
PHANTOM
 10
206.095474
 20
185.662857
 11
206.095474
 21
53.662857
  0
LINE
  8
0
  6
PHANTOM
 10
336.780914
 20
-82.112427
 11
336.780914
 21
-178.112427
  0
LINE
  8
0
  6
PHANTOM
 10
468.780914
 20
-82.112427
 11
468.780914
 21
-178.112427
  0
LINE
  8
0
  6
PHANTOM
 10
354.780914
 20
-64.112427
 11
450.780914
 21
-64.112427
  0
LINE
  8
0
  6
CENTER
 10
-391.397156
 20
119.887878
 11
-344.374725
 21
119.887878
  0
LINE
  8
0
  6
CENTER
 10
-391.397705
 20
239.662964
 11
-344.374725
 21
239.662964
  0
LINE
  8
0
  6
CENTER
 10
-191.767334
 20
119.887817
 11
-167.886230
 21
119.887817
  0
LINE
  8
0
  6
CENTER
 10
-179.808533
 20
134.887817
 11
-179.808533
 21
106.461166
  0
LINE
  8
0
  6
CENTER
 10
-472.533691
 20
-250.112549
 11
-292.700653
 21
-250.112549
  0
LINE
  8
0
  6
CENTER
 10
-472.533691
 20
-70.337036
 11
-290.533691
 21
-70.337036
  0
LINE
  8
0
  6
CENTER
 10
-123.848572
 20
-187.112350
 11
-123.848572
 21
-317.112518
  0
LINE
  8
0
  6
CENTER
 10
-188.848572
 20
-250.112518
 11
-58.848572
 21
-250.112518
  0
LINE
  8
0
  6
CENTER
 10
44.095581
 20
-130.112549
 11
251.095459
 21
-130.112549
  0
LINE
  8
0
  6
CENTER
 10
44.095581
 20
119.662857
 11
251.095459
 21
119.662857
  0
LINE
  8
0
  6
CENTER
 10
402.780609
 20
-54.112427
 11
402.780609
 21
-212.112579
  0
LINE
  8
0
  6
CENTER
 10
326.780914
 20
-130.112579
 11
478.780914
 21
-130.112579
  0
LINE
  8
0
 10
0.000000
 20
-360.000092
 11
0.000000
 21
360.000092
  0
LINE
  8
0
 10
-524.494446
 20
51.428604
 11
0.000000
 21
51.428604
  0
LINE
  8
0
 10
-359.332092
 20
123.137894
 11
-356.332092
 21
123.137894
  0
LINE
  8
0
 10
-359.332092
 20
111.137894
 11
-356.332092
 21
111.137894
  0
LINE
  8
0
 10
-360.932098
 20
128.887894
 11
-360.932098
 21
110.887894
  0
LINE
  8
0
 10
-359.332092
 20
116.637894
 11
-356.332092
 21
116.637894
  0
LINE
  8
0
 10
-359.332092
 20
128.637894
 11
-356.332092
 21
128.637894
  0
LINE
  8
0
 10
-356.332092
 20
111.137894
 11
-356.332092
 21
116.637894
  0
LINE
  8
0
 10
-356.332092
 20
128.637894
 11
-356.332092
 21
123.137894
  0
LINE
  8
0
 10
-346.932098
 20
110.487900
 11
-346.932098
 21
108.887894
  0
LINE
  8
0
 10
-358.932098
 20
108.887894
 11
-346.932098
 21
108.887894
  0
LINE
  8
0
 10
-360.932098
 20
128.887894
 11
-359.332092
 21
128.887894
  0
LINE
  8
0
 10
-358.932098
 20
110.487900
 11
-346.932098
 21
110.487900
  0
LINE
  8
0
 10
-359.332092
 20
128.887894
 11
-359.332092
 21
110.887894
  0
LINE
  8
0
  6
CENTER
 10
-350.932098
 20
113.632736
 11
-350.932098
 21
106.764984
  0
LINE
  8
0
  6
CENTER
 10
-370.926758
 20
113.887894
 11
-355.081573
 21
113.887894
  0
LINE
  8
0
  6
CENTER
 10
-370.926758
 20
125.887894
 11
-355.081573
 21
125.887894
  0
LINE
  8
0
  6
DASHED
 10
-352.732086
 20
110.487900
 11
-352.732086
 21
108.887894
  0
LINE
  8
0
  6
DASHED
 10
-349.132111
 20
110.487900
 11
-349.132111
 21
108.887894
  0
LINE
  8
0
 10
-359.332611
 20
230.912949
 11
-356.332611
 21
230.912949
  0
LINE
  8
0
 10
-360.932617
 20
248.862961
 11
-348.932617
 21
248.862961
  0
LINE
  8
0
 10
-360.932617
 20
230.462952
 11
-348.932617
 21
230.462952
  0
LINE
  8
0
 10
-360.932617
 20
248.862961
 11
-360.932617
 21
230.462952
  0
LINE
  8
0
 10
-359.332611
 20
248.862961
 11
-359.332611
 21
230.462952
  0
LINE
  8
0
 10
-356.332611
 20
248.412949
 11
-356.332611
 21
242.912949
  0
LINE
  8
0
 10
-359.332611
 20
248.412949
 11
-356.332611
 21
248.412949
  0
LINE
  8
0
 10
-359.332611
 20
242.912949
 11
-356.332611
 21
242.912949
  0
LINE
  8
0
 10
-346.932617
 20
246.862961
 11
-346.932617
 21
232.462952
  0
LINE
  8
0
 10
-359.332611
 20
236.412949
 11
-356.332611
 21
236.412949
  0
LINE
  8
0
 10
-356.332611
 20
230.912949
 11
-356.332611
 21
236.412949
  0
LINE
  8
0
  6
CENTER
 10
-370.927277
 20
245.662949
 11
-355.082062
 21
245.662949
  0
LINE
  8
0
  6
CENTER
 10
-370.927277
 20
233.662949
 11
-355.082062
 21
233.662949
  0
LINE
  8
0
  6
CENTER
 10
-350.932617
 20
230.662949
 11
-350.932617
 21
236.662949
  0
LINE
  8
0
  6
CENTER
 10
-353.932617
 20
233.662949
 11
-347.932617
 21
233.662949
  0
LINE
  8
0
  6
CENTER
 10
-353.932617
 20
245.662949
 11
-347.932617
 21
245.662949
  0
LINE
  8
0
  6
CENTER
 10
-350.932617
 20
248.662949
 11
-350.932617
 21
242.662949
  0
LINE
  8
0
 10
-172.558517
 20
113.166122
 11
-172.558517
 21
114.609482
  0
LINE
  8
0
 10
-173.808517
 20
112.444450
 11
-172.558517
 21
113.166138
  0
LINE
  8
0
 10
-189.008530
 20
108.887802
 11
-170.608505
 21
108.887802
  0
LINE
  8
0
 10
-187.008530
 20
128.887802
 11
-172.608505
 21
128.887802
  0
LINE
  8
0
 10
-189.008530
 20
126.887802
 11
-189.008530
 21
108.887802
  0
LINE
  8
0
 10
-170.608505
 20
126.887802
 11
-170.608505
 21
108.887802
  0
LINE
  8
0
 10
-189.008530
 20
110.487808
 11
-170.608505
 21
110.487808
  0
LINE
  8
0
 10
-187.058533
 20
125.166138
 11
-185.808533
 21
124.444443
  0
LINE
  8
0
 10
-185.808548
 20
124.444458
 11
-184.558548
 21
125.166145
  0
LINE
  8
0
 10
-184.558517
 20
125.166122
 11
-184.558517
 21
126.609482
  0
LINE
  8
0
 10
-184.558533
 20
126.609489
 11
-185.808533
 21
127.331184
  0
LINE
  8
0
 10
-185.808548
 20
127.331223
 11
-187.058563
 21
126.609528
  0
LINE
  8
0
 10
-187.058517
 20
126.609497
 11
-187.058517
 21
125.166107
  0
LINE
  8
0
 10
-175.058517
 20
113.166122
 11
-173.808502
 21
112.444427
  0
LINE
  8
0
 10
-175.058487
 20
114.609497
 11
-175.058487
 21
113.166122
  0
LINE
  8
0
 10
-173.808578
 20
115.331238
 11
-175.058594
 21
114.609543
  0
LINE
  8
0
 10
-172.558533
 20
114.609489
 11
-173.808548
 21
115.331184
  0
LINE
  8
0
  6
CENTER
 10
-189.308517
 20
125.887802
 11
-182.308517
 21
125.887802
  0
LINE
  8
0
  6
CENTER
 10
-185.808517
 20
129.387802
 11
-185.808517
 21
122.387802
  0
LINE
  8
0
  6
CENTER
 10
-177.308517
 20
125.887802
 11
-170.308517
 21
125.887802
  0
LINE
  8
0
  6
CENTER
 10
-173.808517
 20
129.387802
 11
-173.808517
 21
122.387802
  0
LINE
  8
0
  6
CENTER
 10
-177.308517
 20
113.887802
 11
-170.308517
 21
113.887802
  0
LINE
  8
0
  6
CENTER
 10
-173.808517
 20
117.387802
 11
-173.808517
 21
107.883865
  0
LINE
  8
0
  6
DASHED
 10
-175.308517
 20
110.487808
 11
-175.308517
 21
108.887802
  0
LINE
  8
0
  6
DASHED
 10
-172.308517
 20
110.487808
 11
-172.308517
 21
108.887802
  0
LINE
  8
0
  6
DASHED
 10
-184.008530
 20
110.487808
 11
-184.008530
 21
108.887802
  0
LINE
  8
0
  6
DASHED
 10
-187.608505
 20
110.487808
 11
-187.608505
 21
108.887802
  0
LINE
  8
0
  6
CENTER
 10
-185.808517
 20
117.387802
 11
-185.808517
 21
107.883865
  0
LINE
  8
0
  6
CENTER
 10
-189.308517
 20
113.887802
 11
-182.308517
 21
113.887802
  0
LINE
  8
0
 10
-303.533630
 20
-267.112213
 11
-300.533600
 21
-270.112213
  0
LINE
  8
0
 10
-330.533997
 20
-267.112549
 11
-303.533997
 21
-267.112549
  0
LINE
  8
0
 10
-330.533997
 20
-307.112549
 11
-300.533997
 21
-307.112549
  0
LINE
  8
0
 10
-330.533997
 20
-267.112549
 11
-330.533997
 21
-307.112549
  0
LINE
  8
0
 10
-300.533997
 20
-270.112549
 11
-300.533997
 21
-307.112549
  0
LINE
  8
0
  6
DASHED
 10
-321.033997
 20
-267.112549
 11
-321.033997
 21
-307.112549
  0
LINE
  8
0
  6
DASHED
 10
-310.033997
 20
-267.112549
 11
-310.033997
 21
-307.112549
  0
LINE
  8
0
  6
CENTER
 10
-315.533997
 20
-259.779205
 11
-315.533997
 21
-315.112549
  0
LINE
  8
0
  6
CENTER
 10
-338.367340
 20
-289.112549
 11
-292.700653
 21
-289.112549
  0
LINE
  8
0
 10
-330.533691
 20
-18.337070
 11
-330.533691
 21
-122.337067
  0
LINE
  8
0
 10
-330.533691
 20
-122.337067
 11
-300.533691
 21
-122.337067
  0
LINE
  8
0
 10
-330.533691
 20
-18.337070
 11
-300.533691
 21
-18.337070
  0
LINE
  8
0
 10
-303.533691
 20
-18.337070
 11
-303.533691
 21
-122.337067
  0
LINE
  8
0
 10
-300.533691
 20
-18.337070
 11
-300.533691
 21
-122.337067
  0
LINE
  8
0
  6
CENTER
 10
-340.533691
 20
-31.337070
 11
-290.533691
 21
-31.337070
  0
LINE
  8
0
  6
CENTER
 10
-315.533691
 20
-56.337070
 11
-315.533691
 21
-36.337070
  0
LINE
  8
0
  6
CENTER
 10
-325.533691
 20
-46.337070
 11
-305.533691
 21
-46.337070
  0
LINE
  8
0
  6
CENTER
 10
-315.533691
 20
-84.337067
 11
-315.533691
 21
-104.337067
  0
LINE
  8
0
  6
CENTER
 10
-325.533691
 20
-94.337067
 11
-305.533691
 21
-94.337067
  0
LINE
  8
0
  6
CENTER
 10
-340.533691
 20
-109.337067
 11
-290.533691
 21
-109.337067
  0
LINE
  8
0
  6
CENTER
 10
-84.848572
 20
-279.112518
 11
-84.848572
 21
-299.112518
  0
LINE
  8
0
  6
DASHED
 10
-94.348572
 20
-267.112518
 11
-94.348572
 21
-307.112518
  0
LINE
  8
0
 10
-175.848572
 20
-267.112518
 11
-175.848572
 21
-307.112518
  0
LINE
  8
0
 10
-71.848572
 20
-267.112518
 11
-71.848572
 21
-307.112518
  0
LINE
  8
0
 10
-175.848572
 20
-267.112518
 11
-71.848572
 21
-267.112518
  0
LINE
  8
0
 10
-175.848572
 20
-307.112518
 11
-71.848572
 21
-307.112518
  0
LINE
  8
0
 10
-175.848572
 20
-270.112518
 11
-71.848572
 21
-270.112518
  0
LINE
  8
0
 10
-87.848549
 20
-287.380463
 11
-84.848541
 21
-285.648407
  0
LINE
  8
0
 10
-84.848648
 20
-285.648437
 11
-81.848640
 21
-287.380493
  0
LINE
  8
0
 10
-87.848572
 20
-290.844574
 11
-87.848572
 21
-287.380493
  0
LINE
  8
0
 10
-81.848755
 20
-287.380463
 11
-81.848755
 21
-290.844543
  0
LINE
  8
0
 10
-81.848526
 20
-290.844604
 11
-84.848534
 21
-292.576660
  0
LINE
  8
0
 10
-84.848480
 20
-292.576508
 11
-87.848488
 21
-290.844452
  0
LINE
  8
0
 10
-165.848694
 20
-290.844604
 11
-162.848679
 21
-292.576660
  0
LINE
  8
0
 10
-162.848526
 20
-292.576721
 11
-159.848511
 21
-290.844666
  0
LINE
  8
0
 10
-159.848572
 20
-290.844574
 11
-159.848572
 21
-287.380493
  0
LINE
  8
0
 10
-159.848663
 20
-287.380493
 11
-162.848648
 21
-285.648468
  0
LINE
  8
0
 10
-162.848587
 20
-285.648590
 11
-165.848602
 21
-287.380646
  0
LINE
  8
0
 10
-165.848541
 20
-287.380463
 11
-165.848541
 21
-290.844543
  0
LINE
  8
0
  6
CENTER
 10
-162.848572
 20
-279.112518
 11
-162.848572
 21
-299.112518
  0
LINE
  8
0
  6
CENTER
 10
-172.848572
 20
-289.112518
 11
-152.848572
 21
-289.112518
  0
LINE
  8
0
  6
DASHED
 10
-153.348572
 20
-267.112518
 11
-153.348572
 21
-307.112518
  0
LINE
  8
0
  6
CENTER
 10
-147.848572
 20
-257.112518
 11
-147.848572
 21
-317.112518
  0
LINE
  8
0
  6
DASHED
 10
-142.348572
 20
-267.112518
 11
-142.348572
 21
-307.112518
  0
LINE
  8
0
  6
DASHED
 10
-105.348572
 20
-267.112518
 11
-105.348572
 21
-307.112518
  0
LINE
  8
0
  6
CENTER
 10
-99.848572
 20
-257.112518
 11
-99.848572
 21
-317.112518
  0
LINE
  8
0
  6
CENTER
 10
-74.848572
 20
-289.112518
 11
-94.848572
 21
-289.112518
  0
LINE
  8
0
 10
206.095215
 20
-202.112579
 11
241.095215
 21
-202.112579
  0
LINE
  8
0
 10
241.095215
 20
-156.112579
 11
241.095215
 21
-202.112579
  0
LINE
  8
0
 10
206.095215
 20
-152.112579
 11
206.095215
 21
-202.112579
  0
LINE
  8
0
 10
206.095215
 20
-152.112579
 11
237.095215
 21
-152.112579
  0
LINE
  8
0
 10
237.095261
 20
-152.112625
 11
241.095230
 21
-156.112595
  0
LINE
  8
0
  6
CENTER
 10
200.517776
 20
-178.112579
 11
248.305389
 21
-178.112579
  0
LINE
  8
0
  6
CENTER
 10
223.595215
 20
-149.149200
 11
223.595215
 21
-205.899445
  0
LINE
  8
0
  6
DASHED
 10
216.595215
 20
-152.112579
 11
216.595215
 21
-202.112579
  0
LINE
  8
0
  6
DASHED
 10
230.595215
 20
-152.112579
 11
230.595215
 21
-202.112579
  0
LINE
  8
0
 10
206.095505
 20
184.662888
 11
241.095490
 21
184.662888
  0
LINE
  8
0
 10
241.095490
 20
184.662888
 11
241.095490
 21
54.662888
  0
LINE
  8
0
 10
206.095505
 20
54.662888
 11
206.095505
 21
184.662888
  0
LINE
  8
0
 10
237.095490
 20
184.662888
 11
237.095490
 21
54.662888
  0
LINE
  8
0
 10
206.095505
 20
54.662888
 11
241.095490
 21
54.662888
  0
LINE
  8
0
  6
CENTER
 10
223.595505
 20
77.162888
 11
223.595505
 21
102.162888
  0
LINE
  8
0
  6
CENTER
 10
211.095505
 20
89.662888
 11
236.095490
 21
89.662888
  0
LINE
  8
0
  6
CENTER
 10
196.095505
 20
71.662888
 11
251.095490
 21
71.662888
  0
LINE
  8
0
  6
CENTER
 10
223.595505
 20
162.162888
 11
223.595505
 21
137.162888
  0
LINE
  8
0
  6
CENTER
 10
211.095505
 20
149.662888
 11
236.095490
 21
149.662888
  0
LINE
  8
0
  6
CENTER
 10
196.095505
 20
167.662888
 11
251.095490
 21
167.662888
  0
LINE
  8
0
 10
337.780579
 20
-152.112579
 11
337.780579
 21
-202.112579
  0
LINE
  8
0
 10
467.780579
 20
-152.112579
 11
467.780579
 21
-202.112579
  0
LINE
  8
0
 10
337.780579
 20
-202.112579
 11
467.780579
 21
-202.112579
  0
LINE
  8
0
 10
337.780579
 20
-152.112579
 11
467.780579
 21
-152.112579
  0
LINE
  8
0
 10
337.780579
 20
-156.112579
 11
467.780579
 21
-156.112579
  0
LINE
  8
0
 10
446.780548
 20
-180.421982
 11
450.780548
 21
-182.731369
  0
LINE
  8
0
 10
450.780640
 20
-182.731598
 11
454.780640
 21
-180.422195
  0
LINE
  8
0
 10
454.780609
 20
-180.421997
 11
454.780609
 21
-175.803192
  0
LINE
  8
0
 10
454.780609
 20
-175.803177
 11
450.780609
 21
-173.493790
  0
LINE
  8
0
 10
450.780792
 20
-173.494049
 11
446.780823
 21
-175.803436
  0
LINE
  8
0
 10
446.780609
 20
-175.803162
 11
446.780609
 21
-180.421967
  0
LINE
  8
0
 10
350.780579
 20
-180.421997
 11
350.780579
 21
-175.803192
  0
LINE
  8
0
 10
358.780579
 20
-175.803162
 11
358.780579
 21
-180.421967
  0
LINE
  8
0
 10
358.780548
 20
-180.421997
 11
354.780548
 21
-182.731400
  0
LINE
  8
0
 10
354.780609
 20
-182.731323
 11
350.780609
 21
-180.421921
  0
LINE
  8
0
 10
354.780640
 20
-173.493744
 11
358.780609
 21
-175.803131
  0
LINE
  8
0
 10
350.780457
 20
-175.803101
 11
354.780457
 21
-173.493698
  0
LINE
  8
0
  6
CENTER
 10
354.780579
 20
-165.612579
 11
354.780579
 21
-190.612579
  0
LINE
  8
0
  6
CENTER
 10
367.280579
 20
-178.112579
 11
342.280579
 21
-178.112579
  0
LINE
  8
0
  6
DASHED
 10
365.780579
 20
-152.112579
 11
365.780579
 21
-202.112579
  0
LINE
  8
0
  6
CENTER
 10
372.780579
 20
-142.112579
 11
372.780579
 21
-212.112579
  0
LINE
  8
0
  6
DASHED
 10
379.780579
 20
-152.112579
 11
379.780579
 21
-202.112579
  0
LINE
  8
0
  6
DASHED
 10
425.780579
 20
-152.112579
 11
425.780579
 21
-202.112579
  0
LINE
  8
0
  6
CENTER
 10
432.780579
 20
-142.112579
 11
432.780579
 21
-212.112579
  0
LINE
  8
0
  6
DASHED
 10
439.780579
 20
-152.112579
 11
439.780579
 21
-202.112579
  0
LINE
  8
0
  6
CENTER
 10
450.780579
 20
-165.612579
 11
450.780579
 21
-190.612579
  0
LINE
  8
0
  6
CENTER
 10
438.280579
 20
-178.112579
 11
463.280579
 21
-178.112579
  0
ARC
  8
0
 10
461.595520
 20
-328.215485
 40
1.564059
 50
291.688049
 51
0.000000
  0
ARC
  8
0
 10
386.130402
 20
-332.404785
 40
3.128082
 50
0.000000
 51
90.000000
  0
ARC
  8
0
 10
411.937195
 20
-349.218353
 40
3.128082
 50
270.000000
 51
0.000000
  0
ARC
  8
0
 10
410.373047
 20
-333.968781
 40
4.692139
 50
0.000000
 51
90.000000
  0
ARC
  8
0
 10
438.916931
 20
-334.903870
 40
3.128100
 50
294.999969
 51
0.000000
  0
ARC
  8
0
 10
438.916931
 20
-332.404785
 40
3.128082
 50
0.000000
 51
90.000000
  0
ARC
  8
0
 10
463.159729
 20
-329.276672
 40
4.692149
 50
291.688202
 51
0.000000
  0
ARC
  8
0
  6
PHANTOM
 10
-186.309021
 20
128.887665
 40
3.000000
 50
90.000000
 51
180.000000
  0
ARC
  8
0
  6
PHANTOM
 10
-173.309021
 20
128.887665
 40
3.000000
 50
0.000000
 51
90.000000
  0
ARC
  8
0
  6
PHANTOM
 10
-173.309021
 20
113.387665
 40
2.999998
 50
334.158020
 51
0.000000
  0
ARC
  8
0
  6
PHANTOM
 10
-186.309021
 20
113.387665
 40
3.000000
 50
180.000000
 51
205.841980
  0
ARC
  8
0
  6
PHANTOM
 10
-416.633789
 20
-228.112350
 40
50.899986
 50
154.391479
 51
205.608444
  0
ARC
  8
0
  6
PHANTOM
 10
-508.433716
 20
-272.112366
 40
50.899994
 50
334.391479
 51
25.608381
  0
ARC
  8
0
  6
PHANTOM
 10
-416.633789
 20
-48.337036
 40
50.899990
 50
154.391479
 51
205.608444
  0
ARC
  8
0
  6
PHANTOM
 10
-508.433716
 20
-92.337036
 40
50.899994
 50
334.391479
 51
25.608389
  0
ARC
  8
0
  6
PHANTOM
 10
-84.848267
 20
-289.112366
 40
14.000006
 50
338.213165
 51
0.000000
  0
ARC
  8
0
  6
PHANTOM
 10
-84.848267
 20
-211.112350
 40
14.000000
 50
0.000000
 51
89.999969
  0
ARC
  8
0
  6
PHANTOM
 10
-162.848267
 20
-211.112350
 40
14.000000
 50
90.000000
 51
179.999939
  0
ARC
  8
0
  6
PHANTOM
 10
-162.848267
 20
-289.112366
 40
14.000000
 50
180.000000
 51
201.786728
  0
ARC
  8
0
  6
PHANTOM
 10
88.295486
 20
-102.112427
 40
44.200001
 50
140.692398
 51
219.307648
  0
ARC
  8
0
  6
PHANTOM
 10
19.895462
 20
-158.112427
 40
44.200005
 50
320.692352
 51
39.307678
  0
ARC
  8
0
  6
PHANTOM
 10
19.895462
 20
91.662857
 40
44.199997
 50
320.692352
 51
39.307686
  0
ARC
  8
0
  6
PHANTOM
 10
88.295486
 20
147.662857
 40
44.200005
 50
140.692383
 51
219.307648
  0
ARC
  8
0
  6
PHANTOM
 10
354.780914
 20
-178.112427
 40
18.000000
 50
180.000000
 51
199.188126
  0
ARC
  8
0
  6
PHANTOM
 10
450.780914
 20
-178.112427
 40
17.999998
 50
340.811859
 51
0.000000
  0
ARC
  8
0
  6
PHANTOM
 10
450.780914
 20
-82.112427
 40
18.000000
 50
0.000000
 51
90.000000
  0
ARC
  8
0
  6
PHANTOM
 10
354.780914
 20
-82.112427
 40
18.000000
 50
90.000000
 51
179.999969
  0
ARC
  8
0
 10
-358.932098
 20
110.887894
 40
0.399994
 50
180.000000
 51
270.000000
  0
ARC
  8
0
 10
-358.932098
 20
110.887894
 40
2.000000
 50
180.000000
 51
270.000000
  0
CIRCLE
  8
0
 10
-350.932617
 20
233.662949
 40
1.800000
  0
CIRCLE
  8
0
 10
-350.932617
 20
245.662949
 40
1.800000
  0
ARC
  8
0
 10
-348.932617
 20
232.462952
 40
2.000000
 50
270.000000
 51
0.000000
  0
ARC
  8
0
 10
-348.932617
 20
246.862961
 40
2.000000
 50
0.000000
 51
90.000000
  0
ARC
  8
0
 10
-187.008530
 20
126.887802
 40
2.000000
 50
90.000000
 51
180.000000
  0
ARC
  8
0
 10
-172.608505
 20
126.887802
 40
2.000000
 50
0.000000
 51
90.000000
  0
CIRCLE
  8
0
 10
-173.808517
 20
125.887802
 40
1.700000
  0
CIRCLE
  8
0
 10
-185.808517
 20
113.887802
 40
1.700000
  0
CIRCLE
  8
0
 10
-185.808517
 20
125.887802
 40
2.750000
  0
CIRCLE
  8
0
 10
-173.808517
 20
113.887802
 40
2.750000
  0
CIRCLE
  8
0
 10
-315.533691
 20
-46.337070
 40
5.500000
  0
CIRCLE
  8
0
 10
-315.533691
 20
-94.337067
 40
5.500000
  0
CIRCLE
  8
0
 10
-162.848572
 20
-289.112518
 40
7.250000
  0
CIRCLE
  8
0
 10
-162.848572
 20
-289.112518
 40
6.500000
  0
CIRCLE
  8
0
 10
-84.848572
 20
-289.112518
 40
6.500000
  0
CIRCLE
  8
0
 10
-84.848572
 20
-289.112518
 40
7.250000
  0
CIRCLE
  8
0
 10
223.595505
 20
89.662888
 40
7.000000
  0
CIRCLE
  8
0
 10
223.595505
 20
149.662888
 40
7.000000
  0
CIRCLE
  8
0
 10
354.780579
 20
-178.112579
 40
8.000000
  0
CIRCLE
  8
0
 10
354.780579
 20
-178.112579
 40
8.750000
  0
CIRCLE
  8
0
 10
450.780579
 20
-178.112579
 40
8.000000
  0
CIRCLE
  8
0
 10
450.780579
 20
-178.112579
 40
8.750000
  0
TEXT
  8
0
 10
320.176147
 20
329.975403
 40
12.000000
  1
DATE : NOV ,1991
 50
0.000000
 41
1.052631
 51
0.000000
  7
STANDARD
  0
TEXT
  8
0
 10
-516.379272
 20
328.175385
 40
14.000000
  1
ORC FOOT MOUNT
 50
0.000000
 41
1.052632
 51
0.000000
  7
STANDARD
  0
TEXT
  8
0
 10
-513.244446
 20
19.828602
 40
14.000000
  1
BORE : 63
 50
0.000000
 41
1.052632
 51
0.000000
  7
STANDARD
  0
TEXT
  8
0
 10
-513.244446
 20
287.950592
 40
14.000000
  1
BORE : 10
 50
0.000000
 41
1.052632
 51
0.000000
  7
STANDARD
  0
TEXT
  8
0
 10
11.250002
 20
287.950592
 40
14.000000
  1
BORE : 80
 50
0.000000
 41
1.052632
 51
0.000000
  7
STANDARD
  0
ENDSEC
  0
EOF
