  0
SECTION
  2
HEADER
  0
ENDSEC
  0
SECTION
  2
TABLES
  0
TABLE
  2
LTYPE
 70
     4
  0
LTYPE
  2
CONTINUOUS
 70
    64
  3
Solid line
 72
    65
 73
     0
 40
0.000000
  0
LTYPE
  2
DASHED
 70
    64
  3
__ __ __ __ __ __ __ __ __ __ __ __ __ __ __
 72
    65
 73
     2
 40
3.500000
 49
2.000000
 49
-1.500000
  0
LTYPE
  2
CENTER
 70
    64
  3
____ _ ____ _ ____ _ ____ _ ____ _ ____ _ ____
 72
    65
 73
     4
 40
17.500000
 49
13.000000
 49
-1.500000
 49
1.500000
 49
-1.500000
  0
LTYPE
  2
PHANTOM
 70
    64
  3
_____ _ _ _____ _ _ _____ _ _ _____ _ _ ____  
 72
    65
 73
     6
 40
15.500000
 49
8.000000
 49
-1.500000
 49
1.500000
 49
-1.500000
 49
1.500000
 49
-1.500000
  0
LTYPE
  2
DASHED1
 70
    64
  3
__ __ __ __ __ __ __ __ __ __ __ __ __ __ __
 72
    65
 73
     2
 40
1.500000
 49
1.000000
 49
-0.500000
  0
LTYPE
  2
DASHED2
 70
    64
  3
__ __ __ __ __ __ __ __ __ __ __ __ __ __ __
 72
    65
 73
     2
 40
3.500000
 49
2.500000
 49
-1.000000
  0
LTYPE
  2
DASHED3
 70
    64
  3
__ __ __ __ __ __ __ __ __ __ __ __ __ __ __
 72
    65
 73
     2
 40
6.000000
 49
4.000000
 49
-2.000000
  0
LTYPE
  2
DASHED4
 70
    64
  3
__ __ __ __ __ __ __ __ __ __ __ __ __ __ __
 72
    65
 73
     2
 40
12.000000
 49
10.000000
 49
-2.000000
  0
LTYPE
  2
DASHED5
 70
    64
  3
__ __ __ __ __ __ __ __ __ __ __ __ __ __ __
 72
    65
 73
     2
 40
17.000000
 49
15.000000
 49
-2.000000
  0
LTYPE
  2
DASHED6
 70
    64
  3
__ __ __ __ __ __ __ __ __ __ __ __ __ __ __
 72
    65
 73
     2
 40
29.000000
 49
27.000000
 49
-2.000000
  0
LTYPE
  2
PHANTOM1
 70
    64
  3
_____ _ _ _____ _ _ _____ _ _ _____ _ _ ____  
 72
    65
 73
     6
 40
31.000000
 49
25.000000
 49
-1.500000
 49
1.000000
 49
-1.000000
 49
1.000000
 49
-1.500000
  0
LTYPE
  2
PHANTOM2
 70
    64
  3
_____ _ _ _____ _ _ _____ _ _ _____ _ _ ____  
 72
    65
 73
     6
 40
36.000000
 49
27.000000
 49
-1.500000
 49
2.500000
 49
-1.000000
 49
2.500000
 49
-1.500000
  0
LTYPE
  2
PHANTOM3
 70
    64
  3
_____ _ _ _____ _ _ _____ _ _ _____ _ _ ____  
 72
    65
 73
     6
 40
78.000000
 49
64.000000
 49
-2.000000
 49
4.000000
 49
-2.000000
 49
4.000000
 49
-2.000000
  0
LTYPE
  2
CENTER1
 70
    64
  3
____ _ ____ _ ____ _ ____ _ ____ _ ____ _ ____
 72
    65
 73
     4
 40
19.000000
 49
14.000000
 49
-1.000000
 49
3.000000
 49
-1.000000
  0
LTYPE
  2
CENTER2
 70
    64
  3
____ _ ____ _ ____ _ ____ _ ____ _ ____ _ ____
 72
    65
 73
     4
 40
28.500000
 49
25.000000
 49
-1.000000
 49
1.500000
 49
-1.000000
  0
LTYPE
  2
CENTER3
 70
    64
  3
____ _ ____ _ ____ _ ____ _ ____ _ ____ _ ____
 72
    65
 73
     4
 40
31.500000
 49
27.000000
 49
-1.000000
 49
2.500000
 49
-1.000000
  0
LTYPE
  2
CENTER4
 70
    64
  3
____ _ ____ _ ____ _ ____ _ ____ _ ____ _ ____
 72
    65
 73
     4
 40
50.000000
 49
45.000000
 49
-1.000000
 49
3.000000
 49
-1.000000
  0
LTYPE
  2
CENTER5
 70
    64
  3
____ _ ____ _ ____ _ ____ _ ____ _ ____ _ ____
 72
    65
 73
     4
 40
100.000000
 49
92.000000
 49
-2.000000
 49
4.000000
 49
-2.000000
  0
LTYPE
  2
SBK1
 70
    64
  3
______ _ _ _ ______ _ _ _ ______ _ _ _ _____  
 72
    65
 73
     8
 40
60.500000
 49
45.000000
 49
-2.000000
 49
2.500000
 49
-2.000000
 49
2.500000
 49
-2.000000
 49
2.500000
 49
-2.000000
  0
LTYPE
  2
SBK2
 70
    64
  3
______ _ _ _ ______ _ _ _ ______ _ _ _ _____  
 72
    65
 73
     8
 40
84.000000
 49
64.000000
 49
-2.000000
 49
4.000000
 49
-2.000000
 49
4.000000
 49
-2.000000
 49
4.000000
 49
-2.000000
  0
LTYPE
  2
STCH
 70
    64
  3
__ __ __ __ __ __ __ __ __ __ __ __ __ __ __
 72
    65
 73
     2
 40
3.000000
 49
1.000000
 49
-2.000000
  0
LTYPE
  2
MTCH
 70
    64
  3
_____ _ _ _____ _ _ _____ _ _ _____ _ _ ____  
 72
    65
 73
     6
 40
80.000000
 49
66.000000
 49
-2.000000
 49
4.000000
 49
-2.000000
 49
4.000000
 49
-2.000000
  0
ENDTAB
  0
TABLE
  2
LAYER
 70
     1
  0
LAYER
  2
0
 70
     0
 62
     7
  6
CONTINUOUS
  0
ENDTAB
  0
TABLE
  2
STYLE
 70
     1
  0
STYLE
  2
STANDARD
 70
     0
 40
0.000000
 41
1.000000
 50
0.000000
 71
     0
 42
0.200000
  3
txt
  4
BIGFONT
  0
ENDTAB
  0
TABLE
  2
VIEW
 70
     0
  0
ENDTAB
  0
ENDSEC
  0
SECTION
  2
BLOCKS
  0
ENDSEC
  0
SECTION
  2
ENTITIES
  0
POINT
  8
0
 10
-520.873352
 20
-332.536682
  0
POINT
  8
0
 10
-520.873535
 20
-54.558441
  0
POINT
  8
0
 10
-520.873596
 20
258.419647
  0
POINT
  8
0
 10
-175.436768
 20
-54.558449
  0
POINT
  8
0
 10
-398.873505
 20
-54.558441
  0
POINT
  8
0
 10
-398.873566
 20
258.419647
  0
POINT
  8
0
 10
-131.436768
 20
-54.558449
  0
POINT
  8
0
 10
-398.873322
 20
-332.536682
  0
POINT
  8
0
 10
235.873566
 20
-342.978241
  0
POINT
  8
0
 10
235.873642
 20
-40.000042
  0
POINT
  8
0
 10
606.310486
 20
-40.000095
  0
POINT
  8
0
 10
235.873489
 20
302.978149
  0
POINT
  8
0
 10
390.873627
 20
-40.000042
  0
POINT
  8
0
 10
390.873474
 20
302.978149
  0
POINT
  8
0
 10
662.310486
 20
-40.000095
  0
POINT
  8
0
 10
390.873535
 20
-342.978241
  0
LINE
  8
0
 10
436.658356
 20
-451.912964
 11
741.747192
 21
-451.912964
  0
LINE
  8
0
 10
-436.658356
 20
451.912811
 11
-436.658356
 21
509.117035
  0
LINE
  8
0
 10
-741.747192
 20
451.912811
 11
-436.658356
 21
451.912811
  0
LINE
  8
0
 10
-741.747192
 20
509.117035
 11
741.747192
 21
509.117035
  0
LINE
  8
0
 10
-741.747192
 20
-509.117035
 11
741.747192
 21
-509.117035
  0
LINE
  8
0
 10
741.747192
 20
509.117035
 11
741.747192
 21
-509.117035
  0
LINE
  8
0
 10
-741.747192
 20
-509.117035
 11
-741.747192
 21
509.117035
  0
LINE
  8
0
 10
436.658356
 20
-451.912964
 11
436.658356
 21
-509.117035
  0
LINE
  8
0
 10
436.658356
 20
509.117035
 11
436.658356
 21
451.912811
  0
LINE
  8
0
 10
436.658356
 20
451.912811
 11
741.747192
 21
451.912811
  0
LINE
  8
0
 10
516.763306
 20
-472.303223
 11
541.647156
 21
-472.303223
  0
LINE
  8
0
 10
516.763306
 20
-498.292999
 11
550.494751
 21
-498.292999
  0
LINE
  8
0
 10
516.763306
 20
-491.657379
 11
541.647156
 21
-491.657379
  0
LINE
  8
0
 10
516.763306
 20
-465.667511
 11
546.070862
 21
-465.667511
  0
LINE
  8
0
 10
541.647156
 20
-472.303223
 11
541.647156
 21
-491.657379
  0
LINE
  8
0
 10
550.494751
 20
-470.091400
 11
550.494751
 21
-498.292999
  0
LINE
  8
0
 10
516.763306
 20
-491.657379
 11
516.763306
 21
-498.292999
  0
LINE
  8
0
 10
586.990845
 20
-472.303223
 11
586.990845
 21
-493.869354
  0
LINE
  8
0
 10
555.471375
 20
-465.667511
 11
555.471375
 21
-472.303223
  0
LINE
  8
0
 10
587.875732
 20
-465.169983
 11
591.027710
 21
-465.169983
  0
LINE
  8
0
 10
587.875732
 20
-460.746094
 11
591.027710
 21
-460.746094
  0
LINE
  8
0
 10
591.027710
 20
-460.746094
 11
591.027710
 21
-465.169983
  0
LINE
  8
0
 10
587.875732
 20
-460.746094
 11
587.875732
 21
-465.169983
  0
LINE
  8
0
 10
586.216614
 20
-460.746094
 11
586.216614
 21
-465.169983
  0
LINE
  8
0
 10
565.532166
 20
-460.746094
 11
572.401855
 21
-460.746094
  0
LINE
  8
0
 10
571.082458
 20
-465.666931
 11
572.401123
 21
-460.745453
  0
LINE
  8
0
 10
564.213440
 20
-465.667480
 11
565.532104
 21
-460.746002
  0
LINE
  8
0
 10
571.083191
 20
-465.667511
 11
580.355164
 21
-465.667511
  0
LINE
  8
0
 10
569.305176
 20
-472.303223
 11
578.143372
 21
-472.303223
  0
LINE
  8
0
 10
573.285767
 20
-498.292999
 11
582.567200
 21
-498.292999
  0
LINE
  8
0
 10
571.507446
 20
-491.657257
 11
573.285522
 21
-498.292725
  0
LINE
  8
0
 10
571.507568
 20
-491.657379
 11
578.143372
 21
-491.657379
  0
LINE
  8
0
 10
562.341553
 20
-498.293396
 11
569.305420
 21
-472.303528
  0
LINE
  8
0
 10
555.471375
 20
-472.303223
 11
562.435425
 21
-472.303223
  0
LINE
  8
0
 10
555.471130
 20
-498.292755
 11
562.435242
 21
-472.302887
  0
LINE
  8
0
 10
555.471375
 20
-498.292999
 11
562.341248
 21
-498.292999
  0
LINE
  8
0
 10
555.471375
 20
-465.667511
 11
564.213440
 21
-465.667511
  0
LINE
  8
0
 10
578.143372
 20
-472.303223
 11
578.143372
 21
-491.657379
  0
LINE
  8
0
 10
583.064636
 20
-460.746094
 11
586.216614
 21
-460.746094
  0
LINE
  8
0
 10
583.064636
 20
-465.169983
 11
586.216614
 21
-465.169983
  0
LINE
  8
0
 10
583.064636
 20
-460.746094
 11
583.064636
 21
-465.169983
  0
LINE
  8
0
 10
603.027161
 20
-460.746094
 11
611.874634
 21
-460.746094
  0
LINE
  8
0
 10
616.684692
 20
-480.390106
 11
622.592529
 21
-477.635315
  0
LINE
  8
0
 10
611.874634
 20
-485.468903
 11
611.874634
 21
-498.292999
  0
LINE
  8
0
 10
603.027161
 20
-486.758148
 11
603.027161
 21
-498.292999
  0
LINE
  8
0
 10
611.874634
 20
-465.667511
 11
620.722290
 21
-465.667511
  0
LINE
  8
0
 10
611.874634
 20
-460.746094
 11
611.874634
 21
-465.667511
  0
LINE
  8
0
 10
603.027161
 20
-460.746094
 11
603.027161
 21
-465.667511
  0
LINE
  8
0
 10
625.146118
 20
-470.091400
 11
625.146118
 21
-473.625641
  0
LINE
  8
0
 10
616.684753
 20
-480.389984
 11
625.146667
 21
-484.335999
  0
LINE
  8
0
 10
611.874634
 20
-485.468781
 11
625.146179
 21
-491.657349
  0
LINE
  8
0
 10
592.520630
 20
-484.335693
 11
592.520630
 21
-491.657379
  0
LINE
  8
0
 10
592.521545
 20
-484.336395
 11
618.325195
 21
-472.303925
  0
LINE
  8
0
 10
592.520630
 20
-491.657349
 11
603.027344
 21
-486.757965
  0
LINE
  8
0
 10
625.146118
 20
-484.335693
 11
625.146118
 21
-491.657379
  0
LINE
  8
0
 10
592.520630
 20
-465.667511
 11
592.520630
 21
-472.303223
  0
LINE
  8
0
 10
603.027161
 20
-498.292999
 11
611.874634
 21
-498.292999
  0
LINE
  8
0
 10
592.520630
 20
-472.303223
 11
618.324219
 21
-472.303223
  0
LINE
  8
0
 10
592.520630
 20
-465.667511
 11
603.027161
 21
-465.667511
  0
LINE
  8
0
 10
655.007935
 20
-472.809448
 11
657.460022
 21
-471.834076
  0
LINE
  8
0
 10
655.006836
 20
-472.808868
 11
655.006836
 21
-498.292999
  0
LINE
  8
0
 10
646.159119
 20
-498.292999
 11
655.006836
 21
-498.292999
  0
LINE
  8
0
 10
627.910522
 20
-483.584991
 11
646.158691
 21
-476.327423
  0
LINE
  8
0
 10
627.911011
 20
-476.443848
 11
653.612183
 21
-466.222107
  0
LINE
  8
0
 10
646.159119
 20
-476.327606
 11
646.159119
 21
-498.292999
  0
LINE
  8
0
 10
655.006836
 20
-462.736908
 11
655.006836
 21
-464.166809
  0
LINE
  8
0
 10
661.642273
 20
-462.736908
 11
661.642273
 21
-465.667572
  0
LINE
  8
0
 10
627.911011
 20
-476.443878
 11
627.911011
 21
-483.585083
  0
LINE
  8
0
 10
655.006836
 20
-462.736908
 11
661.642273
 21
-462.736908
  0
LINE
  8
0
 10
516.763306
 20
-465.667511
 11
516.763306
 21
-472.303223
  0
LINE
  8
0
 10
0.000000
 20
-509.117035
 11
0.000000
 21
509.117035
  0
LINE
  8
0
  6
PHANTOM
 10
-642.873596
 20
-10.558533
 11
-624.873596
 21
-10.558533
  0
LINE
  8
0
  6
PHANTOM
 10
-398.873596
 20
-10.558533
 11
-416.873596
 21
-10.558533
  0
LINE
  8
0
  6
PHANTOM
 10
-398.873596
 20
-98.558533
 11
-408.873596
 21
-98.558533
  0
LINE
  8
0
  6
PHANTOM
 10
-642.873596
 20
-98.558533
 11
-632.873596
 21
-98.558533
  0
LINE
  8
0
  6
PHANTOM
 10
-642.873657
 20
302.419678
 11
-398.873627
 21
302.419678
  0
LINE
  8
0
  6
PHANTOM
 10
-416.873627
 20
214.419678
 11
-398.873596
 21
214.419678
  0
LINE
  8
0
  6
PHANTOM
 10
-624.873657
 20
214.419678
 11
-642.873657
 21
214.419678
  0
LINE
  8
0
  6
PHANTOM
 10
-642.873535
 20
-376.536713
 11
-398.873566
 21
-376.536713
  0
LINE
  8
0
  6
PHANTOM
 10
-416.873566
 20
-288.536713
 11
-398.873535
 21
-288.536713
  0
LINE
  8
0
  6
PHANTOM
 10
-624.873535
 20
-288.536713
 11
-642.873535
 21
-288.536713
  0
LINE
  8
0
  6
PHANTOM
 10
-638.655029
 20
-345.651581
 11
-632.873535
 21
-345.651581
  0
LINE
  8
0
  6
PHANTOM
 10
-647.092041
 20
-319.421844
 11
-632.873535
 21
-319.421844
  0
LINE
  8
0
  6
PHANTOM
 10
-408.873566
 20
-319.421844
 11
-403.092072
 21
-319.421844
  0
LINE
  8
0
  6
PHANTOM
 10
-408.873566
 20
-345.651581
 11
-394.655029
 21
-345.651581
  0
LINE
  8
0
  6
PHANTOM
 10
80.873550
 20
16.000008
 11
101.873535
 21
16.000008
  0
LINE
  8
0
  6
PHANTOM
 10
80.873520
 20
-95.999992
 11
93.873535
 21
-95.999992
  0
LINE
  8
0
  6
PHANTOM
 10
369.873535
 20
16.000008
 11
390.873566
 21
16.000008
  0
LINE
  8
0
  6
PHANTOM
 10
377.873535
 20
-95.999992
 11
390.873566
 21
-95.999992
  0
LINE
  8
0
  6
PHANTOM
 10
80.873505
 20
246.978241
 11
101.873520
 21
246.978241
  0
LINE
  8
0
  6
PHANTOM
 10
80.873535
 20
358.978241
 11
390.873535
 21
358.978241
  0
LINE
  8
0
  6
PHANTOM
 10
369.873535
 20
246.978241
 11
390.873535
 21
246.978241
  0
LINE
  8
0
  6
PHANTOM
 10
80.873535
 20
-286.978210
 11
101.873566
 21
-286.978210
  0
LINE
  8
0
  6
PHANTOM
 10
80.873596
 20
-398.978210
 11
390.873596
 21
-398.978210
  0
LINE
  8
0
  6
PHANTOM
 10
369.873566
 20
-286.978210
 11
390.873596
 21
-286.978210
  0
LINE
  8
0
  6
PHANTOM
 10
377.873566
 20
-357.810608
 11
398.866608
 21
-357.810608
  0
LINE
  8
0
  6
PHANTOM
 10
377.873566
 20
-328.145813
 11
382.880493
 21
-328.145813
  0
LINE
  8
0
  6
PHANTOM
 10
93.873566
 20
-328.145813
 11
72.880524
 21
-328.145813
  0
LINE
  8
0
  6
PHANTOM
 10
93.873566
 20
-357.810608
 11
88.866638
 21
-357.810608
  0
LINE
  8
0
  6
CENTER
 10
-520.873657
 20
312.419678
 11
-520.873657
 21
171.419678
  0
LINE
  8
0
  6
CENTER
 10
-652.873596
 20
258.419678
 11
-388.873535
 21
258.419678
  0
LINE
  8
0
  6
CENTER
 10
-121.436737
 20
-54.558441
 11
-262.436737
 21
-54.558441
  0
LINE
  8
0
  6
CENTER
 10
-175.436737
 20
72.441498
 11
-175.436737
 21
-147.558502
  0
LINE
  8
0
  6
CENTER
 10
-520.873535
 20
-386.536713
 11
-520.873535
 21
-245.536713
  0
LINE
  8
0
  6
CENTER
 10
-652.873596
 20
-332.536713
 11
-388.873535
 21
-332.536713
  0
LINE
  8
0
  6
CENTER
 10
70.873550
 20
-40.000038
 11
400.873505
 21
-40.000038
  0
LINE
  8
0
  6
CENTER
 10
235.873642
 20
112.999962
 11
235.873642
 21
-151.000031
  0
LINE
  8
0
  6
CENTER
 10
70.873550
 20
302.978210
 11
400.873505
 21
302.978210
  0
LINE
  8
0
  6
CENTER
 10
235.873535
 20
368.852905
 11
235.873535
 21
196.311539
  0
LINE
  8
0
  6
DASHED
 10
101.873535
 20
224.978226
 11
369.873535
 21
224.978226
  0
LINE
  8
0
  6
CENTER
 10
606.310547
 20
112.999962
 11
606.310547
 21
-151.000031
  0
LINE
  8
0
  6
CENTER
 10
500.310547
 20
-40.000099
 11
672.310486
 21
-40.000099
  0
LINE
  8
0
  6
CENTER
 10
70.873550
 20
-342.978180
 11
400.873505
 21
-342.978180
  0
LINE
  8
0
  6
CENTER
 10
235.873520
 20
-408.978210
 11
235.873520
 21
-236.978180
  0
LINE
  8
0
  6
CENTER
 10
-520.873535
 20
72.441498
 11
-520.873535
 21
-147.558502
  0
LINE
  8
0
  6
CENTER
 10
-388.873535
 20
-54.558502
 11
-652.873596
 21
-54.558502
  0
LINE
  8
0
 10
-416.873566
 20
62.441559
 11
-416.873566
 21
-137.558441
  0
LINE
  8
0
 10
-624.873535
 20
62.441559
 11
-624.873535
 21
-137.558441
  0
LINE
  8
0
 10
-416.873566
 20
57.441559
 11
-514.873535
 21
57.441559
  0
LINE
  8
0
 10
-416.873566
 20
27.441559
 11
-624.873535
 21
27.441559
  0
LINE
  8
0
 10
-416.873566
 20
19.425720
 11
-624.873535
 21
19.425720
  0
LINE
  8
0
 10
-410.873535
 20
-132.558441
 11
-630.873535
 21
-132.558441
  0
LINE
  8
0
 10
-416.873566
 20
-117.478638
 11
-425.700714
 21
-117.478638
  0
LINE
  8
0
 10
-416.873566
 20
-103.545288
 11
-624.873535
 21
-103.545288
  0
LINE
  8
0
 10
-526.873535
 20
57.441559
 11
-526.873535
 21
44.941559
  0
LINE
  8
0
 10
-514.873535
 20
57.441559
 11
-514.873535
 21
44.941559
  0
LINE
  8
0
 10
-526.873535
 20
57.441559
 11
-624.873535
 21
57.441559
  0
LINE
  8
0
 10
-436.046387
 20
-117.478638
 11
-470.700714
 21
-117.478638
  0
LINE
  8
0
 10
-481.046356
 20
-117.478638
 11
-560.700684
 21
-117.478638
  0
LINE
  8
0
 10
-571.046387
 20
-117.478638
 11
-605.700684
 21
-117.478638
  0
LINE
  8
0
 10
-616.046387
 20
-117.478638
 11
-624.873535
 21
-117.478638
  0
LINE
  8
0
 10
-624.873535
 20
62.441559
 11
-416.873535
 21
62.441559
  0
LINE
  8
0
 10
-427.873505
 20
-124.290527
 11
-430.873505
 21
-126.022598
  0
LINE
  8
0
 10
-430.873566
 20
-126.022514
 11
-433.873566
 21
-124.290466
  0
LINE
  8
0
 10
-433.873871
 20
-124.290466
 11
-433.873871
 21
-120.826355
  0
LINE
  8
0
 10
-433.873566
 20
-120.826408
 11
-430.873566
 21
-119.094345
  0
LINE
  8
0
 10
-430.873566
 20
-119.094360
 11
-427.873535
 21
-120.826408
  0
LINE
  8
0
 10
-427.873871
 20
-120.826416
 11
-427.873871
 21
-124.290527
  0
LINE
  8
0
 10
-610.873535
 20
43.977512
 11
-613.873535
 21
45.709557
  0
LINE
  8
0
 10
-613.873047
 20
45.709534
 11
-613.873047
 21
49.173645
  0
LINE
  8
0
 10
-613.873474
 20
49.173607
 11
-610.873474
 21
50.905674
  0
LINE
  8
0
 10
-607.873535
 20
45.709530
 11
-610.873535
 21
43.977463
  0
LINE
  8
0
 10
-607.873047
 20
49.173584
 11
-607.873047
 21
45.709473
  0
LINE
  8
0
 10
-610.873474
 20
50.905689
 11
-607.873474
 21
49.173645
  0
LINE
  8
0
 10
-430.873383
 20
43.977398
 11
-433.873413
 21
45.709442
  0
LINE
  8
0
 10
-433.873108
 20
45.709534
 11
-433.873108
 21
49.173645
  0
LINE
  8
0
 10
-433.873505
 20
49.173615
 11
-430.873505
 21
50.905682
  0
LINE
  8
0
 10
-427.873505
 20
45.709503
 11
-430.873505
 21
43.977432
  0
LINE
  8
0
 10
-427.873108
 20
49.173584
 11
-427.873108
 21
45.709473
  0
LINE
  8
0
 10
-430.873535
 20
50.905640
 11
-427.873535
 21
49.173595
  0
LINE
  8
0
 10
-630.873535
 20
-96.558441
 11
-624.873535
 21
-96.558441
  0
LINE
  8
0
 10
-610.873413
 20
-126.022499
 11
-613.873413
 21
-124.290451
  0
LINE
  8
0
 10
-613.873901
 20
-124.290466
 11
-613.873901
 21
-120.826355
  0
LINE
  8
0
 10
-613.873657
 20
-120.826454
 11
-610.873657
 21
-119.094391
  0
LINE
  8
0
 10
-607.873535
 20
-124.290527
 11
-610.873535
 21
-126.022591
  0
LINE
  8
0
 10
-607.873901
 20
-120.826416
 11
-607.873901
 21
-124.290527
  0
LINE
  8
0
 10
-610.873596
 20
-119.094414
 11
-607.873535
 21
-120.826462
  0
LINE
  8
0
 10
-416.873566
 20
-137.558441
 11
-624.873535
 21
-137.558441
  0
LINE
  8
0
 10
-630.873535
 20
-132.558411
 11
-630.873535
 21
-100.558411
  0
LINE
  8
0
 10
-565.873535
 20
-126.022507
 11
-568.873535
 21
-124.290466
  0
LINE
  8
0
 10
-568.873901
 20
-124.290466
 11
-568.873901
 21
-120.826355
  0
LINE
  8
0
 10
-568.873535
 20
-120.826378
 11
-565.873535
 21
-119.094307
  0
LINE
  8
0
 10
-562.873474
 20
-124.290489
 11
-565.873474
 21
-126.022552
  0
LINE
  8
0
 10
-562.873901
 20
-120.826416
 11
-562.873901
 21
-124.290527
  0
LINE
  8
0
 10
-565.873474
 20
-119.094345
 11
-562.873474
 21
-120.826393
  0
LINE
  8
0
 10
-630.873535
 20
-100.558411
 11
-624.873535
 21
-100.558411
  0
LINE
  8
0
 10
-410.873535
 20
-96.558441
 11
-416.873566
 21
-96.558441
  0
LINE
  8
0
 10
-475.873444
 20
-126.022499
 11
-478.873444
 21
-124.290459
  0
LINE
  8
0
 10
-478.873871
 20
-124.290466
 11
-478.873871
 21
-120.826355
  0
LINE
  8
0
 10
-478.873535
 20
-120.826424
 11
-475.873535
 21
-119.094353
  0
LINE
  8
0
 10
-472.873505
 20
-124.290504
 11
-475.873505
 21
-126.022575
  0
LINE
  8
0
 10
-472.873871
 20
-120.826416
 11
-472.873871
 21
-124.290527
  0
LINE
  8
0
 10
-475.873535
 20
-119.094330
 11
-472.873535
 21
-120.826378
  0
LINE
  8
0
 10
-410.873535
 20
-100.558411
 11
-416.873566
 21
-100.558411
  0
LINE
  8
0
 10
-410.873535
 20
-132.558411
 11
-410.873535
 21
-100.558411
  0
LINE
  8
0
  6
CENTER
 10
-600.873535
 20
-122.558441
 11
-620.873535
 21
-122.558441
  0
LINE
  8
0
  6
CENTER
 10
-610.873535
 20
-112.558441
 11
-610.873535
 21
-132.558441
  0
LINE
  8
0
  6
CENTER
 10
-555.873535
 20
-122.558441
 11
-575.873535
 21
-122.558441
  0
LINE
  8
0
  6
CENTER
 10
-565.873535
 20
-112.558441
 11
-565.873535
 21
-132.558441
  0
LINE
  8
0
  6
CENTER
 10
-475.873535
 20
-112.558441
 11
-475.873535
 21
-132.558441
  0
LINE
  8
0
  6
CENTER
 10
-465.873535
 20
-122.558441
 11
-485.873535
 21
-122.558441
  0
LINE
  8
0
  6
CENTER
 10
-430.873566
 20
-112.558441
 11
-430.873566
 21
-132.558441
  0
LINE
  8
0
  6
CENTER
 10
-420.873566
 20
-122.558441
 11
-440.873566
 21
-122.558441
  0
LINE
  8
0
  6
CENTER
 10
-430.873566
 20
57.441559
 11
-430.873566
 21
37.441559
  0
LINE
  8
0
  6
CENTER
 10
-420.873566
 20
47.441559
 11
-440.873566
 21
47.441559
  0
LINE
  8
0
  6
CENTER
 10
-466.873535
 20
47.441559
 11
-484.873535
 21
47.441559
  0
LINE
  8
0
  6
CENTER
 10
-475.873535
 20
56.441559
 11
-475.873535
 21
38.441559
  0
LINE
  8
0
  6
CENTER
 10
-556.873535
 20
47.441559
 11
-574.873535
 21
47.441559
  0
LINE
  8
0
  6
CENTER
 10
-565.873535
 20
56.441559
 11
-565.873535
 21
38.441559
  0
LINE
  8
0
  6
CENTER
 10
-610.873535
 20
57.441559
 11
-610.873535
 21
37.441559
  0
LINE
  8
0
  6
CENTER
 10
-600.873535
 20
47.441559
 11
-620.873535
 21
47.441559
  0
LINE
  8
0
 10
-416.873596
 20
273.419647
 11
-416.873596
 21
181.419647
  0
LINE
  8
0
 10
-624.873657
 20
273.419647
 11
-624.873657
 21
181.419647
  0
LINE
  8
0
 10
-617.373657
 20
235.419647
 11
-604.373657
 21
235.419647
  0
LINE
  8
0
 10
-617.373657
 20
235.419647
 11
-617.373657
 21
243.419647
  0
LINE
  8
0
 10
-604.373657
 20
235.419647
 11
-604.373657
 21
243.419647
  0
LINE
  8
0
 10
-614.873657
 20
280.419647
 11
-606.873657
 21
280.419647
  0
LINE
  8
0
 10
-614.873657
 20
278.419647
 11
-614.873657
 21
280.419647
  0
LINE
  8
0
 10
-606.873657
 20
278.419647
 11
-606.873657
 21
280.419647
  0
LINE
  8
0
 10
-614.197144
 20
278.419647
 11
-614.197144
 21
280.419647
  0
LINE
  8
0
 10
-607.550171
 20
278.419647
 11
-607.550171
 21
280.419647
  0
LINE
  8
0
 10
-624.873657
 20
273.419647
 11
-416.873596
 21
273.419647
  0
LINE
  8
0
 10
-624.873657
 20
243.419647
 11
-416.873596
 21
243.419647
  0
LINE
  8
0
 10
-624.873657
 20
248.919647
 11
-416.873596
 21
248.919647
  0
LINE
  8
0
 10
-416.873596
 20
267.919647
 11
-624.873657
 21
267.919647
  0
LINE
  8
0
 10
-617.373657
 20
273.419647
 11
-617.373657
 21
278.419647
  0
LINE
  8
0
 10
-604.373657
 20
273.419647
 11
-604.373657
 21
278.419647
  0
LINE
  8
0
 10
-617.373657
 20
278.419647
 11
-604.373657
 21
278.419647
  0
LINE
  8
0
 10
-610.873657
 20
274.000214
 11
-610.873657
 21
277.839081
  0
LINE
  8
0
 10
-430.873596
 20
274.000214
 11
-430.873596
 21
277.839081
  0
LINE
  8
0
 10
-437.373596
 20
235.419647
 11
-424.373596
 21
235.419647
  0
LINE
  8
0
 10
-437.373596
 20
235.419647
 11
-437.373596
 21
243.419647
  0
LINE
  8
0
 10
-424.373596
 20
235.419647
 11
-424.373596
 21
243.419647
  0
LINE
  8
0
 10
-434.873596
 20
280.419647
 11
-426.873596
 21
280.419647
  0
LINE
  8
0
 10
-434.873596
 20
278.419647
 11
-434.873596
 21
280.419647
  0
LINE
  8
0
 10
-426.873596
 20
278.419647
 11
-426.873596
 21
280.419647
  0
LINE
  8
0
 10
-434.197083
 20
278.419647
 11
-434.197083
 21
280.419647
  0
LINE
  8
0
 10
-427.550110
 20
278.419647
 11
-427.550110
 21
280.419647
  0
LINE
  8
0
 10
-437.373596
 20
273.419647
 11
-437.373596
 21
278.419647
  0
LINE
  8
0
 10
-424.373596
 20
273.419647
 11
-424.373596
 21
278.419647
  0
LINE
  8
0
 10
-437.373596
 20
278.419647
 11
-424.373596
 21
278.419647
  0
LINE
  8
0
 10
-514.873596
 20
267.919647
 11
-514.873596
 21
273.419647
  0
LINE
  8
0
 10
-514.873596
 20
248.919647
 11
-514.873596
 21
243.419647
  0
LINE
  8
0
 10
-624.873657
 20
181.419647
 11
-416.873596
 21
181.419647
  0
LINE
  8
0
 10
-526.873596
 20
248.919647
 11
-526.873596
 21
243.419647
  0
LINE
  8
0
 10
-526.873596
 20
267.919647
 11
-526.873596
 21
273.419647
  0
LINE
  8
0
  6
DASHED
 10
-624.873657
 20
196.419647
 11
-416.873596
 21
196.419647
  0
LINE
  8
0
  6
CENTER
 10
-610.873657
 20
233.419647
 11
-610.873657
 21
283.419647
  0
LINE
  8
0
  6
CENTER
 10
-565.873657
 20
283.305450
 11
-565.873657
 21
232.811356
  0
LINE
  8
0
  6
CENTER
 10
-475.873596
 20
283.305450
 11
-475.873596
 21
232.811356
  0
LINE
  8
0
  6
CENTER
 10
-430.873596
 20
233.419647
 11
-430.873596
 21
283.419647
  0
LINE
  8
0
 10
-237.436768
 20
-51.558449
 11
-237.436768
 21
-80.756905
  0
LINE
  8
0
 10
-190.436768
 20
-132.558441
 11
-200.436768
 21
-132.558441
  0
LINE
  8
0
 10
-190.436768
 20
57.441551
 11
-190.436768
 21
27.441551
  0
LINE
  8
0
 10
-160.436768
 20
27.441551
 11
-167.936768
 21
27.441551
  0
LINE
  8
0
 10
-184.936768
 20
62.441551
 11
-184.936768
 21
37.441551
  0
LINE
  8
0
 10
-165.936768
 20
37.441551
 11
-184.936768
 21
37.441551
  0
LINE
  8
0
 10
-165.936768
 20
62.441551
 11
-165.936768
 21
37.441551
  0
LINE
  8
0
 10
-190.436768
 20
57.441551
 11
-184.936768
 21
57.441551
  0
LINE
  8
0
 10
-160.436768
 20
57.441551
 11
-160.436768
 21
27.441551
  0
LINE
  8
0
 10
-179.936768
 20
24.441551
 11
-179.936768
 21
22.426353
  0
LINE
  8
0
 10
-170.936768
 20
24.441551
 11
-170.936768
 21
13.424248
  0
LINE
  8
0
 10
-182.936768
 20
27.441551
 11
-190.436768
 21
27.441551
  0
LINE
  8
0
 10
-252.436768
 20
-51.558449
 11
-252.436768
 21
-80.525490
  0
LINE
  8
0
 10
-190.436768
 20
-100.558449
 11
-190.436768
 21
-132.558441
  0
LINE
  8
0
 10
-190.436859
 20
-102.558594
 11
-228.542679
 21
-92.348167
  0
LINE
  8
0
 10
-202.660309
 20
-116.882751
 11
-230.201324
 21
-109.503159
  0
LINE
  8
0
 10
-200.436768
 20
-119.780617
 11
-200.436768
 21
-132.558441
  0
LINE
  8
0
 10
-184.936768
 20
62.441551
 11
-165.936768
 21
62.441551
  0
LINE
  8
0
 10
-160.436768
 20
-100.558449
 11
-190.436768
 21
-100.558449
  0
LINE
  8
0
 10
-160.436768
 20
-96.558449
 11
-190.436768
 21
-96.558449
  0
LINE
  8
0
 10
-198.436768
 20
53.941551
 11
-198.436768
 21
40.941551
  0
LINE
  8
0
 10
-198.436768
 20
53.941551
 11
-190.436768
 21
53.941551
  0
LINE
  8
0
 10
-198.436768
 20
40.941551
 11
-190.436768
 21
40.941551
  0
LINE
  8
0
 10
-155.436768
 20
53.941582
 11
-155.436768
 21
40.941460
  0
LINE
  8
0
 10
-153.436768
 20
51.441551
 11
-153.436768
 21
43.441551
  0
LINE
  8
0
 10
-155.436768
 20
51.441551
 11
-153.436768
 21
51.441551
  0
LINE
  8
0
 10
-155.436768
 20
43.441551
 11
-153.436768
 21
43.441551
  0
LINE
  8
0
 10
-159.856201
 20
43.688805
 11
-156.017334
 21
43.688805
  0
LINE
  8
0
 10
-159.856262
 20
39.935997
 11
-156.017273
 21
39.935997
  0
LINE
  8
0
 10
-159.856201
 20
54.947136
 11
-156.017334
 21
54.947136
  0
LINE
  8
0
 10
-159.856201
 20
51.194359
 11
-156.017334
 21
51.194359
  0
LINE
  8
0
 10
-155.436722
 20
53.941566
 11
-156.017273
 21
54.947140
  0
LINE
  8
0
 10
-155.436798
 20
40.941608
 11
-156.017365
 21
39.936005
  0
LINE
  8
0
 10
-160.436691
 20
53.941570
 11
-159.856110
 21
54.947174
  0
LINE
  8
0
 10
-160.436966
 20
40.941418
 11
-159.856415
 21
39.935810
  0
LINE
  8
0
 10
-155.436768
 20
50.765038
 11
-153.436768
 21
50.765038
  0
LINE
  8
0
 10
-155.436768
 20
44.118065
 11
-153.436768
 21
44.118065
  0
LINE
  8
0
 10
-155.436768
 20
-125.881935
 11
-153.436768
 21
-125.881935
  0
LINE
  8
0
 10
-155.436813
 20
-116.058456
 11
-156.017410
 21
-115.052826
  0
LINE
  8
0
 10
-159.856201
 20
-118.805702
 11
-156.017334
 21
-118.805702
  0
LINE
  8
0
 10
-184.936768
 20
-137.558441
 11
-184.936768
 21
-100.558449
  0
LINE
  8
0
 10
-165.936768
 20
-137.558441
 11
-184.936768
 21
-137.558441
  0
LINE
  8
0
 10
-160.436768
 20
-132.558441
 11
-190.436768
 21
-132.558441
  0
LINE
  8
0
 10
-159.856201
 20
-130.064026
 11
-156.017334
 21
-130.064026
  0
LINE
  8
0
 10
-155.436798
 20
-129.058319
 11
-156.017365
 21
-130.063904
  0
LINE
  8
0
 10
-160.437180
 20
-116.058167
 11
-159.856613
 21
-115.052559
  0
LINE
  8
0
 10
-160.436768
 20
-132.558441
 11
-160.436768
 21
-100.558449
  0
LINE
  8
0
 10
-208.436768
 20
-129.058441
 11
-208.436768
 21
-116.058449
  0
LINE
  8
0
 10
-208.436768
 20
-129.058441
 11
-200.436768
 21
-129.058441
  0
LINE
  8
0
 10
-208.436768
 20
-116.058449
 11
-205.737030
 21
-116.058449
  0
LINE
  8
0
 10
-160.436707
 20
-129.058456
 11
-159.856140
 21
-130.064056
  0
LINE
  8
0
 10
-155.436768
 20
-119.234962
 11
-153.436768
 21
-119.234962
  0
LINE
  8
0
 10
-165.936768
 20
-137.558441
 11
-165.936768
 21
-100.558449
  0
LINE
  8
0
 10
-159.856262
 20
-115.052895
 11
-156.017273
 21
-115.052895
  0
LINE
  8
0
 10
-159.856201
 20
-126.311256
 11
-156.017334
 21
-126.311256
  0
LINE
  8
0
 10
-155.436768
 20
-129.058472
 11
-155.436768
 21
-116.058357
  0
LINE
  8
0
 10
-153.436768
 20
-126.558449
 11
-153.436768
 21
-118.558449
  0
LINE
  8
0
 10
-155.436768
 20
-126.558449
 11
-153.436768
 21
-126.558449
  0
LINE
  8
0
 10
-155.436768
 20
-118.558449
 11
-153.436768
 21
-118.558449
  0
LINE
  8
0
 10
-165.936768
 20
57.441551
 11
-160.436768
 21
57.441551
  0
LINE
  8
0
 10
-177.204468
 20
-120.790611
 11
-173.668930
 21
-124.326149
  0
LINE
  8
0
 10
-177.204514
 20
-124.326202
 11
-173.668991
 21
-120.790672
  0
LINE
  8
0
  6
CENTER
 10
-215.056213
 20
-122.558449
 11
-150.436768
 21
-122.558449
  0
LINE
  8
0
  6
CENTER
 10
-150.101868
 20
47.441551
 11
-202.210892
 21
47.441551
  0
LINE
  8
0
 10
-416.873352
 20
-342.036682
 11
-416.873352
 21
-323.036682
  0
LINE
  8
0
 10
-624.873291
 20
-342.036682
 11
-624.873291
 21
-323.036682
  0
LINE
  8
0
 10
-482.373352
 20
-299.536682
 11
-469.373352
 21
-299.536682
  0
LINE
  8
0
 10
-482.373352
 20
-299.536682
 11
-482.373352
 21
-307.536682
  0
LINE
  8
0
 10
-469.373352
 20
-299.536682
 11
-469.373352
 21
-307.536682
  0
LINE
  8
0
 10
-479.873352
 20
-354.536682
 11
-471.873352
 21
-354.536682
  0
LINE
  8
0
 10
-479.873352
 20
-352.536682
 11
-479.873352
 21
-354.536682
  0
LINE
  8
0
 10
-471.873352
 20
-352.536682
 11
-471.873352
 21
-354.536682
  0
LINE
  8
0
 10
-479.196838
 20
-352.536682
 11
-479.196838
 21
-354.536682
  0
LINE
  8
0
 10
-472.549866
 20
-352.536682
 11
-472.549866
 21
-354.536682
  0
LINE
  8
0
 10
-630.873291
 20
-347.536682
 11
-410.873352
 21
-347.536682
  0
LINE
  8
0
 10
-630.873291
 20
-317.536682
 11
-410.873352
 21
-317.536682
  0
LINE
  8
0
 10
-630.873291
 20
-342.036682
 11
-410.873352
 21
-342.036682
  0
LINE
  8
0
 10
-630.873291
 20
-323.036682
 11
-410.873352
 21
-323.036682
  0
LINE
  8
0
 10
-482.373352
 20
-347.536682
 11
-482.373352
 21
-352.536682
  0
LINE
  8
0
 10
-469.373352
 20
-347.536682
 11
-469.373352
 21
-352.536682
  0
LINE
  8
0
 10
-482.373352
 20
-352.536682
 11
-469.373352
 21
-352.536682
  0
LINE
  8
0
 10
-475.873352
 20
-348.117249
 11
-475.873352
 21
-351.956116
  0
LINE
  8
0
 10
-430.873352
 20
-348.117249
 11
-430.873352
 21
-351.956116
  0
LINE
  8
0
 10
-437.373352
 20
-299.536682
 11
-424.373352
 21
-299.536682
  0
LINE
  8
0
 10
-437.373352
 20
-299.536682
 11
-437.373352
 21
-307.536682
  0
LINE
  8
0
 10
-424.373352
 20
-299.536682
 11
-424.373352
 21
-307.536682
  0
LINE
  8
0
 10
-434.873352
 20
-354.536682
 11
-426.873352
 21
-354.536682
  0
LINE
  8
0
 10
-434.873352
 20
-352.536682
 11
-434.873352
 21
-354.536682
  0
LINE
  8
0
 10
-426.873352
 20
-352.536682
 11
-426.873352
 21
-354.536682
  0
LINE
  8
0
 10
-434.196838
 20
-352.536682
 11
-434.196838
 21
-354.536682
  0
LINE
  8
0
 10
-427.549866
 20
-352.536682
 11
-427.549866
 21
-354.536682
  0
LINE
  8
0
 10
-437.373352
 20
-347.536682
 11
-437.373352
 21
-352.536682
  0
LINE
  8
0
 10
-424.373352
 20
-347.536682
 11
-424.373352
 21
-352.536682
  0
LINE
  8
0
 10
-437.373352
 20
-352.536682
 11
-424.373352
 21
-352.536682
  0
LINE
  8
0
 10
-624.873291
 20
-255.536682
 11
-416.873352
 21
-255.536682
  0
LINE
  8
0
 10
-408.873352
 20
-317.536682
 11
-408.873352
 21
-347.536682
  0
LINE
  8
0
 10
-632.873291
 20
-317.536682
 11
-632.873291
 21
-347.536682
  0
LINE
  8
0
 10
-630.873291
 20
-349.536682
 11
-617.373291
 21
-349.536682
  0
LINE
  8
0
 10
-630.873291
 20
-315.536682
 11
-624.873291
 21
-315.536682
  0
LINE
  8
0
 10
-604.373291
 20
-349.536682
 11
-572.373291
 21
-349.536682
  0
LINE
  8
0
 10
-416.873352
 20
-315.536682
 11
-410.873352
 21
-315.536682
  0
LINE
  8
0
 10
-424.373352
 20
-349.536682
 11
-410.873352
 21
-349.536682
  0
LINE
  8
0
 10
-630.873291
 20
-317.536682
 11
-630.873291
 21
-347.536682
  0
LINE
  8
0
 10
-410.873352
 20
-317.536682
 11
-410.873352
 21
-347.536682
  0
LINE
  8
0
 10
-624.873291
 20
-317.536682
 11
-624.873291
 21
-255.536682
  0
LINE
  8
0
 10
-416.873352
 20
-317.536682
 11
-416.873352
 21
-255.536682
  0
LINE
  8
0
 10
-624.873291
 20
-307.536682
 11
-416.873352
 21
-307.536682
  0
LINE
  8
0
 10
-617.373291
 20
-352.536682
 11
-604.373291
 21
-352.536682
  0
LINE
  8
0
 10
-617.373291
 20
-299.536682
 11
-604.373291
 21
-299.536682
  0
LINE
  8
0
 10
-617.373291
 20
-299.536682
 11
-617.373291
 21
-307.536682
  0
LINE
  8
0
 10
-604.373291
 20
-299.536682
 11
-604.373291
 21
-307.536682
  0
LINE
  8
0
 10
-614.873291
 20
-354.536682
 11
-606.873291
 21
-354.536682
  0
LINE
  8
0
 10
-614.873291
 20
-352.536682
 11
-614.873291
 21
-354.536682
  0
LINE
  8
0
 10
-606.873291
 20
-352.536682
 11
-606.873291
 21
-354.536682
  0
LINE
  8
0
 10
-614.196777
 20
-352.536682
 11
-614.196777
 21
-354.536682
  0
LINE
  8
0
 10
-607.549805
 20
-352.536682
 11
-607.549805
 21
-354.536682
  0
LINE
  8
0
 10
-610.873291
 20
-348.117249
 11
-610.873291
 21
-351.956116
  0
LINE
  8
0
 10
-617.373291
 20
-347.536682
 11
-617.373291
 21
-352.536682
  0
LINE
  8
0
 10
-604.373291
 20
-347.536682
 11
-604.373291
 21
-352.536682
  0
LINE
  8
0
 10
-572.373291
 20
-352.536682
 11
-559.373352
 21
-352.536682
  0
LINE
  8
0
 10
-572.373291
 20
-299.536682
 11
-559.373352
 21
-299.536682
  0
LINE
  8
0
 10
-572.373291
 20
-299.536682
 11
-572.373291
 21
-307.536682
  0
LINE
  8
0
 10
-559.373352
 20
-299.536682
 11
-559.373352
 21
-307.536682
  0
LINE
  8
0
 10
-569.873291
 20
-354.536682
 11
-561.873352
 21
-354.536682
  0
LINE
  8
0
 10
-569.873291
 20
-352.536682
 11
-569.873291
 21
-354.536682
  0
LINE
  8
0
 10
-561.873352
 20
-352.536682
 11
-561.873352
 21
-354.536682
  0
LINE
  8
0
 10
-569.196777
 20
-352.536682
 11
-569.196777
 21
-354.536682
  0
LINE
  8
0
 10
-562.549805
 20
-352.536682
 11
-562.549805
 21
-354.536682
  0
LINE
  8
0
 10
-565.873291
 20
-348.117249
 11
-565.873291
 21
-351.956116
  0
LINE
  8
0
 10
-572.373291
 20
-347.536682
 11
-572.373291
 21
-352.536682
  0
LINE
  8
0
 10
-559.373352
 20
-347.536682
 11
-559.373352
 21
-352.536682
  0
LINE
  8
0
 10
-559.373352
 20
-349.536682
 11
-482.373352
 21
-349.536682
  0
LINE
  8
0
 10
-469.373352
 20
-349.536682
 11
-437.373352
 21
-349.536682
  0
LINE
  8
0
 10
-526.873352
 20
-342.036682
 11
-526.873352
 21
-347.536682
  0
LINE
  8
0
 10
-514.873352
 20
-342.036682
 11
-514.873352
 21
-347.536682
  0
LINE
  8
0
 10
-514.873352
 20
-323.036682
 11
-514.873352
 21
-317.536682
  0
LINE
  8
0
 10
-526.873352
 20
-323.036682
 11
-526.873352
 21
-317.536682
  0
LINE
  8
0
  6
CENTER
 10
-610.873291
 20
-296.974243
 11
-610.873291
 21
-357.536682
  0
LINE
  8
0
  6
CENTER
 10
-565.873291
 20
-296.974243
 11
-565.873291
 21
-357.536682
  0
LINE
  8
0
  6
DASHED
 10
-624.873291
 20
-270.536682
 11
-416.873352
 21
-270.536682
  0
LINE
  8
0
  6
CENTER
 10
-475.873352
 20
-296.974243
 11
-475.873352
 21
-357.536682
  0
LINE
  8
0
  6
CENTER
 10
-430.873352
 20
-295.977173
 11
-430.873352
 21
-357.536682
  0
LINE
  8
0
 10
369.873657
 20
102.999954
 11
369.873657
 21
-135.000031
  0
LINE
  8
0
 10
101.873642
 20
102.999954
 11
101.873642
 21
-141.000031
  0
LINE
  8
0
 10
369.873657
 20
96.999954
 11
243.373642
 21
96.999954
  0
LINE
  8
0
 10
369.873657
 20
61.999958
 11
101.873642
 21
61.999958
  0
LINE
  8
0
 10
369.873657
 20
51.948811
 11
101.873642
 21
51.948811
  0
LINE
  8
0
 10
369.873657
 20
-115.419632
 11
360.243958
 21
-115.419632
  0
LINE
  8
0
 10
228.373642
 20
96.999954
 11
228.373642
 21
81.499954
  0
LINE
  8
0
 10
243.373642
 20
96.999954
 11
243.373642
 21
81.499954
  0
LINE
  8
0
 10
228.373642
 20
96.999954
 11
101.873642
 21
96.999954
  0
LINE
  8
0
 10
351.503296
 20
-115.419632
 11
300.243958
 21
-115.419632
  0
LINE
  8
0
 10
291.503296
 20
-115.419632
 11
180.243973
 21
-115.419632
  0
LINE
  8
0
 10
120.243973
 20
-115.419632
 11
171.503311
 21
-115.419632
  0
LINE
  8
0
 10
101.873642
 20
-115.419632
 11
111.503311
 21
-115.419632
  0
LINE
  8
0
 10
375.873657
 20
-135.000031
 11
375.873657
 21
-98.000046
  0
LINE
  8
0
 10
369.873657
 20
-141.000031
 11
101.873642
 21
-141.000031
  0
LINE
  8
0
 10
375.873657
 20
-135.000031
 11
95.873642
 21
-135.000031
  0
LINE
  8
0
 10
369.873657
 20
-141.000031
 11
369.873657
 21
-135.000031
  0
LINE
  8
0
 10
291.873505
 20
-120.690506
 11
295.873535
 21
-118.381088
  0
LINE
  8
0
 10
295.873566
 20
-127.618729
 11
291.873596
 21
-125.309334
  0
LINE
  8
0
 10
291.873657
 20
-125.309433
 11
291.873657
 21
-120.690628
  0
LINE
  8
0
 10
299.873596
 20
-120.690659
 11
299.873596
 21
-125.309464
  0
LINE
  8
0
 10
299.873474
 20
-125.309196
 11
295.873505
 21
-127.618584
  0
LINE
  8
0
 10
295.873657
 20
-118.381271
 11
299.873688
 21
-120.690666
  0
LINE
  8
0
 10
375.873657
 20
-98.000046
 11
369.873657
 21
-98.000046
  0
LINE
  8
0
 10
375.873657
 20
-94.000046
 11
369.873657
 21
-94.000046
  0
LINE
  8
0
 10
115.873619
 20
89.618736
 11
119.873657
 21
87.309334
  0
LINE
  8
0
 10
355.873596
 20
-118.381264
 11
359.873627
 21
-120.690659
  0
LINE
  8
0
 10
351.873505
 20
-120.690498
 11
355.873535
 21
-118.381081
  0
LINE
  8
0
 10
351.873657
 20
-125.309433
 11
351.873657
 21
-120.690628
  0
LINE
  8
0
 10
355.873566
 20
-127.618736
 11
351.873596
 21
-125.309349
  0
LINE
  8
0
 10
359.873474
 20
-125.309219
 11
355.873505
 21
-127.618607
  0
LINE
  8
0
 10
359.873596
 20
-120.690659
 11
359.873596
 21
-125.309464
  0
LINE
  8
0
 10
111.873604
 20
87.309380
 11
115.873634
 21
89.618805
  0
LINE
  8
0
 10
111.873672
 20
82.690567
 11
111.873672
 21
87.309372
  0
LINE
  8
0
 10
355.873657
 20
89.618797
 11
359.873688
 21
87.309395
  0
LINE
  8
0
 10
351.873566
 20
87.309418
 11
355.873596
 21
89.618835
  0
LINE
  8
0
 10
351.873657
 20
82.690567
 11
351.873657
 21
87.309372
  0
LINE
  8
0
 10
355.873505
 20
80.381134
 11
351.873505
 21
82.690536
  0
LINE
  8
0
 10
359.873474
 20
82.690689
 11
355.873505
 21
80.381302
  0
LINE
  8
0
 10
359.873596
 20
87.309341
 11
359.873596
 21
82.690536
  0
LINE
  8
0
 10
119.873528
 20
-125.309296
 11
115.873550
 21
-127.618683
  0
LINE
  8
0
 10
119.873596
 20
82.690636
 11
115.873627
 21
80.381248
  0
LINE
  8
0
 10
175.873627
 20
-118.381279
 11
179.873672
 21
-120.690681
  0
LINE
  8
0
 10
171.873535
 20
-120.690567
 11
175.873550
 21
-118.381149
  0
LINE
  8
0
 10
171.873672
 20
-125.309433
 11
171.873672
 21
-120.690628
  0
LINE
  8
0
 10
175.873611
 20
-127.618706
 11
171.873627
 21
-125.309319
  0
LINE
  8
0
 10
179.873489
 20
-125.309235
 11
175.873520
 21
-127.618622
  0
LINE
  8
0
 10
179.873611
 20
-120.690659
 11
179.873611
 21
-125.309464
  0
LINE
  8
0
 10
95.873642
 20
-94.000046
 11
101.873642
 21
-94.000046
  0
LINE
  8
0
 10
95.873642
 20
-135.000031
 11
95.873642
 21
-98.000046
  0
LINE
  8
0
 10
95.873642
 20
-98.000046
 11
101.873642
 21
-98.000046
  0
LINE
  8
0
 10
101.873642
 20
102.999954
 11
369.873657
 21
102.999954
  0
LINE
  8
0
 10
115.873596
 20
-118.381279
 11
119.873634
 21
-120.690681
  0
LINE
  8
0
 10
111.873528
 20
-120.690567
 11
115.873558
 21
-118.381142
  0
LINE
  8
0
 10
111.873672
 20
-125.309433
 11
111.873672
 21
-120.690628
  0
LINE
  8
0
 10
115.873634
 20
-127.618721
 11
111.873634
 21
-125.309319
  0
LINE
  8
0
 10
115.873558
 20
80.381210
 11
111.873558
 21
82.690613
  0
LINE
  8
0
 10
119.873611
 20
-120.690659
 11
119.873611
 21
-125.309464
  0
LINE
  8
0
 10
119.873611
 20
87.309341
 11
119.873611
 21
82.690536
  0
LINE
  8
0
  6
CENTER
 10
115.873642
 20
-135.500031
 11
115.873642
 21
-110.500046
  0
LINE
  8
0
  6
CENTER
 10
103.373642
 20
-123.000046
 11
128.373642
 21
-123.000046
  0
LINE
  8
0
  6
CENTER
 10
163.373642
 20
-123.000046
 11
188.373642
 21
-123.000046
  0
LINE
  8
0
  6
CENTER
 10
175.873642
 20
-135.500031
 11
175.873642
 21
-110.500046
  0
LINE
  8
0
  6
CENTER
 10
295.873657
 20
-135.500031
 11
295.873657
 21
-110.500046
  0
LINE
  8
0
  6
CENTER
 10
283.373657
 20
-123.000046
 11
308.373657
 21
-123.000046
  0
LINE
  8
0
  6
CENTER
 10
343.373657
 20
-123.000046
 11
368.373657
 21
-123.000046
  0
LINE
  8
0
  6
CENTER
 10
355.873657
 20
-135.500031
 11
355.873657
 21
-110.500046
  0
LINE
  8
0
  6
CENTER
 10
115.873642
 20
72.499954
 11
115.873642
 21
97.499954
  0
LINE
  8
0
  6
CENTER
 10
103.373642
 20
84.999954
 11
128.373642
 21
84.999954
  0
LINE
  8
0
  6
CENTER
 10
175.873642
 20
94.999954
 11
175.873642
 21
74.999954
  0
LINE
  8
0
  6
CENTER
 10
185.873642
 20
84.999954
 11
165.873642
 21
84.999954
  0
LINE
  8
0
  6
CENTER
 10
295.873657
 20
94.999954
 11
295.873657
 21
74.999954
  0
LINE
  8
0
  6
CENTER
 10
305.873657
 20
84.999954
 11
285.873657
 21
84.999954
  0
LINE
  8
0
  6
CENTER
 10
355.873657
 20
72.499954
 11
355.873657
 21
97.499954
  0
LINE
  8
0
  6
CENTER
 10
343.373657
 20
84.999954
 11
368.373657
 21
84.999954
  0
LINE
  8
0
 10
347.873474
 20
276.978149
 11
363.873474
 21
276.978149
  0
LINE
  8
0
 10
347.873474
 20
276.978149
 11
347.873474
 21
286.978149
  0
LINE
  8
0
 10
363.873474
 20
276.978149
 11
363.873474
 21
286.978149
  0
LINE
  8
0
 10
350.873474
 20
326.978149
 11
360.873474
 21
326.978149
  0
LINE
  8
0
 10
350.873474
 20
324.978149
 11
350.873474
 21
326.978149
  0
LINE
  8
0
 10
351.685486
 20
324.978149
 11
351.685486
 21
326.978149
  0
LINE
  8
0
 10
360.061462
 20
324.978149
 11
360.061462
 21
326.978149
  0
LINE
  8
0
 10
360.873474
 20
324.978149
 11
360.873474
 21
326.978149
  0
LINE
  8
0
 10
101.873489
 20
318.978149
 11
101.873489
 21
206.978165
  0
LINE
  8
0
 10
369.873474
 20
318.978149
 11
369.873474
 21
206.978165
  0
LINE
  8
0
 10
101.873489
 20
318.978149
 11
369.873474
 21
318.978149
  0
LINE
  8
0
 10
101.873489
 20
286.978149
 11
369.873474
 21
286.978149
  0
LINE
  8
0
 10
101.873489
 20
312.978149
 11
369.873474
 21
312.978149
  0
LINE
  8
0
 10
101.873489
 20
292.978149
 11
369.873474
 21
292.978149
  0
LINE
  8
0
 10
107.873489
 20
276.978149
 11
123.873489
 21
276.978149
  0
LINE
  8
0
 10
107.873489
 20
276.978149
 11
107.873489
 21
286.978149
  0
LINE
  8
0
 10
123.873489
 20
276.978149
 11
123.873489
 21
286.978149
  0
LINE
  8
0
 10
107.373489
 20
324.978149
 11
124.373489
 21
324.978149
  0
LINE
  8
0
 10
110.873489
 20
326.978149
 11
120.873489
 21
326.978149
  0
LINE
  8
0
 10
110.873489
 20
324.978149
 11
110.873489
 21
326.978149
  0
LINE
  8
0
 10
111.685501
 20
324.978149
 11
111.685501
 21
326.978149
  0
LINE
  8
0
 10
120.061478
 20
324.978149
 11
120.061478
 21
326.978149
  0
LINE
  8
0
 10
120.873489
 20
324.978149
 11
120.873489
 21
326.978149
  0
LINE
  8
0
 10
124.373489
 20
324.978149
 11
124.373489
 21
318.978149
  0
LINE
  8
0
 10
107.373489
 20
324.978149
 11
107.373489
 21
318.978149
  0
LINE
  8
0
 10
115.873489
 20
324.218933
 11
115.873489
 21
319.737366
  0
LINE
  8
0
 10
364.373474
 20
324.978149
 11
364.373474
 21
318.978149
  0
LINE
  8
0
 10
364.373474
 20
324.978149
 11
347.373474
 21
324.978149
  0
LINE
  8
0
 10
347.373474
 20
324.978149
 11
347.373474
 21
318.978149
  0
LINE
  8
0
 10
355.873474
 20
324.218933
 11
355.873474
 21
319.737366
  0
LINE
  8
0
 10
228.373489
 20
318.978149
 11
228.373489
 21
312.978149
  0
LINE
  8
0
 10
101.873489
 20
206.978165
 11
369.873474
 21
206.978165
  0
LINE
  8
0
 10
243.373489
 20
286.978149
 11
243.373489
 21
292.978149
  0
LINE
  8
0
 10
243.373489
 20
318.978149
 11
243.373489
 21
312.978149
  0
LINE
  8
0
 10
228.373489
 20
286.978149
 11
228.373489
 21
292.978149
  0
LINE
  8
0
  6
CENTER
 10
115.873489
 20
270.234436
 11
115.873489
 21
333.092712
  0
LINE
  8
0
  6
CENTER
 10
175.873489
 20
279.936157
 11
175.873489
 21
326.754211
  0
LINE
  8
0
  6
CENTER
 10
295.873474
 20
279.084900
 11
295.873474
 21
327.179810
  0
LINE
  8
0
  6
CENTER
 10
355.873474
 20
270.234436
 11
355.873474
 21
333.092712
  0
LINE
  8
0
 10
510.310486
 20
-36.000095
 11
510.310486
 21
-69.575348
  0
LINE
  8
0
 10
528.310486
 20
-36.000095
 11
528.310486
 21
-69.575348
  0
LINE
  8
0
 10
590.310486
 20
-135.000092
 11
578.310486
 21
-135.000092
  0
LINE
  8
0
 10
590.310486
 20
-100.000092
 11
541.651733
 21
-86.962021
  0
LINE
  8
0
 10
575.345703
 20
-114.625313
 11
536.992859
 21
-104.348694
  0
LINE
  8
0
 10
601.310486
 20
57.999905
 11
601.310486
 21
55.994473
  0
LINE
  8
0
 10
611.310486
 20
57.999905
 11
611.310486
 21
45.993801
  0
LINE
  8
0
 10
596.310486
 20
96.999908
 11
590.310486
 21
96.999908
  0
LINE
  8
0
 10
590.310486
 20
96.999908
 11
590.310486
 21
61.999905
  0
LINE
  8
0
 10
596.310486
 20
102.999908
 11
596.310486
 21
72.999908
  0
LINE
  8
0
 10
616.310486
 20
72.999908
 11
596.310486
 21
72.999908
  0
LINE
  8
0
 10
597.310486
 20
61.999905
 11
590.310486
 21
61.999905
  0
LINE
  8
0
 10
616.310486
 20
102.999908
 11
616.310486
 21
72.999908
  0
LINE
  8
0
 10
616.310486
 20
96.999908
 11
622.310486
 21
96.999908
  0
LINE
  8
0
 10
622.310486
 20
96.999908
 11
622.310486
 21
61.999905
  0
LINE
  8
0
 10
615.310486
 20
61.999905
 11
622.310486
 21
61.999905
  0
LINE
  8
0
 10
578.310486
 20
-118.488983
 11
578.310486
 21
-135.000092
  0
LINE
  8
0
 10
596.310486
 20
102.999908
 11
616.310486
 21
102.999908
  0
LINE
  8
0
 10
590.310486
 20
-135.000092
 11
622.310486
 21
-135.000092
  0
LINE
  8
0
 10
616.310486
 20
-141.000092
 11
616.310486
 21
-98.000092
  0
LINE
  8
0
 10
596.310486
 20
-141.000092
 11
596.310486
 21
-98.000092
  0
LINE
  8
0
 10
590.310486
 20
-135.000092
 11
590.310486
 21
-98.000092
  0
LINE
  8
0
 10
580.310486
 20
92.999908
 11
580.310486
 21
76.999908
  0
LINE
  8
0
 10
580.310486
 20
92.999908
 11
590.310486
 21
92.999908
  0
LINE
  8
0
 10
580.310486
 20
76.999908
 11
590.310486
 21
76.999908
  0
LINE
  8
0
 10
628.310486
 20
93.499908
 11
628.310486
 21
76.499878
  0
LINE
  8
0
 10
623.069641
 20
80.092346
 11
627.551270
 21
80.092346
  0
LINE
  8
0
 10
623.069702
 20
89.907394
 11
627.551270
 21
89.907394
  0
LINE
  8
0
 10
623.069702
 20
94.814911
 11
627.551270
 21
94.814911
  0
LINE
  8
0
 10
627.550293
 20
94.814293
 11
628.309509
 21
93.499298
  0
LINE
  8
0
 10
627.550415
 20
75.185417
 11
628.309631
 21
76.500412
  0
LINE
  8
0
 10
623.069763
 20
75.184906
 11
627.551270
 21
75.184906
  0
LINE
  8
0
 10
623.068665
 20
94.815308
 11
622.309448
 21
93.500305
  0
LINE
  8
0
 10
623.068970
 20
75.184448
 11
622.309753
 21
76.499443
  0
LINE
  8
0
 10
630.310486
 20
89.999908
 11
630.310486
 21
79.999908
  0
LINE
  8
0
 10
628.310486
 20
89.999908
 11
630.310486
 21
89.999908
  0
LINE
  8
0
 10
628.310486
 20
89.187912
 11
630.310486
 21
89.187912
  0
LINE
  8
0
 10
628.310486
 20
80.811905
 11
630.310486
 21
80.811905
  0
LINE
  8
0
 10
628.310486
 20
79.999908
 11
630.310486
 21
79.999908
  0
LINE
  8
0
 10
622.310486
 20
-135.000092
 11
622.310486
 21
-98.000092
  0
LINE
  8
0
 10
604.542542
 20
-121.232346
 11
608.078064
 21
-124.767883
  0
LINE
  8
0
 10
604.543030
 20
-124.768326
 11
608.078613
 21
-121.232773
  0
LINE
  8
0
 10
590.310486
 20
-98.000092
 11
622.310486
 21
-98.000092
  0
LINE
  8
0
 10
590.310486
 20
-94.000092
 11
622.310486
 21
-94.000092
  0
LINE
  8
0
 10
596.310486
 20
-141.000092
 11
616.310486
 21
-141.000092
  0
LINE
  8
0
 10
568.310486
 20
-131.000092
 11
568.310486
 21
-115.000092
  0
LINE
  8
0
 10
568.310486
 20
-131.000092
 11
578.310486
 21
-131.000092
  0
LINE
  8
0
 10
568.310486
 20
-115.000092
 11
576.266907
 21
-115.000092
  0
LINE
  8
0
 10
628.310486
 20
-131.500092
 11
628.310486
 21
-114.500031
  0
LINE
  8
0
 10
623.069641
 20
-118.092499
 11
627.551270
 21
-118.092499
  0
LINE
  8
0
 10
623.069702
 20
-127.907562
 11
627.551270
 21
-127.907562
  0
LINE
  8
0
 10
623.069702
 20
-132.815094
 11
627.551270
 21
-132.815094
  0
LINE
  8
0
 10
627.550293
 20
-132.814468
 11
628.309509
 21
-131.499466
  0
LINE
  8
0
 10
627.550354
 20
-113.185593
 11
628.309570
 21
-114.500595
  0
LINE
  8
0
 10
623.069763
 20
-113.185089
 11
627.551270
 21
-113.185089
  0
LINE
  8
0
 10
623.068665
 20
-132.815430
 11
622.309448
 21
-131.500427
  0
LINE
  8
0
 10
623.068909
 20
-113.184616
 11
622.309692
 21
-114.499619
  0
LINE
  8
0
 10
630.310486
 20
-128.000092
 11
630.310486
 21
-118.000092
  0
LINE
  8
0
 10
628.310486
 20
-128.000092
 11
630.310486
 21
-128.000092
  0
LINE
  8
0
 10
628.310486
 20
-127.188080
 11
630.310486
 21
-127.188080
  0
LINE
  8
0
 10
628.310486
 20
-118.812103
 11
630.310486
 21
-118.812103
  0
LINE
  8
0
 10
628.310486
 20
-118.000092
 11
630.310486
 21
-118.000092
  0
LINE
  8
0
  6
CENTER
 10
564.933411
 20
-123.000092
 11
636.425049
 21
-123.000092
  0
LINE
  8
0
  6
CENTER
 10
573.566772
 20
84.999908
 11
636.425049
 21
84.999908
  0
LINE
  8
0
 10
347.873596
 20
-304.978241
 11
363.873596
 21
-304.978241
  0
LINE
  8
0
 10
347.873596
 20
-304.978241
 11
347.873596
 21
-314.978241
  0
LINE
  8
0
 10
363.873596
 20
-304.978241
 11
363.873596
 21
-314.978241
  0
LINE
  8
0
 10
350.873596
 20
-366.978241
 11
360.873596
 21
-366.978241
  0
LINE
  8
0
 10
350.873596
 20
-364.978241
 11
350.873596
 21
-366.978241
  0
LINE
  8
0
 10
351.685608
 20
-364.978241
 11
351.685608
 21
-366.978241
  0
LINE
  8
0
 10
360.061584
 20
-364.978241
 11
360.061584
 21
-366.978241
  0
LINE
  8
0
 10
360.873596
 20
-364.978241
 11
360.873596
 21
-366.978241
  0
LINE
  8
0
 10
101.873566
 20
-352.978241
 11
101.873566
 21
-332.978241
  0
LINE
  8
0
 10
369.873596
 20
-352.978241
 11
369.873596
 21
-332.978241
  0
LINE
  8
0
 10
95.873566
 20
-358.978241
 11
375.873596
 21
-358.978241
  0
LINE
  8
0
 10
95.873566
 20
-326.978241
 11
375.873596
 21
-326.978241
  0
LINE
  8
0
 10
95.873566
 20
-352.978241
 11
375.873596
 21
-352.978241
  0
LINE
  8
0
 10
95.873566
 20
-332.978241
 11
375.873596
 21
-332.978241
  0
LINE
  8
0
 10
287.873566
 20
-304.978241
 11
303.873596
 21
-304.978241
  0
LINE
  8
0
 10
287.873566
 20
-304.978241
 11
287.873566
 21
-314.978241
  0
LINE
  8
0
 10
303.873596
 20
-304.978241
 11
303.873596
 21
-314.978241
  0
LINE
  8
0
 10
287.373566
 20
-364.978241
 11
304.373596
 21
-364.978241
  0
LINE
  8
0
 10
290.873566
 20
-366.978241
 11
300.873596
 21
-366.978241
  0
LINE
  8
0
 10
290.873566
 20
-364.978241
 11
290.873566
 21
-366.978241
  0
LINE
  8
0
 10
291.685608
 20
-364.978241
 11
291.685608
 21
-366.978241
  0
LINE
  8
0
 10
300.061584
 20
-364.978241
 11
300.061584
 21
-366.978241
  0
LINE
  8
0
 10
300.873596
 20
-364.978241
 11
300.873596
 21
-366.978241
  0
LINE
  8
0
 10
304.373596
 20
-364.978241
 11
304.373596
 21
-358.978241
  0
LINE
  8
0
 10
287.373566
 20
-364.978241
 11
287.373566
 21
-358.978241
  0
LINE
  8
0
 10
295.873596
 20
-364.219025
 11
295.873596
 21
-359.737457
  0
LINE
  8
0
 10
364.373596
 20
-364.978241
 11
364.373596
 21
-358.978241
  0
LINE
  8
0
 10
364.373596
 20
-364.978241
 11
347.373596
 21
-364.978241
  0
LINE
  8
0
 10
347.373596
 20
-364.978241
 11
347.373596
 21
-358.978241
  0
LINE
  8
0
 10
355.873596
 20
-364.219025
 11
355.873596
 21
-359.737457
  0
LINE
  8
0
 10
243.373566
 20
-326.978241
 11
243.373566
 21
-332.978241
  0
LINE
  8
0
 10
243.373566
 20
-358.978241
 11
243.373566
 21
-352.978241
  0
LINE
  8
0
 10
228.373566
 20
-326.978241
 11
228.373566
 21
-332.978241
  0
LINE
  8
0
 10
228.373566
 20
-358.978241
 11
228.373566
 21
-352.978241
  0
LINE
  8
0
 10
101.873566
 20
-246.978241
 11
369.873596
 21
-246.978241
  0
LINE
  8
0
 10
95.873566
 20
-326.978241
 11
95.873566
 21
-358.978241
  0
LINE
  8
0
 10
95.873566
 20
-360.978241
 11
107.373566
 21
-360.978241
  0
LINE
  8
0
 10
95.873566
 20
-324.978241
 11
101.873566
 21
-324.978241
  0
LINE
  8
0
 10
93.873566
 20
-326.978241
 11
93.873566
 21
-358.978241
  0
LINE
  8
0
 10
101.873566
 20
-326.978241
 11
101.873566
 21
-246.978241
  0
LINE
  8
0
 10
375.873596
 20
-360.978241
 11
364.373596
 21
-360.978241
  0
LINE
  8
0
 10
377.873596
 20
-326.978241
 11
377.873596
 21
-358.978241
  0
LINE
  8
0
 10
375.873596
 20
-326.978241
 11
375.873596
 21
-358.978241
  0
LINE
  8
0
 10
375.873596
 20
-324.978241
 11
369.873596
 21
-324.978241
  0
LINE
  8
0
 10
369.873596
 20
-326.978241
 11
369.873596
 21
-246.978241
  0
LINE
  8
0
 10
101.873566
 20
-314.978241
 11
369.873596
 21
-314.978241
  0
LINE
  8
0
 10
124.373566
 20
-360.978241
 11
167.373566
 21
-360.978241
  0
LINE
  8
0
 10
107.873566
 20
-304.978241
 11
123.873566
 21
-304.978241
  0
LINE
  8
0
 10
107.873566
 20
-304.978241
 11
107.873566
 21
-314.978241
  0
LINE
  8
0
 10
123.873566
 20
-304.978241
 11
123.873566
 21
-314.978241
  0
LINE
  8
0
 10
107.373566
 20
-364.978241
 11
124.373566
 21
-364.978241
  0
LINE
  8
0
 10
110.873566
 20
-366.978241
 11
120.873566
 21
-366.978241
  0
LINE
  8
0
 10
110.873566
 20
-364.978241
 11
110.873566
 21
-366.978241
  0
LINE
  8
0
 10
111.685577
 20
-364.978241
 11
111.685577
 21
-366.978241
  0
LINE
  8
0
 10
120.061554
 20
-364.978241
 11
120.061554
 21
-366.978241
  0
LINE
  8
0
 10
120.873566
 20
-364.978241
 11
120.873566
 21
-366.978241
  0
LINE
  8
0
 10
124.373566
 20
-364.978241
 11
124.373566
 21
-358.978241
  0
LINE
  8
0
 10
107.373566
 20
-364.978241
 11
107.373566
 21
-358.978241
  0
LINE
  8
0
 10
115.873566
 20
-364.219025
 11
115.873566
 21
-359.737457
  0
LINE
  8
0
 10
167.873566
 20
-304.978241
 11
183.873566
 21
-304.978241
  0
LINE
  8
0
 10
167.873566
 20
-304.978241
 11
167.873566
 21
-314.978241
  0
LINE
  8
0
 10
183.873566
 20
-304.978241
 11
183.873566
 21
-314.978241
  0
LINE
  8
0
 10
167.373566
 20
-364.978241
 11
184.373566
 21
-364.978241
  0
LINE
  8
0
 10
170.873566
 20
-366.978241
 11
180.873566
 21
-366.978241
  0
LINE
  8
0
 10
170.873566
 20
-364.978241
 11
170.873566
 21
-366.978241
  0
LINE
  8
0
 10
171.685577
 20
-364.978241
 11
171.685577
 21
-366.978241
  0
LINE
  8
0
 10
180.061554
 20
-364.978241
 11
180.061554
 21
-366.978241
  0
LINE
  8
0
 10
180.873566
 20
-364.978241
 11
180.873566
 21
-366.978241
  0
LINE
  8
0
 10
184.373566
 20
-364.978241
 11
184.373566
 21
-358.978241
  0
LINE
  8
0
 10
167.373566
 20
-364.978241
 11
167.373566
 21
-358.978241
  0
LINE
  8
0
 10
175.873566
 20
-364.219025
 11
175.873566
 21
-359.737457
  0
LINE
  8
0
 10
184.373566
 20
-360.978241
 11
287.373566
 21
-360.978241
  0
LINE
  8
0
 10
304.373596
 20
-360.978241
 11
347.373596
 21
-360.978241
  0
LINE
  8
0
  6
DASHED
 10
101.873566
 20
-264.978241
 11
369.873596
 21
-264.978241
  0
LINE
  8
0
  6
CENTER
 10
115.873566
 20
-299.910858
 11
115.873566
 21
-373.092804
  0
LINE
  8
0
  6
CENTER
 10
175.873566
 20
-299.910858
 11
175.873566
 21
-373.092804
  0
LINE
  8
0
  6
CENTER
 10
295.873596
 20
-299.910858
 11
295.873596
 21
-373.092804
  0
LINE
  8
0
  6
CENTER
 10
355.873596
 20
-299.910858
 11
355.873596
 21
-373.092804
  0
ARC
  8
0
 10
652.794678
 20
-464.166809
 40
2.211891
 50
291.688965
 51
0.000000
  0
ARC
  8
0
 10
546.070862
 20
-470.091400
 40
4.423767
 50
0.000000
 51
90.000000
  0
ARC
  8
0
 10
582.567200
 20
-493.869354
 40
4.423798
 50
270.000000
 51
0.000000
  0
ARC
  8
0
 10
580.355164
 20
-472.303223
 40
6.635681
 50
0.000000
 51
90.000000
  0
ARC
  8
0
 10
620.722290
 20
-473.625641
 40
4.423780
 50
294.999969
 51
0.000000
  0
ARC
  8
0
 10
620.722290
 20
-470.091400
 40
4.423767
 50
0.000000
 51
90.000000
  0
ARC
  8
0
 10
655.006836
 20
-465.667572
 40
6.635680
 50
291.688385
 51
0.000000
  0
ARC
  8
0
  6
PHANTOM
 10
-688.773560
 20
-76.558533
 40
50.900021
 50
334.391479
 51
25.608475
  0
ARC
  8
0
  6
PHANTOM
 10
-596.973633
 20
-32.558533
 40
50.899982
 50
154.391418
 51
205.608490
  0
ARC
  8
0
  6
PHANTOM
 10
-352.973602
 20
-32.558533
 40
50.900009
 50
154.391342
 51
205.608398
  0
ARC
  8
0
  6
PHANTOM
 10
-444.773590
 20
-76.558533
 40
50.899994
 50
334.391479
 51
25.608469
  0
ARC
  8
0
  6
PHANTOM
 10
-688.773621
 20
236.419678
 40
50.900017
 50
334.391510
 51
25.608458
  0
ARC
  8
0
  6
PHANTOM
 10
-596.973633
 20
280.419678
 40
50.899979
 50
154.391418
 51
205.608490
  0
ARC
  8
0
  6
PHANTOM
 10
-444.773621
 20
236.419678
 40
50.900013
 50
334.391418
 51
25.608458
  0
ARC
  8
0
  6
PHANTOM
 10
-352.973633
 20
280.419678
 40
50.900005
 50
154.391357
 51
205.608414
  0
ARC
  8
0
  6
PHANTOM
 10
-175.436737
 20
-54.558472
 40
43.999996
 50
287.341431
 51
252.658508
  0
ARC
  8
0
  6
PHANTOM
 10
-688.773560
 20
-354.536713
 40
50.900005
 50
334.391357
 51
25.608427
  0
ARC
  8
0
  6
PHANTOM
 10
-596.973572
 20
-310.536713
 40
50.900005
 50
154.391357
 51
205.608429
  0
ARC
  8
0
  6
PHANTOM
 10
-444.773560
 20
-354.536713
 40
50.900005
 50
334.391357
 51
25.608412
  0
ARC
  8
0
  6
PHANTOM
 10
-352.973572
 20
-310.536713
 40
50.900005
 50
154.391281
 51
205.608353
  0
ARC
  8
0
  6
PHANTOM
 10
115.073547
 20
-11.999992
 40
44.200001
 50
140.692368
 51
219.307617
  0
ARC
  8
0
  6
PHANTOM
 10
46.673523
 20
-67.999992
 40
44.199997
 50
320.692413
 51
39.307686
  0
ARC
  8
0
  6
PHANTOM
 10
356.673523
 20
-67.999992
 40
44.200005
 50
320.692444
 51
39.307686
  0
ARC
  8
0
  6
PHANTOM
 10
425.073517
 20
-11.999992
 40
44.199997
 50
140.692383
 51
219.307632
  0
ARC
  8
0
  6
PHANTOM
 10
115.073532
 20
330.978241
 40
44.200005
 50
140.692352
 51
219.307602
  0
ARC
  8
0
  6
PHANTOM
 10
46.673508
 20
274.978241
 40
44.199997
 50
320.692413
 51
39.307693
  0
ARC
  8
0
  6
PHANTOM
 10
356.673523
 20
274.978241
 40
44.200005
 50
320.692444
 51
39.307693
  0
ARC
  8
0
  6
PHANTOM
 10
425.073486
 20
330.978241
 40
44.199989
 50
140.692398
 51
219.307632
  0
ARC
  8
0
  6
PHANTOM
 10
606.310486
 20
-40.000069
 40
56.000000
 50
285.358948
 51
254.641113
  0
ARC
  8
0
  6
PHANTOM
 10
115.073578
 20
-314.978210
 40
44.200005
 50
140.692352
 51
219.307602
  0
ARC
  8
0
  6
PHANTOM
 10
46.673523
 20
-370.978210
 40
44.200008
 50
320.692413
 51
39.307693
  0
ARC
  8
0
  6
PHANTOM
 10
356.673553
 20
-370.978210
 40
44.200012
 50
320.692413
 51
39.307693
  0
ARC
  8
0
  6
PHANTOM
 10
425.073547
 20
-314.978210
 40
44.199989
 50
140.692398
 51
219.307632
  0
ARC
  8
0
 10
-630.873535
 20
-98.558441
 40
2.000000
 50
90.000000
 51
270.000000
  0
ARC
  8
0
 10
-410.873535
 20
-98.558441
 40
2.000000
 50
270.000000
 51
90.000000
  0
CIRCLE
  8
0
 10
-475.873535
 20
-122.558441
 40
6.500000
  0
CIRCLE
  8
0
 10
-565.873535
 20
-122.558441
 40
6.500000
  0
CIRCLE
  8
0
 10
-610.873535
 20
-122.558441
 40
6.500000
  0
CIRCLE
  8
0
 10
-430.873566
 20
47.441559
 40
6.500000
  0
CIRCLE
  8
0
 10
-610.873535
 20
47.441559
 40
6.500000
  0
CIRCLE
  8
0
 10
-430.873566
 20
-122.558441
 40
6.500000
  0
ARC
  8
0
 10
-565.873535
 20
-122.558441
 40
7.250010
 50
44.479939
 51
135.520020
  0
ARC
  8
0
 10
-475.873535
 20
-122.558441
 40
7.250010
 50
44.479939
 51
135.519852
  0
ARC
  8
0
 10
-430.873566
 20
-122.558441
 40
7.250010
 50
44.479939
 51
135.519852
  0
ARC
  8
0
 10
-610.873535
 20
-122.558441
 40
7.250010
 50
44.479939
 51
135.520020
  0
CIRCLE
  8
0
 10
-565.873535
 20
47.441559
 40
4.500000
  0
CIRCLE
  8
0
 10
-475.873535
 20
47.441559
 40
4.500000
  0
ARC
  8
0
 10
-520.873535
 20
44.941559
 40
6.000000
 50
179.999969
 51
0.000000
  0
ARC
  8
0
 10
-434.123596
 20
282.806671
 40
9.386994
 50
249.743484
 51
290.256500
  0
ARC
  8
0
 10
-427.623596
 20
269.032623
 40
9.386994
 50
69.743484
 51
110.256516
  0
ARC
  8
0
 10
-434.123596
 20
269.032623
 40
9.386994
 50
69.743484
 51
110.256516
  0
ARC
  8
0
 10
-427.623596
 20
282.806671
 40
9.386994
 50
249.743484
 51
290.256500
  0
ARC
  8
0
 10
-607.623657
 20
282.806671
 40
9.386994
 50
249.743484
 51
290.256500
  0
ARC
  8
0
 10
-614.123657
 20
282.806671
 40
9.386994
 50
249.743484
 51
290.256500
  0
ARC
  8
0
 10
-607.623657
 20
269.032623
 40
9.386994
 50
69.743484
 51
110.256516
  0
ARC
  8
0
 10
-614.123657
 20
269.032623
 40
9.386994
 50
69.743484
 51
110.256516
  0
CIRCLE
  8
0
 10
-175.436768
 20
-122.558449
 40
5.000000
  0
ARC
  8
0
 10
-157.114258
 20
-116.929237
 40
3.322529
 50
145.615112
 51
214.384888
  0
ARC
  8
0
 10
-148.017517
 20
-122.558479
 40
12.419248
 50
162.411789
 51
197.588242
  0
ARC
  8
0
 10
-157.114258
 20
-128.187653
 40
3.322529
 50
145.615112
 51
214.384781
  0
ARC
  8
0
 10
-158.759277
 20
-116.929237
 40
3.322529
 50
325.615112
 51
34.384888
  0
ARC
  8
0
 10
-167.856018
 20
-122.558479
 40
12.419250
 50
342.411774
 51
17.588238
  0
ARC
  8
0
 10
-158.759277
 20
-128.187653
 40
3.322525
 50
325.615234
 51
34.384888
  0
ARC
  8
0
 10
-148.017517
 20
47.441582
 40
12.419252
 50
162.411728
 51
197.588181
  0
ARC
  8
0
 10
-157.114258
 20
53.070763
 40
3.322529
 50
145.615112
 51
214.384827
  0
ARC
  8
0
 10
-158.759277
 20
41.812340
 40
3.322529
 50
325.615112
 51
34.384834
  0
ARC
  8
0
 10
-157.114258
 20
41.812340
 40
3.322529
 50
145.615112
 51
214.384888
  0
ARC
  8
0
 10
-175.436768
 20
-51.558449
 40
62.000000
 50
88.677612
 51
179.999969
  0
ARC
  8
0
 10
-173.936768
 20
13.424248
 40
3.000000
 50
268.677704
 51
359.999969
  0
ARC
  8
0
 10
-182.936768
 20
24.441551
 40
3.000000
 50
0.000000
 51
90.000000
  0
ARC
  8
0
 10
-167.936768
 20
24.441551
 40
3.000000
 50
90.000000
 51
179.999969
  0
ARC
  8
0
 10
-181.436768
 20
-51.558449
 40
71.000000
 50
91.161446
 51
179.999969
  0
ARC
  8
0
 10
-182.936768
 20
22.426353
 40
3.000000
 50
271.161407
 51
0.000000
  0
ARC
  8
0
 10
-225.436768
 20
-80.756905
 40
12.000000
 50
179.999969
 51
254.999969
  0
ARC
  8
0
 10
-222.436768
 20
-80.525490
 40
30.000000
 50
179.999969
 51
254.999969
  0
ARC
  8
0
 10
-203.436768
 20
-119.780617
 40
3.000000
 50
0.000000
 51
74.999954
  0
ARC
  8
0
 10
-190.436768
 20
-98.558449
 40
2.000000
 50
90.000000
 51
270.000000
  0
ARC
  8
0
 10
-160.436768
 20
-98.558449
 40
2.000000
 50
270.000000
 51
90.000000
  0
ARC
  8
0
 10
-158.759277
 20
53.070763
 40
3.322529
 50
325.615112
 51
34.384888
  0
ARC
  8
0
 10
-167.856018
 20
47.441582
 40
12.419250
 50
342.411774
 51
17.588238
  0
ARC
  8
0
 10
-479.123352
 20
-356.923706
 40
9.386994
 50
69.743484
 51
110.256516
  0
ARC
  8
0
 10
-472.623352
 20
-343.149658
 40
9.386994
 50
249.743484
 51
290.256500
  0
ARC
  8
0
 10
-479.123352
 20
-343.149658
 40
9.386994
 50
249.743484
 51
290.256500
  0
ARC
  8
0
 10
-472.623352
 20
-356.923706
 40
9.386994
 50
69.743484
 51
110.256516
  0
ARC
  8
0
 10
-427.623352
 20
-356.923706
 40
9.386994
 50
69.743484
 51
110.256516
  0
ARC
  8
0
 10
-434.123352
 20
-343.149658
 40
9.386994
 50
249.743484
 51
290.256500
  0
ARC
  8
0
 10
-427.623352
 20
-343.149658
 40
9.386994
 50
249.743484
 51
290.256500
  0
ARC
  8
0
 10
-434.123352
 20
-356.923706
 40
9.386994
 50
69.743484
 51
110.256516
  0
ARC
  8
0
 10
-630.873291
 20
-317.536682
 40
2.000000
 50
90.000000
 51
180.000000
  0
ARC
  8
0
 10
-630.873291
 20
-347.536682
 40
2.000000
 50
180.000000
 51
270.000000
  0
ARC
  8
0
 10
-410.873352
 20
-317.536682
 40
2.000000
 50
0.000000
 51
90.000000
  0
ARC
  8
0
 10
-410.873352
 20
-347.536682
 40
2.000000
 50
270.000000
 51
0.000000
  0
ARC
  8
0
 10
-614.123291
 20
-343.149658
 40
9.386994
 50
249.743484
 51
290.256500
  0
ARC
  8
0
 10
-562.623291
 20
-356.923706
 40
9.386994
 50
69.743484
 51
110.256516
  0
ARC
  8
0
 10
-562.623291
 20
-343.149658
 40
9.386994
 50
249.743484
 51
290.256500
  0
ARC
  8
0
 10
-614.123291
 20
-356.923706
 40
9.386994
 50
69.743484
 51
110.256516
  0
ARC
  8
0
 10
-607.623291
 20
-343.149658
 40
9.386994
 50
249.743484
 51
290.256500
  0
ARC
  8
0
 10
-607.623291
 20
-356.923706
 40
9.386994
 50
69.743484
 51
110.256516
  0
ARC
  8
0
 10
-569.123291
 20
-343.149658
 40
9.386994
 50
249.743484
 51
290.256500
  0
ARC
  8
0
 10
-569.123291
 20
-356.923706
 40
9.386994
 50
69.743484
 51
110.256516
  0
CIRCLE
  8
0
 10
115.873642
 20
84.999954
 40
8.000000
  0
CIRCLE
  8
0
 10
115.873642
 20
-123.000046
 40
8.000000
  0
ARC
  8
0
 10
95.873642
 20
-96.000046
 40
2.000000
 50
90.000000
 51
270.000000
  0
CIRCLE
  8
0
 10
175.873642
 20
-123.000046
 40
8.000000
  0
CIRCLE
  8
0
 10
355.873657
 20
84.999954
 40
8.000000
  0
CIRCLE
  8
0
 10
355.873657
 20
-123.000046
 40
8.000000
  0
ARC
  8
0
 10
375.873657
 20
-96.000046
 40
2.000000
 50
270.000000
 51
90.000000
  0
CIRCLE
  8
0
 10
295.873657
 20
-123.000046
 40
8.000000
  0
ARC
  8
0
 10
175.873642
 20
-123.000046
 40
8.750006
 50
60.035202
 51
119.964684
  0
ARC
  8
0
 10
295.873657
 20
-123.000046
 40
8.749998
 50
60.035290
 51
119.964684
  0
ARC
  8
0
 10
355.873657
 20
-123.000046
 40
8.749998
 50
60.035290
 51
119.964684
  0
ARC
  8
0
 10
115.873642
 20
-123.000046
 40
8.750002
 50
60.035248
 51
119.964684
  0
CIRCLE
  8
0
 10
175.873642
 20
84.999954
 40
5.500000
  0
CIRCLE
  8
0
 10
295.873657
 20
84.999954
 40
5.500000
  0
ARC
  8
0
 10
235.873642
 20
81.499954
 40
7.500000
 50
179.999939
 51
0.000000
  0
ARC
  8
0
 10
351.623474
 20
331.253235
 40
12.275086
 50
249.743118
 51
290.256897
  0
ARC
  8
0
 10
351.623474
 20
312.703064
 40
12.275086
 50
69.743118
 51
110.256882
  0
ARC
  8
0
 10
360.123474
 20
312.703064
 40
12.275086
 50
69.743118
 51
110.256882
  0
ARC
  8
0
 10
360.123474
 20
331.253235
 40
12.275086
 50
249.743118
 51
290.256897
  0
ARC
  8
0
 10
120.123489
 20
331.253235
 40
12.275091
 50
249.743057
 51
290.256836
  0
ARC
  8
0
 10
111.623489
 20
331.253235
 40
12.275091
 50
249.743057
 51
290.256836
  0
ARC
  8
0
 10
120.123489
 20
312.703064
 40
12.275089
 50
69.743088
 51
110.256912
  0
ARC
  8
0
 10
111.623489
 20
312.703064
 40
12.275089
 50
69.743088
 51
110.256912
  0
ARC
  8
0
 10
626.655334
 20
-130.361298
 40
4.344831
 50
146.227173
 51
214.384949
  0
ARC
  8
0
 10
626.655334
 20
-115.638885
 40
4.344842
 50
145.615051
 51
213.772827
  0
ARC
  8
0
 10
623.965637
 20
-115.638885
 40
4.344827
 50
326.227264
 51
34.385033
  0
ARC
  8
0
 10
638.551086
 20
-123.000031
 40
16.240591
 50
162.411713
 51
197.588440
  0
ARC
  8
0
 10
612.069885
 20
-123.000031
 40
16.240597
 50
342.411652
 51
17.588415
  0
ARC
  8
0
 10
623.965637
 20
-130.361298
 40
4.344842
 50
325.615051
 51
33.772915
  0
ARC
  8
0
 10
590.310486
 20
-96.000092
 40
2.000000
 50
90.000000
 51
270.000000
  0
CIRCLE
  8
0
 10
606.310486
 20
-123.000092
 40
5.000000
  0
ARC
  8
0
 10
622.310486
 20
-96.000092
 40
2.000000
 50
270.000000
 51
90.000000
  0
ARC
  8
0
 10
606.310486
 20
-36.000095
 40
78.000000
 50
89.301201
 51
179.999969
  0
ARC
  8
0
 10
598.310486
 20
-36.000095
 40
88.000000
 50
90.622765
 51
179.999969
  0
ARC
  8
0
 10
546.310486
 20
-69.575348
 40
18.000000
 50
179.999969
 51
254.999969
  0
ARC
  8
0
 10
546.310486
 20
-69.575348
 40
36.000000
 50
179.999969
 51
254.999969
  0
ARC
  8
0
 10
574.310486
 20
-118.488983
 40
4.000000
 50
0.000000
 51
74.999962
  0
ARC
  8
0
 10
607.310486
 20
45.993801
 40
4.000000
 50
269.301453
 51
0.000000
  0
ARC
  8
0
 10
597.310486
 20
55.994473
 40
4.000000
 50
270.622498
 51
0.000000
  0
ARC
  8
0
 10
597.310486
 20
57.999905
 40
4.000000
 50
0.000000
 51
90.000000
  0
ARC
  8
0
 10
615.310486
 20
57.999905
 40
4.000000
 50
90.000000
 51
179.999939
  0
ARC
  8
0
 10
623.965637
 20
92.361145
 40
4.344831
 50
326.227173
 51
34.384953
  0
ARC
  8
0
 10
612.069885
 20
84.999863
 40
16.240599
 50
342.411621
 51
17.588364
  0
ARC
  8
0
 10
623.965637
 20
77.638672
 40
4.344846
 50
325.614960
 51
33.772831
  0
ARC
  8
0
 10
638.551086
 20
84.999863
 40
16.240604
 50
162.411591
 51
197.588318
  0
ARC
  8
0
 10
626.655334
 20
92.361145
 40
4.344842
 50
145.615051
 51
213.772827
  0
ARC
  8
0
 10
626.655334
 20
77.638672
 40
4.344831
 50
146.227173
 51
214.384949
  0
ARC
  8
0
 10
180.123566
 20
-371.253326
 40
12.275086
 50
69.743118
 51
110.256950
  0
ARC
  8
0
 10
180.123566
 20
-352.703156
 40
12.275091
 50
249.743057
 51
290.256897
  0
ARC
  8
0
 10
171.623566
 20
-371.253326
 40
12.275086
 50
69.743118
 51
110.256950
  0
ARC
  8
0
 10
171.623566
 20
-352.703156
 40
12.275091
 50
249.743057
 51
290.256897
  0
ARC
  8
0
 10
120.123566
 20
-371.253326
 40
12.275089
 50
69.743088
 51
110.256912
  0
ARC
  8
0
 10
120.123566
 20
-352.703156
 40
12.275091
 50
249.743057
 51
290.256836
  0
ARC
  8
0
 10
111.623566
 20
-371.253326
 40
12.275089
 50
69.743088
 51
110.256912
  0
ARC
  8
0
 10
111.623566
 20
-352.703156
 40
12.275091
 50
249.743057
 51
290.256836
  0
ARC
  8
0
 10
375.873596
 20
-326.978241
 40
2.000000
 50
0.000000
 51
90.000000
  0
ARC
  8
0
 10
375.873596
 20
-358.978241
 40
2.000000
 50
270.000000
 51
0.000000
  0
ARC
  8
0
 10
95.873566
 20
-326.978241
 40
2.000000
 50
90.000000
 51
180.000000
  0
ARC
  8
0
 10
95.873566
 20
-358.978241
 40
2.000000
 50
180.000000
 51
270.000000
  0
ARC
  8
0
 10
351.623596
 20
-371.253326
 40
12.275097
 50
69.742981
 51
110.256836
  0
ARC
  8
0
 10
351.623596
 20
-352.703156
 40
12.275086
 50
249.743118
 51
290.256897
  0
ARC
  8
0
 10
360.123596
 20
-352.703156
 40
12.275086
 50
249.743118
 51
290.256897
  0
ARC
  8
0
 10
360.123596
 20
-371.253326
 40
12.275097
 50
69.742981
 51
110.256836
  0
ARC
  8
0
 10
300.123596
 20
-371.253326
 40
12.275086
 50
69.743118
 51
110.256882
  0
ARC
  8
0
 10
291.623596
 20
-352.703156
 40
12.275097
 50
249.742981
 51
290.256897
  0
ARC
  8
0
 10
300.123596
 20
-352.703156
 40
12.275097
 50
249.742981
 51
290.256897
  0
ARC
  8
0
 10
291.623596
 20
-371.253326
 40
12.275086
 50
69.743118
 51
110.256882
  0
TEXT
  8
0
 10
452.675018
 20
466.214996
 40
17.000000
  1
DATE : NOV ,1991
 50
0.000000
 41
1.052631
 51
0.000000
  7
STANDARD
  0
TEXT
  8
0
 10
17.392859
 20
404.912811
 40
20.000000
  1
BORE : 80
 50
0.000000
 41
1.052632
 51
0.000000
  7
STANDARD
  0
TEXT
  8
0
 10
-724.354309
 20
404.912811
 40
20.000000
  1
BORE : 63
 50
0.000000
 41
1.052632
 51
0.000000
  7
STANDARD
  0
TEXT
  8
0
 10
-711.809937
 20
463.514984
 40
20.000000
  1
ORC CS MOUNT
 50
0.000000
 41
1.052632
 51
0.000000
  7
STANDARD
  0
ENDSEC
  0
EOF
