  0
SECTION
  2
HEADER
  0
ENDSEC
  0
SECTION
  2
TABLES
  0
TABLE
  2
LTYPE
 70
     4
  0
LTYPE
  2
CONTINUOUS
 70
    64
  3
Solid line
 72
    65
 73
     0
 40
0.000000
  0
LTYPE
  2
DASHED
 70
    64
  3
__ __ __ __ __ __ __ __ __ __ __ __ __ __ __
 72
    65
 73
     2
 40
3.500000
 49
2.000000
 49
-1.500000
  0
LTYPE
  2
CENTER
 70
    64
  3
____ _ ____ _ ____ _ ____ _ ____ _ ____ _ ____
 72
    65
 73
     4
 40
17.500000
 49
13.000000
 49
-1.500000
 49
1.500000
 49
-1.500000
  0
LTYPE
  2
PHANTOM
 70
    64
  3
_____ _ _ _____ _ _ _____ _ _ _____ _ _ ____  
 72
    65
 73
     6
 40
15.500000
 49
8.000000
 49
-1.500000
 49
1.500000
 49
-1.500000
 49
1.500000
 49
-1.500000
  0
LTYPE
  2
DASHED1
 70
    64
  3
__ __ __ __ __ __ __ __ __ __ __ __ __ __ __
 72
    65
 73
     2
 40
1.500000
 49
1.000000
 49
-0.500000
  0
LTYPE
  2
DASHED2
 70
    64
  3
__ __ __ __ __ __ __ __ __ __ __ __ __ __ __
 72
    65
 73
     2
 40
3.500000
 49
2.500000
 49
-1.000000
  0
LTYPE
  2
DASHED3
 70
    64
  3
__ __ __ __ __ __ __ __ __ __ __ __ __ __ __
 72
    65
 73
     2
 40
6.000000
 49
4.000000
 49
-2.000000
  0
LTYPE
  2
DASHED4
 70
    64
  3
__ __ __ __ __ __ __ __ __ __ __ __ __ __ __
 72
    65
 73
     2
 40
12.000000
 49
10.000000
 49
-2.000000
  0
LTYPE
  2
DASHED5
 70
    64
  3
__ __ __ __ __ __ __ __ __ __ __ __ __ __ __
 72
    65
 73
     2
 40
17.000000
 49
15.000000
 49
-2.000000
  0
LTYPE
  2
DASHED6
 70
    64
  3
__ __ __ __ __ __ __ __ __ __ __ __ __ __ __
 72
    65
 73
     2
 40
29.000000
 49
27.000000
 49
-2.000000
  0
LTYPE
  2
PHANTOM1
 70
    64
  3
_____ _ _ _____ _ _ _____ _ _ _____ _ _ ____  
 72
    65
 73
     6
 40
31.000000
 49
25.000000
 49
-1.500000
 49
1.000000
 49
-1.000000
 49
1.000000
 49
-1.500000
  0
LTYPE
  2
PHANTOM2
 70
    64
  3
_____ _ _ _____ _ _ _____ _ _ _____ _ _ ____  
 72
    65
 73
     6
 40
36.000000
 49
27.000000
 49
-1.500000
 49
2.500000
 49
-1.000000
 49
2.500000
 49
-1.500000
  0
LTYPE
  2
PHANTOM3
 70
    64
  3
_____ _ _ _____ _ _ _____ _ _ _____ _ _ ____  
 72
    65
 73
     6
 40
78.000000
 49
64.000000
 49
-2.000000
 49
4.000000
 49
-2.000000
 49
4.000000
 49
-2.000000
  0
LTYPE
  2
CENTER1
 70
    64
  3
____ _ ____ _ ____ _ ____ _ ____ _ ____ _ ____
 72
    65
 73
     4
 40
19.000000
 49
14.000000
 49
-1.000000
 49
3.000000
 49
-1.000000
  0
LTYPE
  2
CENTER2
 70
    64
  3
____ _ ____ _ ____ _ ____ _ ____ _ ____ _ ____
 72
    65
 73
     4
 40
28.500000
 49
25.000000
 49
-1.000000
 49
1.500000
 49
-1.000000
  0
LTYPE
  2
CENTER3
 70
    64
  3
____ _ ____ _ ____ _ ____ _ ____ _ ____ _ ____
 72
    65
 73
     4
 40
31.500000
 49
27.000000
 49
-1.000000
 49
2.500000
 49
-1.000000
  0
LTYPE
  2
CENTER4
 70
    64
  3
____ _ ____ _ ____ _ ____ _ ____ _ ____ _ ____
 72
    65
 73
     4
 40
50.000000
 49
45.000000
 49
-1.000000
 49
3.000000
 49
-1.000000
  0
LTYPE
  2
CENTER5
 70
    64
  3
____ _ ____ _ ____ _ ____ _ ____ _ ____ _ ____
 72
    65
 73
     4
 40
100.000000
 49
92.000000
 49
-2.000000
 49
4.000000
 49
-2.000000
  0
LTYPE
  2
SBK1
 70
    64
  3
______ _ _ _ ______ _ _ _ ______ _ _ _ _____  
 72
    65
 73
     8
 40
60.500000
 49
45.000000
 49
-2.000000
 49
2.500000
 49
-2.000000
 49
2.500000
 49
-2.000000
 49
2.500000
 49
-2.000000
  0
LTYPE
  2
SBK2
 70
    64
  3
______ _ _ _ ______ _ _ _ ______ _ _ _ _____  
 72
    65
 73
     8
 40
84.000000
 49
64.000000
 49
-2.000000
 49
4.000000
 49
-2.000000
 49
4.000000
 49
-2.000000
 49
4.000000
 49
-2.000000
  0
LTYPE
  2
STCH
 70
    64
  3
__ __ __ __ __ __ __ __ __ __ __ __ __ __ __
 72
    65
 73
     2
 40
3.000000
 49
1.000000
 49
-2.000000
  0
LTYPE
  2
MTCH
 70
    64
  3
_____ _ _ _____ _ _ _____ _ _ _____ _ _ ____  
 72
    65
 73
     6
 40
80.000000
 49
66.000000
 49
-2.000000
 49
4.000000
 49
-2.000000
 49
4.000000
 49
-2.000000
  0
ENDTAB
  0
TABLE
  2
LAYER
 70
     1
  0
LAYER
  2
0
 70
     0
 62
     7
  6
CONTINUOUS
  0
ENDTAB
  0
TABLE
  2
STYLE
 70
     1
  0
STYLE
  2
STANDARD
 70
     0
 40
0.000000
 41
1.000000
 50
0.000000
 71
     0
 42
0.200000
  3
txt
  4
BIGFONT
  0
ENDTAB
  0
TABLE
  2
VIEW
 70
     0
  0
ENDTAB
  0
ENDSEC
  0
SECTION
  2
BLOCKS
  0
ENDSEC
  0
SECTION
  2
ENTITIES
  0
POINT
  8
0
 10
-459.000153
 20
-140.000061
  0
POINT
  8
0
 10
-459.000153
 20
130.000046
  0
POINT
  8
0
 10
396.000000
 20
-140.000000
  0
POINT
  8
0
 10
260.999847
 20
-140.000061
  0
POINT
  8
0
 10
-459.000153
 20
-140.000061
  0
POINT
  8
0
 10
-459.000153
 20
130.000046
  0
POINT
  8
0
 10
260.999847
 20
130.000046
  0
POINT
  8
0
 10
396.000000
 20
-140.000000
  0
POINT
  8
0
 10
462.000000
 20
-140.000000
  0
LINE
  8
0
 10
308.764069
 20
-319.550690
 11
524.494446
 21
-319.550690
  0
LINE
  8
0
 10
-308.764069
 20
319.550598
 11
-308.764069
 21
360.000092
  0
LINE
  8
0
 10
-524.494446
 20
319.550598
 11
-308.764069
 21
319.550598
  0
LINE
  8
0
 10
-524.494446
 20
360.000092
 11
524.494446
 21
360.000092
  0
LINE
  8
0
 10
-524.494446
 20
-360.000092
 11
524.494446
 21
-360.000092
  0
LINE
  8
0
 10
524.494446
 20
360.000092
 11
524.494446
 21
-360.000092
  0
LINE
  8
0
 10
-524.494446
 20
-360.000092
 11
-524.494446
 21
360.000092
  0
LINE
  8
0
 10
308.764069
 20
-319.550690
 11
308.764069
 21
-360.000092
  0
LINE
  8
0
 10
308.764069
 20
360.000092
 11
308.764069
 21
319.550598
  0
LINE
  8
0
 10
308.764069
 20
319.550598
 11
524.494446
 21
319.550598
  0
LINE
  8
0
 10
365.406830
 20
-333.968781
 11
383.002350
 21
-333.968781
  0
LINE
  8
0
 10
365.406830
 20
-352.346344
 11
389.258545
 21
-352.346344
  0
LINE
  8
0
 10
365.406830
 20
-347.654236
 11
383.002350
 21
-347.654236
  0
LINE
  8
0
 10
365.406830
 20
-329.276642
 11
386.130402
 21
-329.276642
  0
LINE
  8
0
 10
383.002350
 20
-333.968781
 11
383.002350
 21
-347.654236
  0
LINE
  8
0
 10
389.258545
 20
-332.404785
 11
389.258545
 21
-352.346344
  0
LINE
  8
0
 10
365.406830
 20
-347.654236
 11
365.406830
 21
-352.346344
  0
LINE
  8
0
 10
415.065186
 20
-333.968781
 11
415.065186
 21
-349.218353
  0
LINE
  8
0
 10
392.777557
 20
-329.276642
 11
392.777557
 21
-333.968781
  0
LINE
  8
0
 10
415.690887
 20
-328.924835
 11
417.919678
 21
-328.924835
  0
LINE
  8
0
 10
415.690887
 20
-325.796661
 11
417.919678
 21
-325.796661
  0
LINE
  8
0
 10
417.919678
 20
-325.796661
 11
417.919678
 21
-328.924835
  0
LINE
  8
0
 10
415.690887
 20
-325.796661
 11
415.690887
 21
-328.924835
  0
LINE
  8
0
 10
414.517731
 20
-325.796661
 11
414.517731
 21
-328.924835
  0
LINE
  8
0
 10
399.891602
 20
-325.796661
 11
404.749207
 21
-325.796661
  0
LINE
  8
0
 10
403.816254
 20
-329.276215
 11
404.748657
 21
-325.796204
  0
LINE
  8
0
 10
398.959137
 20
-329.276611
 11
399.891571
 21
-325.796631
  0
LINE
  8
0
 10
403.816772
 20
-329.276642
 11
410.373047
 21
-329.276642
  0
LINE
  8
0
 10
402.559540
 20
-333.968781
 11
408.809052
 21
-333.968781
  0
LINE
  8
0
 10
405.374237
 20
-352.346344
 11
411.937195
 21
-352.346344
  0
LINE
  8
0
 10
404.116760
 20
-347.654144
 11
405.374054
 21
-352.346161
  0
LINE
  8
0
 10
404.116852
 20
-347.654236
 11
408.809052
 21
-347.654236
  0
LINE
  8
0
 10
397.635498
 20
-352.346588
 11
402.559692
 21
-333.968994
  0
LINE
  8
0
 10
392.777557
 20
-333.968781
 11
397.701874
 21
-333.968781
  0
LINE
  8
0
 10
392.777374
 20
-352.346161
 11
397.701782
 21
-333.968536
  0
LINE
  8
0
 10
392.777557
 20
-352.346344
 11
397.635284
 21
-352.346344
  0
LINE
  8
0
 10
392.777557
 20
-329.276642
 11
398.959137
 21
-329.276642
  0
LINE
  8
0
 10
408.809052
 20
-333.968781
 11
408.809052
 21
-347.654236
  0
LINE
  8
0
 10
412.288940
 20
-325.796661
 11
414.517731
 21
-325.796661
  0
LINE
  8
0
 10
412.288940
 20
-328.924835
 11
414.517731
 21
-328.924835
  0
LINE
  8
0
 10
412.288940
 20
-325.796661
 11
412.288940
 21
-328.924835
  0
LINE
  8
0
 10
426.404572
 20
-325.796661
 11
432.660675
 21
-325.796661
  0
LINE
  8
0
 10
436.061951
 20
-339.687103
 11
440.239410
 21
-337.739166
  0
LINE
  8
0
 10
432.660675
 20
-343.278320
 11
432.660675
 21
-352.346344
  0
LINE
  8
0
 10
426.404572
 20
-344.189972
 11
426.404572
 21
-352.346344
  0
LINE
  8
0
 10
432.660675
 20
-329.276642
 11
438.916931
 21
-329.276642
  0
LINE
  8
0
 10
432.660675
 20
-325.796661
 11
432.660675
 21
-329.276642
  0
LINE
  8
0
 10
426.404572
 20
-325.796661
 11
426.404572
 21
-329.276642
  0
LINE
  8
0
 10
442.045013
 20
-332.404785
 11
442.045013
 21
-334.903870
  0
LINE
  8
0
 10
436.061920
 20
-339.687012
 11
442.045441
 21
-342.477234
  0
LINE
  8
0
 10
432.660645
 20
-343.278229
 11
442.045074
 21
-347.654205
  0
LINE
  8
0
 10
418.975342
 20
-342.477020
 11
418.975342
 21
-347.654236
  0
LINE
  8
0
 10
418.975983
 20
-342.477539
 11
437.221924
 21
-333.969299
  0
LINE
  8
0
 10
418.975372
 20
-347.654266
 11
426.404755
 21
-344.189880
  0
LINE
  8
0
 10
442.045013
 20
-342.477020
 11
442.045013
 21
-347.654236
  0
LINE
  8
0
 10
418.975342
 20
-329.276642
 11
418.975342
 21
-333.968781
  0
LINE
  8
0
 10
426.404572
 20
-352.346344
 11
432.660675
 21
-352.346344
  0
LINE
  8
0
 10
418.975342
 20
-333.968781
 11
437.221222
 21
-333.968781
  0
LINE
  8
0
 10
418.975342
 20
-329.276642
 11
426.404572
 21
-329.276642
  0
LINE
  8
0
 10
463.160522
 20
-334.326782
 11
464.894440
 21
-333.637054
  0
LINE
  8
0
 10
463.159729
 20
-334.326324
 11
463.159729
 21
-352.346344
  0
LINE
  8
0
 10
456.903442
 20
-352.346344
 11
463.159729
 21
-352.346344
  0
LINE
  8
0
 10
443.999786
 20
-341.946228
 11
456.903168
 21
-336.814362
  0
LINE
  8
0
 10
444.000092
 20
-336.896698
 11
462.173584
 21
-329.668823
  0
LINE
  8
0
 10
456.903442
 20
-336.814453
 11
456.903442
 21
-352.346344
  0
LINE
  8
0
 10
463.159729
 20
-327.204376
 11
463.159729
 21
-328.215485
  0
LINE
  8
0
 10
467.851715
 20
-327.204376
 11
467.851715
 21
-329.276672
  0
LINE
  8
0
 10
444.000092
 20
-336.896667
 11
444.000092
 21
-341.946259
  0
LINE
  8
0
 10
463.159729
 20
-327.204376
 11
467.851715
 21
-327.204376
  0
LINE
  8
0
 10
365.406830
 20
-329.276642
 11
365.406830
 21
-333.968781
  0
LINE
  8
0
 10
-459.000153
 20
-74.000061
 11
-459.000153
 21
-206.000061
  0
LINE
  8
0
  6
CENTER
 10
-474.000153
 20
-140.000061
 11
275.999847
 21
-140.000061
  0
LINE
  8
0
 10
-459.000153
 20
-74.000061
 11
-409.000153
 21
-74.000061
  0
LINE
  8
0
 10
-459.000153
 20
-206.000061
 11
-409.000153
 21
-206.000061
  0
LINE
  8
0
 10
-409.000153
 20
-74.000061
 11
-409.000153
 21
-206.000061
  0
LINE
  8
0
 10
-357.000153
 20
-74.000061
 11
-357.000153
 21
-206.000061
  0
LINE
  8
0
 10
-357.000153
 20
-84.000061
 11
-341.000153
 21
-84.000061
  0
LINE
  8
0
 10
-357.000153
 20
-196.000061
 11
158.999847
 21
-196.000061
  0
LINE
  8
0
  6
CENTER
 10
-434.000153
 20
-117.500061
 11
-434.000153
 21
-162.500061
  0
LINE
  8
0
  6
CENTER
 10
-199.000153
 20
-24.000061
 11
-199.000153
 21
-211.000061
  0
LINE
  8
0
 10
-339.000153
 20
-45.000061
 11
-339.000153
 21
-82.000061
  0
LINE
  8
0
 10
-59.000153
 20
-45.000061
 11
-59.000153
 21
-82.000061
  0
LINE
  8
0
 10
-333.000153
 20
-39.000061
 11
-65.000153
 21
-39.000061
  0
LINE
  8
0
 10
-339.000153
 20
-45.000061
 11
-206.500153
 21
-45.000061
  0
LINE
  8
0
 10
-65.000153
 20
-39.000061
 11
-65.000153
 21
-45.000061
  0
LINE
  8
0
 10
-333.000153
 20
-39.000061
 11
-333.000153
 21
-45.000061
  0
LINE
  8
0
 10
-83.000122
 20
-54.690681
 11
-83.000122
 21
-59.309486
  0
LINE
  8
0
  6
CENTER
 10
-79.000153
 20
-44.500061
 11
-79.000153
 21
-69.500061
  0
LINE
  8
0
  6
CENTER
 10
-91.500153
 20
-57.000061
 11
-66.500153
 21
-57.000061
  0
LINE
  8
0
 10
-83.000191
 20
-59.309444
 11
-79.000191
 21
-61.618847
  0
LINE
  8
0
 10
-79.000130
 20
-61.618835
 11
-75.000130
 21
-59.309441
  0
LINE
  8
0
 10
-75.000183
 20
-59.309448
 11
-75.000183
 21
-54.690651
  0
LINE
  8
0
 10
-75.000175
 20
-54.690704
 11
-79.000183
 21
-52.381302
  0
LINE
  8
0
 10
-79.000114
 20
-52.381275
 11
-83.000122
 21
-54.690678
  0
LINE
  8
0
  6
CENTER
 10
-149.000153
 20
-57.000061
 11
-129.000153
 21
-57.000061
  0
LINE
  8
0
  6
CENTER
 10
-139.000153
 20
-47.000061
 11
-139.000153
 21
-67.000061
  0
LINE
  8
0
  6
CENTER
 10
-249.000153
 20
-57.000061
 11
-269.000153
 21
-57.000061
  0
LINE
  8
0
  6
CENTER
 10
-259.000153
 20
-47.000061
 11
-259.000153
 21
-67.000061
  0
LINE
  8
0
  6
CENTER
 10
-319.000153
 20
-44.500061
 11
-319.000153
 21
-69.500061
  0
LINE
  8
0
  6
CENTER
 10
-306.500153
 20
-57.000061
 11
-331.500153
 21
-57.000061
  0
LINE
  8
0
 10
-315.000153
 20
-59.309486
 11
-319.000153
 21
-61.618889
  0
LINE
  8
0
 10
-319.000122
 20
-52.381325
 11
-315.000122
 21
-54.690727
  0
LINE
  8
0
 10
-315.000183
 20
-54.690681
 11
-315.000183
 21
-59.309486
  0
LINE
  8
0
 10
-323.000122
 20
-59.309448
 11
-323.000122
 21
-54.690651
  0
LINE
  8
0
 10
-323.000061
 20
-54.690701
 11
-319.000092
 21
-52.381313
  0
LINE
  8
0
 10
-319.000153
 20
-61.618843
 11
-323.000183
 21
-59.309444
  0
LINE
  8
0
  6
CENTER
 10
-469.000153
 20
-92.000061
 11
-340.018768
 21
-92.000061
  0
LINE
  8
0
 10
-347.000153
 20
-84.000061
 11
-347.000153
 21
-100.000061
  0
LINE
  8
0
 10
-357.000153
 20
-84.000061
 11
-347.000153
 21
-84.000061
  0
LINE
  8
0
 10
-357.000153
 20
-100.000061
 11
-347.000153
 21
-100.000061
  0
LINE
  8
0
  6
CENTER
 10
-469.000153
 20
-188.000061
 11
-340.018768
 21
-188.000061
  0
LINE
  8
0
 10
-357.000153
 20
-180.000061
 11
-347.000153
 21
-180.000061
  0
LINE
  8
0
 10
-347.000153
 20
-196.000061
 11
-347.000153
 21
-180.000061
  0
LINE
  8
0
 10
-357.000153
 20
-196.000061
 11
-347.000153
 21
-196.000061
  0
LINE
  8
0
 10
260.999847
 20
-74.000061
 11
260.999847
 21
-206.000061
  0
LINE
  8
0
 10
158.999847
 20
-196.000061
 11
148.999847
 21
-196.000061
  0
LINE
  8
0
 10
260.999847
 20
-74.000061
 11
210.999847
 21
-74.000061
  0
LINE
  8
0
 10
260.999847
 20
-206.000061
 11
210.999847
 21
-206.000061
  0
LINE
  8
0
 10
210.999847
 20
-74.000061
 11
210.999847
 21
-206.000061
  0
LINE
  8
0
 10
158.999847
 20
-74.000061
 11
158.999847
 21
-206.000061
  0
LINE
  8
0
 10
148.999847
 20
-196.000061
 11
148.999847
 21
-180.000061
  0
LINE
  8
0
  6
CENTER
 10
235.999847
 20
-117.500061
 11
235.999847
 21
-162.500061
  0
LINE
  8
0
  6
CENTER
 10
270.999847
 20
-92.000061
 11
142.018463
 21
-92.000061
  0
LINE
  8
0
 10
148.999847
 20
-84.000061
 11
148.999847
 21
-100.000061
  0
LINE
  8
0
 10
158.999847
 20
-84.000061
 11
148.999847
 21
-84.000061
  0
LINE
  8
0
 10
158.999847
 20
-100.000061
 11
148.999847
 21
-100.000061
  0
LINE
  8
0
  6
CENTER
 10
270.999847
 20
-188.000061
 11
142.018463
 21
-188.000061
  0
LINE
  8
0
 10
158.999847
 20
-180.000061
 11
148.999847
 21
-180.000061
  0
LINE
  8
0
 10
-339.000153
 20
-82.000061
 11
-59.000153
 21
-82.000061
  0
LINE
  8
0
 10
-339.000153
 20
-86.000061
 11
-59.000153
 21
-86.000061
  0
LINE
  8
0
 10
-57.000153
 20
-84.000061
 11
158.999847
 21
-84.000061
  0
LINE
  8
0
  6
CENTER
 10
0.999847
 20
-24.000061
 11
0.999847
 21
-211.000061
  0
LINE
  8
0
 10
-407.000153
 20
-74.000061
 11
-407.000153
 21
-206.000061
  0
LINE
  8
0
 10
-407.000153
 20
-206.000061
 11
-357.000153
 21
-206.000061
  0
LINE
  8
0
 10
-407.000153
 20
-74.000061
 11
-357.000153
 21
-74.000061
  0
LINE
  8
0
 10
208.999847
 20
-74.000061
 11
208.999847
 21
-206.000061
  0
LINE
  8
0
 10
208.999847
 20
-206.000061
 11
158.999847
 21
-206.000061
  0
LINE
  8
0
 10
208.999847
 20
-74.000061
 11
158.999847
 21
-74.000061
  0
LINE
  8
0
 10
-191.500153
 20
-45.000061
 11
-191.500153
 21
-60.500061
  0
LINE
  8
0
 10
-191.500153
 20
-45.000061
 11
-59.000153
 21
-45.000061
  0
LINE
  8
0
 10
-206.500153
 20
-45.000061
 11
-206.500153
 21
-60.500061
  0
LINE
  8
0
 10
-459.000153
 20
196.000046
 11
-459.000153
 21
64.000046
  0
LINE
  8
0
  6
CENTER
 10
-474.000153
 20
130.000046
 11
275.999847
 21
130.000046
  0
LINE
  8
0
 10
-459.000153
 20
196.000046
 11
-409.000153
 21
196.000046
  0
LINE
  8
0
 10
-459.000153
 20
64.000046
 11
-409.000153
 21
64.000046
  0
LINE
  8
0
 10
-409.000153
 20
196.000046
 11
-409.000153
 21
64.000046
  0
LINE
  8
0
 10
-357.000153
 20
196.000046
 11
-357.000153
 21
64.000046
  0
LINE
  8
0
 10
-357.000153
 20
74.000046
 11
158.999847
 21
74.000046
  0
LINE
  8
0
  6
CENTER
 10
-199.000153
 20
195.874741
 11
-199.000153
 21
64.000046
  0
LINE
  8
0
  6
CENTER
 10
-469.000153
 20
178.000046
 11
-340.018768
 21
178.000046
  0
LINE
  8
0
 10
-347.000153
 20
186.000046
 11
-347.000153
 21
170.000046
  0
LINE
  8
0
 10
-357.000153
 20
186.000046
 11
-347.000153
 21
186.000046
  0
LINE
  8
0
 10
-357.000153
 20
170.000046
 11
-347.000153
 21
170.000046
  0
LINE
  8
0
  6
CENTER
 10
-469.000153
 20
82.000046
 11
-340.018768
 21
82.000046
  0
LINE
  8
0
 10
-357.000153
 20
90.000046
 11
-347.000153
 21
90.000046
  0
LINE
  8
0
 10
-347.000153
 20
74.000046
 11
-347.000153
 21
90.000046
  0
LINE
  8
0
 10
-357.000153
 20
74.000046
 11
-347.000153
 21
74.000046
  0
LINE
  8
0
 10
260.999847
 20
196.000046
 11
260.999847
 21
64.000046
  0
LINE
  8
0
 10
158.999847
 20
74.000046
 11
148.999847
 21
74.000046
  0
LINE
  8
0
 10
260.999847
 20
196.000046
 11
210.999847
 21
196.000046
  0
LINE
  8
0
 10
260.999847
 20
64.000046
 11
210.999847
 21
64.000046
  0
LINE
  8
0
 10
210.999847
 20
196.000046
 11
210.999847
 21
64.000046
  0
LINE
  8
0
 10
158.999847
 20
196.000046
 11
158.999847
 21
64.000046
  0
LINE
  8
0
 10
148.999847
 20
74.000046
 11
148.999847
 21
90.000046
  0
LINE
  8
0
  6
CENTER
 10
270.999847
 20
178.000046
 11
142.018463
 21
178.000046
  0
LINE
  8
0
 10
148.999847
 20
186.000046
 11
148.999847
 21
170.000046
  0
LINE
  8
0
 10
158.999847
 20
186.000046
 11
148.999847
 21
186.000046
  0
LINE
  8
0
 10
158.999847
 20
170.000046
 11
148.999847
 21
170.000046
  0
LINE
  8
0
  6
CENTER
 10
270.999847
 20
82.000046
 11
142.018463
 21
82.000046
  0
LINE
  8
0
 10
158.999847
 20
90.000046
 11
148.999847
 21
90.000046
  0
LINE
  8
0
  6
CENTER
 10
235.999847
 20
50.000046
 11
235.999847
 21
210.000046
  0
LINE
  8
0
  6
CENTER
 10
-79.000153
 20
97.256332
 11
-79.000153
 21
160.114609
  0
LINE
  8
0
 10
-87.000153
 20
104.000046
 11
-71.000153
 21
104.000046
  0
LINE
  8
0
 10
-87.000153
 20
104.000046
 11
-87.000153
 21
114.000046
  0
LINE
  8
0
 10
-71.000153
 20
104.000046
 11
-71.000153
 21
114.000046
  0
LINE
  8
0
 10
-84.000153
 20
154.000046
 11
-74.000153
 21
154.000046
  0
LINE
  8
0
 10
-84.000153
 20
152.000046
 11
-84.000153
 21
154.000046
  0
LINE
  8
0
 10
-83.188141
 20
152.000046
 11
-83.188141
 21
154.000046
  0
LINE
  8
0
 10
-74.812164
 20
152.000046
 11
-74.812164
 21
154.000046
  0
LINE
  8
0
 10
-74.000153
 20
152.000046
 11
-74.000153
 21
154.000046
  0
LINE
  8
0
  6
DASHED
 10
221.499847
 20
66.500046
 11
250.499847
 21
66.500046
  0
LINE
  8
0
  6
DASHED
 10
225.736115
 20
81.500046
 11
246.263580
 21
81.500046
  0
LINE
  8
0
  6
DASHED
 10
250.499847
 20
64.000046
 11
250.499847
 21
66.500046
  0
LINE
  8
0
  6
DASHED
 10
225.267365
 20
66.500023
 11
225.736176
 21
81.500023
  0
LINE
  8
0
  6
DASHED
 10
226.428909
 20
66.499893
 11
227.210220
 21
91.499893
  0
LINE
  8
0
  6
DASHED
 10
245.570007
 20
66.499863
 11
244.788696
 21
91.499863
  0
LINE
  8
0
  6
DASHED
 10
246.732513
 20
66.500053
 11
246.263702
 21
81.500053
  0
LINE
  8
0
 10
-357.000153
 20
186.000046
 11
158.999847
 21
186.000046
  0
LINE
  8
0
 10
-357.000153
 20
115.167648
 11
-341.000153
 21
115.167648
  0
LINE
  8
0
 10
-357.000153
 20
144.832443
 11
-341.000153
 21
144.832443
  0
LINE
  8
0
 10
-339.000153
 20
146.000046
 11
-339.000153
 21
114.000046
  0
LINE
  8
0
 10
-333.000153
 20
140.000046
 11
-333.000153
 21
120.000046
  0
LINE
  8
0
 10
-59.000153
 20
146.000046
 11
-59.000153
 21
114.000046
  0
LINE
  8
0
 10
-65.000153
 20
140.000046
 11
-65.000153
 21
120.000046
  0
LINE
  8
0
 10
-339.000153
 20
146.000046
 11
-59.000153
 21
146.000046
  0
LINE
  8
0
 10
-339.000153
 20
114.000046
 11
-59.000153
 21
114.000046
  0
LINE
  8
0
 10
-339.000153
 20
112.000046
 11
-327.000153
 21
112.000046
  0
LINE
  8
0
 10
-339.000153
 20
148.000046
 11
-327.500153
 21
148.000046
  0
LINE
  8
0
 10
-341.000153
 20
146.000046
 11
-341.000153
 21
114.000046
  0
LINE
  8
0
 10
-57.000153
 20
146.000046
 11
-57.000153
 21
114.000046
  0
LINE
  8
0
 10
-57.000153
 20
115.167648
 11
158.999847
 21
115.167648
  0
LINE
  8
0
 10
-57.000153
 20
144.832443
 11
158.999847
 21
144.832443
  0
LINE
  8
0
 10
-339.000153
 20
140.000046
 11
-59.000153
 21
140.000046
  0
LINE
  8
0
 10
-339.000153
 20
120.000046
 11
-59.000153
 21
120.000046
  0
LINE
  8
0
  6
CENTER
 10
-319.000153
 20
97.256332
 11
-319.000153
 21
160.114609
  0
LINE
  8
0
 10
-327.000153
 20
104.000046
 11
-311.000153
 21
104.000046
  0
LINE
  8
0
 10
-327.000153
 20
104.000046
 11
-327.000153
 21
114.000046
  0
LINE
  8
0
 10
-311.000153
 20
104.000046
 11
-311.000153
 21
114.000046
  0
LINE
  8
0
 10
-327.500153
 20
152.000046
 11
-310.500153
 21
152.000046
  0
LINE
  8
0
 10
-324.000153
 20
154.000046
 11
-314.000153
 21
154.000046
  0
LINE
  8
0
 10
-324.000153
 20
152.000046
 11
-324.000153
 21
154.000046
  0
LINE
  8
0
 10
-323.188141
 20
152.000046
 11
-323.188141
 21
154.000046
  0
LINE
  8
0
 10
-314.812164
 20
152.000046
 11
-314.812164
 21
154.000046
  0
LINE
  8
0
 10
-314.000153
 20
152.000046
 11
-314.000153
 21
154.000046
  0
LINE
  8
0
 10
-311.000153
 20
112.000046
 11
-87.000153
 21
112.000046
  0
LINE
  8
0
 10
-310.500153
 20
148.000046
 11
-87.500153
 21
148.000046
  0
LINE
  8
0
 10
-310.500153
 20
152.000046
 11
-310.500153
 21
146.000046
  0
LINE
  8
0
 10
-327.500153
 20
152.000046
 11
-327.500153
 21
146.000046
  0
LINE
  8
0
 10
-319.000153
 20
151.240829
 11
-319.000153
 21
146.759262
  0
LINE
  8
0
 10
-70.500153
 20
152.000046
 11
-70.500153
 21
146.000046
  0
LINE
  8
0
 10
-70.500153
 20
152.000046
 11
-87.500153
 21
152.000046
  0
LINE
  8
0
 10
-87.500153
 20
152.000046
 11
-87.500153
 21
146.000046
  0
LINE
  8
0
 10
-79.000153
 20
151.240829
 11
-79.000153
 21
146.759262
  0
LINE
  8
0
 10
-70.500153
 20
148.000046
 11
-59.000153
 21
148.000046
  0
LINE
  8
0
 10
-71.000153
 20
112.000046
 11
-59.000153
 21
112.000046
  0
LINE
  8
0
  6
CENTER
 10
-259.000153
 20
105.612396
 11
-259.000153
 21
152.622971
  0
LINE
  8
0
  6
CENTER
 10
-139.000153
 20
105.612396
 11
-139.000153
 21
152.622971
  0
LINE
  8
0
  6
DASHED
 10
-424.429565
 20
66.499878
 11
-425.210876
 21
91.499878
  0
LINE
  8
0
  6
DASHED
 10
-444.263885
 20
81.500046
 11
-423.736420
 21
81.500046
  0
LINE
  8
0
  6
CENTER
 10
-434.000153
 20
50.000046
 11
-434.000153
 21
210.000046
  0
LINE
  8
0
  6
DASHED
 10
-423.267700
 20
66.500046
 11
-423.736511
 21
81.500046
  0
LINE
  8
0
  6
DASHED
 10
-443.570679
 20
66.499878
 11
-442.789368
 21
91.499878
  0
LINE
  8
0
  6
DASHED
 10
-444.732697
 20
66.500046
 11
-444.263885
 21
81.500046
  0
LINE
  8
0
  6
DASHED
 10
-448.500153
 20
66.500046
 11
-419.500153
 21
66.500046
  0
LINE
  8
0
  6
DASHED
 10
-419.500153
 20
64.000046
 11
-419.500153
 21
66.500046
  0
LINE
  8
0
  6
CENTER
 10
0.999847
 20
195.874741
 11
0.999847
 21
64.000046
  0
LINE
  8
0
 10
-407.000153
 20
196.000046
 11
-407.000153
 21
64.000046
  0
LINE
  8
0
 10
-407.000153
 20
64.000046
 11
-357.000153
 21
64.000046
  0
LINE
  8
0
 10
-407.000153
 20
196.000046
 11
-357.000153
 21
196.000046
  0
LINE
  8
0
 10
208.999847
 20
196.000046
 11
208.999847
 21
64.000046
  0
LINE
  8
0
 10
208.999847
 20
64.000046
 11
158.999847
 21
64.000046
  0
LINE
  8
0
 10
208.999847
 20
196.000046
 11
158.999847
 21
196.000046
  0
LINE
  8
0
 10
-191.500153
 20
120.000046
 11
-191.500153
 21
114.000046
  0
LINE
  8
0
 10
-206.500153
 20
120.000046
 11
-206.500153
 21
114.000046
  0
LINE
  8
0
 10
-191.500153
 20
140.000046
 11
-191.500153
 21
146.000046
  0
LINE
  8
0
 10
-206.500153
 20
140.000046
 11
-206.500153
 21
146.000046
  0
LINE
  8
0
 10
330.000000
 20
-92.000000
 11
330.000000
 21
-188.000000
  0
LINE
  8
0
 10
462.000000
 20
-92.000000
 11
462.000000
 21
-188.000000
  0
LINE
  8
0
 10
348.000000
 20
-206.000000
 11
444.000000
 21
-206.000000
  0
LINE
  8
0
 10
348.000000
 20
-74.000000
 11
444.000000
 21
-74.000000
  0
LINE
  8
0
  6
CENTER
 10
396.000000
 20
-24.000000
 11
396.000000
 21
-220.000000
  0
LINE
  8
0
  6
CENTER
 10
316.000000
 20
-140.000000
 11
476.000000
 21
-140.000000
  0
LINE
  8
0
 10
357.815094
 20
-92.000168
 11
352.907623
 21
-100.500229
  0
LINE
  8
0
 10
352.907562
 20
-83.499939
 11
357.815033
 21
-91.999939
  0
LINE
  8
0
 10
343.092560
 20
-83.500031
 11
352.907562
 21
-83.500031
  0
LINE
  8
0
 10
338.184357
 20
-91.999710
 11
343.091888
 21
-83.499649
  0
LINE
  8
0
 10
343.091858
 20
-100.500252
 11
338.184326
 21
-92.000214
  0
LINE
  8
0
 10
352.907471
 20
-100.500061
 11
343.092468
 21
-100.500061
  0
LINE
  8
0
  6
CENTER
 10
333.000000
 20
-92.000000
 11
363.000000
 21
-92.000000
  0
LINE
  8
0
  6
CENTER
 10
348.000000
 20
-77.000000
 11
348.000000
 21
-107.000000
  0
LINE
  8
0
 10
357.814331
 20
-188.000122
 11
352.906799
 21
-179.500031
  0
LINE
  8
0
 10
352.907532
 20
-196.500000
 11
357.815002
 21
-187.999985
  0
LINE
  8
0
 10
343.092621
 20
-196.499969
 11
352.907623
 21
-196.499969
  0
LINE
  8
0
 10
338.184875
 20
-187.999985
 11
343.092468
 21
-196.500046
  0
LINE
  8
0
 10
343.091705
 20
-179.499634
 11
338.184174
 21
-187.999695
  0
LINE
  8
0
 10
352.907471
 20
-179.499939
 11
343.092468
 21
-179.499939
  0
LINE
  8
0
  6
CENTER
 10
333.000000
 20
-188.000000
 11
363.000000
 21
-188.000000
  0
LINE
  8
0
  6
CENTER
 10
348.000000
 20
-203.000000
 11
348.000000
 21
-173.000000
  0
LINE
  8
0
 10
434.184174
 20
-92.000320
 11
439.091705
 21
-100.500359
  0
LINE
  8
0
 10
439.092560
 20
-83.500061
 11
434.185089
 21
-92.000061
  0
LINE
  8
0
 10
448.907440
 20
-83.500031
 11
439.092438
 21
-83.500031
  0
LINE
  8
0
 10
453.815155
 20
-91.999947
 11
448.907562
 21
-83.499886
  0
LINE
  8
0
 10
448.906525
 20
-100.499664
 11
453.814026
 21
-91.999657
  0
LINE
  8
0
 10
439.092529
 20
-100.500076
 11
448.907532
 21
-100.500076
  0
LINE
  8
0
  6
CENTER
 10
459.000000
 20
-92.000000
 11
429.000000
 21
-92.000000
  0
LINE
  8
0
  6
CENTER
 10
444.000000
 20
-77.000000
 11
444.000000
 21
-107.000000
  0
LINE
  8
0
 10
434.184082
 20
-187.999542
 11
439.091614
 21
-179.499481
  0
LINE
  8
0
 10
439.092377
 20
-196.500061
 11
434.184906
 21
-188.000000
  0
LINE
  8
0
 10
448.907379
 20
-196.499969
 11
439.092377
 21
-196.499969
  0
LINE
  8
0
 10
453.815399
 20
-188.000122
 11
448.907806
 21
-196.500183
  0
LINE
  8
0
 10
448.907318
 20
-179.499908
 11
453.814880
 21
-187.999985
  0
LINE
  8
0
 10
439.092529
 20
-179.499908
 11
448.907532
 21
-179.499908
  0
LINE
  8
0
  6
CENTER
 10
459.000000
 20
-188.000000
 11
429.000000
 21
-188.000000
  0
LINE
  8
0
  6
CENTER
 10
444.000000
 20
-203.000000
 11
444.000000
 21
-173.000000
  0
LINE
  8
0
 10
386.000000
 20
-39.000000
 11
406.000000
 21
-39.000000
  0
LINE
  8
0
 10
380.000000
 20
-45.000000
 11
412.000000
 21
-45.000000
  0
LINE
  8
0
  6
CENTER
 10
363.256287
 20
-57.000000
 11
426.114563
 21
-57.000000
  0
LINE
  8
0
 10
406.000000
 20
-39.000000
 11
406.000000
 21
-74.000000
  0
LINE
  8
0
 10
386.000000
 20
-39.000000
 11
386.000000
 21
-74.000000
  0
LINE
  8
0
 10
380.000000
 20
-45.000000
 11
380.000000
 21
-74.000000
  0
LINE
  8
0
 10
370.000000
 20
-49.000000
 11
370.000000
 21
-65.000000
  0
LINE
  8
0
 10
370.000000
 20
-49.000000
 11
380.000000
 21
-49.000000
  0
LINE
  8
0
 10
370.000000
 20
-65.000000
 11
380.000000
 21
-65.000000
  0
LINE
  8
0
 10
418.000000
 20
-48.500000
 11
418.000000
 21
-65.500031
  0
LINE
  8
0
 10
412.759155
 20
-61.907562
 11
417.240784
 21
-61.907562
  0
LINE
  8
0
 10
412.759216
 20
-52.092514
 11
417.240784
 21
-52.092514
  0
LINE
  8
0
 10
412.759216
 20
-47.184998
 11
417.240784
 21
-47.184998
  0
LINE
  8
0
 10
417.240540
 20
-47.185165
 11
417.999756
 21
-48.500168
  0
LINE
  8
0
 10
417.240356
 20
-66.814888
 11
417.999573
 21
-65.499886
  0
LINE
  8
0
 10
412.759277
 20
-66.815002
 11
417.240784
 21
-66.815002
  0
LINE
  8
0
 10
412.758759
 20
-47.184883
 11
411.999542
 21
-48.499886
  0
LINE
  8
0
 10
412.758972
 20
-66.815140
 11
411.999756
 21
-65.500137
  0
LINE
  8
0
 10
420.000000
 20
-52.000000
 11
420.000000
 21
-62.000000
  0
LINE
  8
0
 10
418.000000
 20
-52.000000
 11
420.000000
 21
-52.000000
  0
LINE
  8
0
 10
418.000000
 20
-52.811996
 11
420.000000
 21
-52.811996
  0
LINE
  8
0
 10
418.000000
 20
-61.188004
 11
420.000000
 21
-61.188004
  0
LINE
  8
0
 10
418.000000
 20
-62.000000
 11
420.000000
 21
-62.000000
  0
LINE
  8
0
  6
DASHED
 10
332.500000
 20
-125.500000
 11
332.500000
 21
-154.500000
  0
LINE
  8
0
  6
DASHED
 10
347.500000
 20
-129.736267
 11
347.500000
 21
-150.263733
  0
LINE
  8
0
  6
DASHED
 10
330.000000
 20
-125.500000
 11
332.500000
 21
-125.500000
  0
LINE
  8
0
  6
DASHED
 10
330.000000
 20
-154.500000
 11
332.500000
 21
-154.500000
  0
LINE
  8
0
  6
DASHED
 10
332.500000
 20
-129.267471
 11
347.500000
 21
-129.736252
  0
LINE
  8
0
  6
DASHED
 10
332.499878
 20
-130.429459
 11
357.499878
 21
-131.210754
  0
LINE
  8
0
  6
DASHED
 10
332.499847
 20
-149.570526
 11
357.499847
 21
-148.789230
  0
LINE
  8
0
  6
DASHED
 10
332.500000
 20
-150.732483
 11
347.500000
 21
-150.263702
  0
LINE
  8
0
 10
412.000000
 20
-45.000000
 11
412.000000
 21
-74.000000
  0
LINE
  8
0
 10
394.232239
 20
-58.767773
 11
397.767792
 21
-55.232239
  0
LINE
  8
0
 10
394.232269
 20
-55.232258
 11
397.767822
 21
-58.767792
  0
LINE
  8
0
 10
230.761261
 20
-130.926239
 11
180.574417
 21
-44.000034
  0
LINE
  8
0
 10
230.761276
 20
-130.926254
 11
228.820129
 21
-123.681801
  0
LINE
  8
0
 10
230.761246
 20
-130.926239
 11
225.457947
 21
-125.622932
  0
LINE
  8
0
 10
106.417236
 20
-44.000034
 11
180.574417
 21
-44.000034
  0
LINE
  8
0
 10
-199.000000
 20
-266.000000
 11
1.000000
 21
-266.000000
  0
LINE
  8
0
 10
-199.000153
 20
-211.000061
 11
-199.000153
 21
-270.000000
  0
LINE
  8
0
 10
0.999847
 20
-211.000061
 11
0.999847
 21
-270.000000
  0
LINE
  8
0
 10
-198.999985
 20
-266.000000
 11
-191.755539
 21
-264.058838
  0
LINE
  8
0
 10
-6.244437
 20
-267.941132
 11
1.000007
 21
-266.000000
  0
LINE
  8
0
 10
-6.244448
 20
-264.058868
 11
0.999996
 21
-266.000000
  0
LINE
  8
0
 10
-199.000000
 20
-266.000000
 11
-191.755554
 21
-267.941132
  0
ARC
  8
0
 10
461.595520
 20
-328.215485
 40
1.564059
 50
291.688049
 51
0.000000
  0
ARC
  8
0
 10
386.130402
 20
-332.404785
 40
3.128082
 50
0.000000
 51
90.000000
  0
ARC
  8
0
 10
411.937195
 20
-349.218353
 40
3.128082
 50
270.000000
 51
0.000000
  0
ARC
  8
0
 10
410.373047
 20
-333.968781
 40
4.692139
 50
0.000000
 51
90.000000
  0
ARC
  8
0
 10
438.916931
 20
-334.903870
 40
3.128100
 50
294.999969
 51
0.000000
  0
ARC
  8
0
 10
438.916931
 20
-332.404785
 40
3.128082
 50
0.000000
 51
90.000000
  0
ARC
  8
0
 10
463.159729
 20
-329.276672
 40
4.692149
 50
291.688202
 51
0.000000
  0
ARC
  8
0
 10
-199.000153
 20
-60.500061
 40
7.500000
 50
179.999969
 51
0.000000
  0
CIRCLE
  8
0
 10
235.999847
 20
-140.000061
 40
9.315500
  0
CIRCLE
  8
0
 10
-434.000153
 20
-140.000061
 40
9.315500
  0
CIRCLE
  8
0
 10
-434.000153
 20
-140.000061
 40
10.477500
  0
CIRCLE
  8
0
 10
-434.000153
 20
-140.000061
 40
14.500000
  0
CIRCLE
  8
0
 10
-139.000153
 20
-57.000061
 40
5.500000
  0
CIRCLE
  8
0
 10
-79.000153
 20
-57.000061
 40
8.000000
  0
CIRCLE
  8
0
 10
-259.000153
 20
-57.000061
 40
5.500000
  0
CIRCLE
  8
0
 10
-319.000153
 20
-57.000061
 40
8.000000
  0
CIRCLE
  8
0
 10
235.999847
 20
-140.000061
 40
14.500000
  0
ARC
  8
0
 10
-339.000153
 20
-84.000061
 40
2.000000
 50
90.000000
 51
270.000000
  0
ARC
  8
0
 10
-59.000153
 20
-84.000061
 40
2.000000
 50
270.000000
 51
90.000000
  0
CIRCLE
  8
0
 10
235.999847
 20
-140.000061
 40
10.477500
  0
ARC
  8
0
 10
-83.250153
 20
139.724960
 40
12.275091
 50
69.743050
 51
110.256859
  0
ARC
  8
0
 10
-83.250153
 20
158.275131
 40
12.275101
 50
249.743149
 51
290.256958
  0
ARC
  8
0
 10
-339.000153
 20
114.000046
 40
2.000000
 50
180.000000
 51
270.000000
  0
ARC
  8
0
 10
-339.000153
 20
146.000046
 40
2.000000
 50
90.000000
 51
180.000000
  0
ARC
  8
0
 10
-59.000153
 20
146.000046
 40
2.000000
 50
0.000000
 51
90.000000
  0
ARC
  8
0
 10
-59.000153
 20
114.000046
 40
2.000000
 50
270.000000
 51
0.000000
  0
ARC
  8
0
 10
-323.250153
 20
139.724960
 40
12.275101
 50
69.743141
 51
110.256859
  0
ARC
  8
0
 10
-314.750153
 20
139.724960
 40
12.275101
 50
69.743141
 51
110.256859
  0
ARC
  8
0
 10
-323.250153
 20
158.275131
 40
12.275097
 50
249.742981
 51
290.256866
  0
ARC
  8
0
 10
-314.750153
 20
158.275131
 40
12.275097
 50
249.742981
 51
290.256866
  0
ARC
  8
0
 10
-74.750153
 20
158.275131
 40
12.275101
 50
249.743149
 51
290.256958
  0
ARC
  8
0
 10
-74.750153
 20
139.724960
 40
12.275091
 50
69.743050
 51
110.256859
  0
ARC
  8
0
 10
416.344849
 20
-64.361237
 40
4.344831
 50
146.227173
 51
214.384949
  0
CIRCLE
  8
0
 10
396.000000
 20
-57.000000
 40
5.000000
  0
ARC
  8
0
 10
348.000000
 20
-188.000000
 40
18.000000
 50
180.000000
 51
270.000000
  0
ARC
  8
0
 10
348.000000
 20
-92.000000
 40
18.000000
 50
90.000000
 51
179.999969
  0
ARC
  8
0
 10
444.000000
 20
-92.000000
 40
18.000000
 50
0.000000
 51
90.000000
  0
ARC
  8
0
 10
444.000000
 20
-188.000000
 40
18.000000
 50
270.000000
 51
0.000000
  0
CIRCLE
  8
0
 10
348.000000
 20
-92.000000
 40
5.000000
  0
CIRCLE
  8
0
 10
348.000000
 20
-92.000000
 40
4.188000
  0
CIRCLE
  8
0
 10
348.000000
 20
-92.000000
 40
10.000000
  0
CIRCLE
  8
0
 10
348.000000
 20
-188.000000
 40
5.000000
  0
CIRCLE
  8
0
 10
348.000000
 20
-188.000000
 40
4.188000
  0
CIRCLE
  8
0
 10
348.000000
 20
-188.000000
 40
10.000000
  0
CIRCLE
  8
0
 10
444.000000
 20
-92.000000
 40
5.000000
  0
CIRCLE
  8
0
 10
444.000000
 20
-92.000000
 40
4.188000
  0
CIRCLE
  8
0
 10
444.000000
 20
-92.000000
 40
10.000000
  0
CIRCLE
  8
0
 10
444.000000
 20
-188.000000
 40
5.000000
  0
CIRCLE
  8
0
 10
444.000000
 20
-188.000000
 40
4.188000
  0
CIRCLE
  8
0
 10
444.000000
 20
-188.000000
 40
10.000000
  0
ARC
  8
0
 10
413.655151
 20
-49.638763
 40
4.344831
 50
326.227173
 51
34.384953
  0
ARC
  8
0
 10
401.759399
 20
-57.000046
 40
16.240599
 50
342.411652
 51
17.588377
  0
ARC
  8
0
 10
413.655151
 20
-64.361237
 40
4.344846
 50
325.614960
 51
33.772789
  0
ARC
  8
0
 10
428.240601
 20
-57.000046
 40
16.240604
 50
162.411591
 51
197.588318
  0
ARC
  8
0
 10
416.344849
 20
-49.638763
 40
4.344844
 50
145.615005
 51
213.772827
  0
TEXT
  8
0
 10
320.176147
 20
329.975403
 40
12.000000
  1
DATE : NOV ,1991
 50
0.000000
 41
1.052631
 51
0.000000
  7
STANDARD
  0
TEXT
  8
0
 10
-520.015564
 20
328.175385
 40
14.000000
  1
RODLESS CYLINDER
 50
0.000000
 41
0.956938
 51
0.000000
  7
STANDARD
  0
TEXT
  8
0
 10
-494.999268
 20
268.779816
 40
14.000000
  1
MODEL : ORC 80xSt(200)
 50
0.000000
 41
1.052632
 51
0.000000
  7
STANDARD
  0
TEXT
  8
0
 10
107.745850
 20
-44.500023
 40
10.000000
  1
2-Rc1/2
 50
0.000000
 41
1.052632
 51
0.000000
  7
STANDARD
  0
TEXT
  8
0
 10
-130.178574
 20
-264.000000
 40
10.000000
  1
STROKE
 50
0.000000
 41
1.052632
 51
0.000000
  7
STANDARD
  0
ENDSEC
  0
EOF
