  0
SECTION
  2
HEADER
  0
ENDSEC
  0
SECTION
  2
TABLES
  0
TABLE
  2
LTYPE
 70
     4
  0
LTYPE
  2
CONTINUOUS
 70
    64
  3
Solid line
 72
    65
 73
     0
 40
0.000000
  0
LTYPE
  2
DASHED
 70
    64
  3
__ __ __ __ __ __ __ __ __ __ __ __ __ __ __
 72
    65
 73
     2
 40
3.500000
 49
2.000000
 49
-1.500000
  0
LTYPE
  2
CENTER
 70
    64
  3
____ _ ____ _ ____ _ ____ _ ____ _ ____ _ ____
 72
    65
 73
     4
 40
17.500000
 49
13.000000
 49
-1.500000
 49
1.500000
 49
-1.500000
  0
LTYPE
  2
PHANTOM
 70
    64
  3
_____ _ _ _____ _ _ _____ _ _ _____ _ _ ____  
 72
    65
 73
     6
 40
15.500000
 49
8.000000
 49
-1.500000
 49
1.500000
 49
-1.500000
 49
1.500000
 49
-1.500000
  0
LTYPE
  2
DASHED1
 70
    64
  3
__ __ __ __ __ __ __ __ __ __ __ __ __ __ __
 72
    65
 73
     2
 40
1.500000
 49
1.000000
 49
-0.500000
  0
LTYPE
  2
DASHED2
 70
    64
  3
__ __ __ __ __ __ __ __ __ __ __ __ __ __ __
 72
    65
 73
     2
 40
3.500000
 49
2.500000
 49
-1.000000
  0
LTYPE
  2
DASHED3
 70
    64
  3
__ __ __ __ __ __ __ __ __ __ __ __ __ __ __
 72
    65
 73
     2
 40
6.000000
 49
4.000000
 49
-2.000000
  0
LTYPE
  2
DASHED4
 70
    64
  3
__ __ __ __ __ __ __ __ __ __ __ __ __ __ __
 72
    65
 73
     2
 40
12.000000
 49
10.000000
 49
-2.000000
  0
LTYPE
  2
DASHED5
 70
    64
  3
__ __ __ __ __ __ __ __ __ __ __ __ __ __ __
 72
    65
 73
     2
 40
17.000000
 49
15.000000
 49
-2.000000
  0
LTYPE
  2
DASHED6
 70
    64
  3
__ __ __ __ __ __ __ __ __ __ __ __ __ __ __
 72
    65
 73
     2
 40
29.000000
 49
27.000000
 49
-2.000000
  0
LTYPE
  2
PHANTOM1
 70
    64
  3
_____ _ _ _____ _ _ _____ _ _ _____ _ _ ____  
 72
    65
 73
     6
 40
31.000000
 49
25.000000
 49
-1.500000
 49
1.000000
 49
-1.000000
 49
1.000000
 49
-1.500000
  0
LTYPE
  2
PHANTOM2
 70
    64
  3
_____ _ _ _____ _ _ _____ _ _ _____ _ _ ____  
 72
    65
 73
     6
 40
36.000000
 49
27.000000
 49
-1.500000
 49
2.500000
 49
-1.000000
 49
2.500000
 49
-1.500000
  0
LTYPE
  2
PHANTOM3
 70
    64
  3
_____ _ _ _____ _ _ _____ _ _ _____ _ _ ____  
 72
    65
 73
     6
 40
78.000000
 49
64.000000
 49
-2.000000
 49
4.000000
 49
-2.000000
 49
4.000000
 49
-2.000000
  0
LTYPE
  2
CENTER1
 70
    64
  3
____ _ ____ _ ____ _ ____ _ ____ _ ____ _ ____
 72
    65
 73
     4
 40
19.000000
 49
14.000000
 49
-1.000000
 49
3.000000
 49
-1.000000
  0
LTYPE
  2
CENTER2
 70
    64
  3
____ _ ____ _ ____ _ ____ _ ____ _ ____ _ ____
 72
    65
 73
     4
 40
28.500000
 49
25.000000
 49
-1.000000
 49
1.500000
 49
-1.000000
  0
LTYPE
  2
CENTER3
 70
    64
  3
____ _ ____ _ ____ _ ____ _ ____ _ ____ _ ____
 72
    65
 73
     4
 40
31.500000
 49
27.000000
 49
-1.000000
 49
2.500000
 49
-1.000000
  0
LTYPE
  2
CENTER4
 70
    64
  3
____ _ ____ _ ____ _ ____ _ ____ _ ____ _ ____
 72
    65
 73
     4
 40
50.000000
 49
45.000000
 49
-1.000000
 49
3.000000
 49
-1.000000
  0
LTYPE
  2
CENTER5
 70
    64
  3
____ _ ____ _ ____ _ ____ _ ____ _ ____ _ ____
 72
    65
 73
     4
 40
100.000000
 49
92.000000
 49
-2.000000
 49
4.000000
 49
-2.000000
  0
LTYPE
  2
SBK1
 70
    64
  3
______ _ _ _ ______ _ _ _ ______ _ _ _ _____  
 72
    65
 73
     8
 40
60.500000
 49
45.000000
 49
-2.000000
 49
2.500000
 49
-2.000000
 49
2.500000
 49
-2.000000
 49
2.500000
 49
-2.000000
  0
LTYPE
  2
SBK2
 70
    64
  3
______ _ _ _ ______ _ _ _ ______ _ _ _ _____  
 72
    65
 73
     8
 40
84.000000
 49
64.000000
 49
-2.000000
 49
4.000000
 49
-2.000000
 49
4.000000
 49
-2.000000
 49
4.000000
 49
-2.000000
  0
LTYPE
  2
STCH
 70
    64
  3
__ __ __ __ __ __ __ __ __ __ __ __ __ __ __
 72
    65
 73
     2
 40
3.000000
 49
1.000000
 49
-2.000000
  0
LTYPE
  2
MTCH
 70
    64
  3
_____ _ _ _____ _ _ _____ _ _ _____ _ _ ____  
 72
    65
 73
     6
 40
80.000000
 49
66.000000
 49
-2.000000
 49
4.000000
 49
-2.000000
 49
4.000000
 49
-2.000000
  0
ENDTAB
  0
TABLE
  2
LAYER
 70
     1
  0
LAYER
  2
0
 70
     0
 62
     7
  6
CONTINUOUS
  0
ENDTAB
  0
TABLE
  2
STYLE
 70
     1
  0
STYLE
  2
STANDARD
 70
     0
 40
0.000000
 41
1.000000
 50
0.000000
 71
     0
 42
0.200000
  3
txt
  4
BIGFONT
  0
ENDTAB
  0
TABLE
  2
VIEW
 70
     0
  0
ENDTAB
  0
ENDSEC
  0
SECTION
  2
BLOCKS
  0
ENDSEC
  0
SECTION
  2
ENTITIES
  0
POINT
  8
0
 10
-429.999969
 20
-140.000000
  0
POINT
  8
0
 10
-430.000000
 20
130.000000
  0
POINT
  8
0
 10
359.999969
 20
-139.999939
  0
POINT
  8
0
 10
200.000031
 20
-140.000000
  0
POINT
  8
0
 10
200.000000
 20
130.000000
  0
POINT
  8
0
 10
412.999969
 20
-139.999939
  0
LINE
  8
0
 10
308.764069
 20
-319.550690
 11
524.494446
 21
-319.550690
  0
LINE
  8
0
 10
-308.764069
 20
319.550598
 11
-308.764069
 21
360.000092
  0
LINE
  8
0
 10
-524.494446
 20
319.550598
 11
-308.764069
 21
319.550598
  0
LINE
  8
0
 10
-524.494446
 20
360.000092
 11
524.494446
 21
360.000092
  0
LINE
  8
0
 10
-524.494446
 20
-360.000092
 11
524.494446
 21
-360.000092
  0
LINE
  8
0
 10
524.494446
 20
360.000092
 11
524.494446
 21
-360.000092
  0
LINE
  8
0
 10
-524.494446
 20
-360.000092
 11
-524.494446
 21
360.000092
  0
LINE
  8
0
 10
308.764069
 20
-319.550690
 11
308.764069
 21
-360.000092
  0
LINE
  8
0
 10
308.764069
 20
360.000092
 11
308.764069
 21
319.550598
  0
LINE
  8
0
 10
308.764069
 20
319.550598
 11
524.494446
 21
319.550598
  0
LINE
  8
0
 10
365.406830
 20
-333.968781
 11
383.002350
 21
-333.968781
  0
LINE
  8
0
 10
365.406830
 20
-352.346344
 11
389.258545
 21
-352.346344
  0
LINE
  8
0
 10
365.406830
 20
-347.654236
 11
383.002350
 21
-347.654236
  0
LINE
  8
0
 10
365.406830
 20
-329.276642
 11
386.130402
 21
-329.276642
  0
LINE
  8
0
 10
383.002350
 20
-333.968781
 11
383.002350
 21
-347.654236
  0
LINE
  8
0
 10
389.258545
 20
-332.404785
 11
389.258545
 21
-352.346344
  0
LINE
  8
0
 10
365.406830
 20
-347.654236
 11
365.406830
 21
-352.346344
  0
LINE
  8
0
 10
415.065186
 20
-333.968781
 11
415.065186
 21
-349.218353
  0
LINE
  8
0
 10
392.777557
 20
-329.276642
 11
392.777557
 21
-333.968781
  0
LINE
  8
0
 10
415.690887
 20
-328.924835
 11
417.919678
 21
-328.924835
  0
LINE
  8
0
 10
415.690887
 20
-325.796661
 11
417.919678
 21
-325.796661
  0
LINE
  8
0
 10
417.919678
 20
-325.796661
 11
417.919678
 21
-328.924835
  0
LINE
  8
0
 10
415.690887
 20
-325.796661
 11
415.690887
 21
-328.924835
  0
LINE
  8
0
 10
414.517731
 20
-325.796661
 11
414.517731
 21
-328.924835
  0
LINE
  8
0
 10
399.891602
 20
-325.796661
 11
404.749207
 21
-325.796661
  0
LINE
  8
0
 10
403.816254
 20
-329.276215
 11
404.748657
 21
-325.796204
  0
LINE
  8
0
 10
398.959137
 20
-329.276611
 11
399.891571
 21
-325.796631
  0
LINE
  8
0
 10
403.816772
 20
-329.276642
 11
410.373047
 21
-329.276642
  0
LINE
  8
0
 10
402.559540
 20
-333.968781
 11
408.809052
 21
-333.968781
  0
LINE
  8
0
 10
405.374237
 20
-352.346344
 11
411.937195
 21
-352.346344
  0
LINE
  8
0
 10
404.116760
 20
-347.654144
 11
405.374054
 21
-352.346161
  0
LINE
  8
0
 10
404.116852
 20
-347.654236
 11
408.809052
 21
-347.654236
  0
LINE
  8
0
 10
397.635498
 20
-352.346588
 11
402.559692
 21
-333.968994
  0
LINE
  8
0
 10
392.777557
 20
-333.968781
 11
397.701874
 21
-333.968781
  0
LINE
  8
0
 10
392.777405
 20
-352.346161
 11
397.701782
 21
-333.968536
  0
LINE
  8
0
 10
392.777557
 20
-352.346344
 11
397.635284
 21
-352.346344
  0
LINE
  8
0
 10
392.777557
 20
-329.276642
 11
398.959137
 21
-329.276642
  0
LINE
  8
0
 10
408.809052
 20
-333.968781
 11
408.809052
 21
-347.654236
  0
LINE
  8
0
 10
412.288940
 20
-325.796661
 11
414.517731
 21
-325.796661
  0
LINE
  8
0
 10
412.288940
 20
-328.924835
 11
414.517731
 21
-328.924835
  0
LINE
  8
0
 10
412.288940
 20
-325.796661
 11
412.288940
 21
-328.924835
  0
LINE
  8
0
 10
426.404572
 20
-325.796661
 11
432.660675
 21
-325.796661
  0
LINE
  8
0
 10
436.061920
 20
-339.687103
 11
440.239410
 21
-337.739136
  0
LINE
  8
0
 10
432.660675
 20
-343.278320
 11
432.660675
 21
-352.346344
  0
LINE
  8
0
 10
426.404572
 20
-344.189972
 11
426.404572
 21
-352.346344
  0
LINE
  8
0
 10
432.660675
 20
-329.276642
 11
438.916931
 21
-329.276642
  0
LINE
  8
0
 10
432.660675
 20
-325.796661
 11
432.660675
 21
-329.276642
  0
LINE
  8
0
 10
426.404572
 20
-325.796661
 11
426.404572
 21
-329.276642
  0
LINE
  8
0
 10
442.045013
 20
-332.404785
 11
442.045013
 21
-334.903870
  0
LINE
  8
0
 10
436.061920
 20
-339.686981
 11
442.045441
 21
-342.477234
  0
LINE
  8
0
 10
432.660645
 20
-343.278259
 11
442.045074
 21
-347.654236
  0
LINE
  8
0
 10
418.975342
 20
-342.477020
 11
418.975342
 21
-347.654236
  0
LINE
  8
0
 10
418.976013
 20
-342.477539
 11
437.221954
 21
-333.969299
  0
LINE
  8
0
 10
418.975372
 20
-347.654266
 11
426.404755
 21
-344.189880
  0
LINE
  8
0
 10
442.045013
 20
-342.477020
 11
442.045013
 21
-347.654236
  0
LINE
  8
0
 10
418.975342
 20
-329.276642
 11
418.975342
 21
-333.968781
  0
LINE
  8
0
 10
426.404572
 20
-352.346344
 11
432.660675
 21
-352.346344
  0
LINE
  8
0
 10
418.975342
 20
-333.968781
 11
437.221222
 21
-333.968781
  0
LINE
  8
0
 10
418.975342
 20
-329.276642
 11
426.404572
 21
-329.276642
  0
LINE
  8
0
 10
463.160522
 20
-334.326752
 11
464.894409
 21
-333.637054
  0
LINE
  8
0
 10
463.159729
 20
-334.326324
 11
463.159729
 21
-352.346344
  0
LINE
  8
0
 10
456.903442
 20
-352.346344
 11
463.159729
 21
-352.346344
  0
LINE
  8
0
 10
443.999786
 20
-341.946228
 11
456.903168
 21
-336.814362
  0
LINE
  8
0
 10
444.000092
 20
-336.896698
 11
462.173584
 21
-329.668823
  0
LINE
  8
0
 10
456.903442
 20
-336.814453
 11
456.903442
 21
-352.346344
  0
LINE
  8
0
 10
463.159729
 20
-327.204376
 11
463.159729
 21
-328.215485
  0
LINE
  8
0
 10
467.851715
 20
-327.204376
 11
467.851715
 21
-329.276672
  0
LINE
  8
0
 10
444.000092
 20
-336.896667
 11
444.000092
 21
-341.946259
  0
LINE
  8
0
 10
463.159729
 20
-327.204376
 11
467.851715
 21
-327.204376
  0
LINE
  8
0
 10
365.406830
 20
-329.276642
 11
365.406830
 21
-333.968781
  0
LINE
  8
0
 10
-429.999969
 20
-87.000000
 11
-429.999969
 21
-193.000000
  0
LINE
  8
0
 10
-347.999969
 20
-87.000000
 11
-347.999969
 21
-193.000000
  0
LINE
  8
0
 10
-429.999969
 20
-87.000000
 11
-389.999969
 21
-87.000000
  0
LINE
  8
0
 10
-429.999969
 20
-193.000000
 11
-389.999969
 21
-193.000000
  0
LINE
  8
0
 10
-389.999969
 20
-87.000000
 11
-389.999969
 21
-193.000000
  0
LINE
  8
0
 10
-339.999969
 20
-96.000000
 11
-326.999969
 21
-96.000000
  0
LINE
  8
0
 10
-339.999969
 20
-184.000000
 11
110.000031
 21
-184.000000
  0
LINE
  8
0
 10
-104.999969
 20
-62.000000
 11
-104.999969
 21
-94.000000
  0
LINE
  8
0
 10
-324.999969
 20
-62.000000
 11
-324.999969
 21
-94.000000
  0
LINE
  8
0
 10
-318.999969
 20
-57.000000
 11
-110.999969
 21
-57.000000
  0
LINE
  8
0
 10
-110.999969
 20
-57.000000
 11
-110.999969
 21
-62.000000
  0
LINE
  8
0
 10
-318.999969
 20
-57.000000
 11
-318.999969
 21
-62.000000
  0
LINE
  8
0
 10
-324.999969
 20
-62.000000
 11
-220.999969
 21
-62.000000
  0
LINE
  8
0
 10
-324.999969
 20
-98.000000
 11
-104.999969
 21
-98.000000
  0
LINE
  8
0
 10
-127.999969
 20
-73.732048
 11
-124.999977
 21
-75.464104
  0
LINE
  8
0
 10
-124.999977
 20
-75.464119
 11
-121.999992
 21
-73.732086
  0
LINE
  8
0
 10
-122.000275
 20
-73.732040
 11
-122.000275
 21
-70.267937
  0
LINE
  8
0
 10
-122.000015
 20
-70.267967
 11
-125.000000
 21
-68.535912
  0
LINE
  8
0
 10
-124.999992
 20
-68.535904
 11
-128.000015
 21
-70.267944
  0
LINE
  8
0
 10
-128.000275
 20
-70.267960
 11
-128.000275
 21
-73.732063
  0
LINE
  8
0
 10
-102.999969
 20
-96.000000
 11
110.000031
 21
-96.000000
  0
LINE
  8
0
 10
-387.999969
 20
-87.000000
 11
-347.999969
 21
-87.000000
  0
LINE
  8
0
 10
-387.999969
 20
-87.000000
 11
-387.999969
 21
-193.000000
  0
LINE
  8
0
 10
-208.999969
 20
-62.000000
 11
-104.999969
 21
-62.000000
  0
LINE
  8
0
 10
-302.000031
 20
-73.732079
 11
-305.000000
 21
-75.464127
  0
LINE
  8
0
 10
-304.999969
 20
-75.464073
 11
-307.999969
 21
-73.732025
  0
LINE
  8
0
 10
-307.999664
 20
-73.732040
 11
-307.999664
 21
-70.267937
  0
LINE
  8
0
 10
-307.999939
 20
-70.267952
 11
-304.999969
 21
-68.535896
  0
LINE
  8
0
 10
-304.999939
 20
-68.535904
 11
-301.999939
 21
-70.267944
  0
LINE
  8
0
 10
-301.999664
 20
-70.267960
 11
-301.999664
 21
-73.732063
  0
LINE
  8
0
 10
-220.999969
 20
-62.000000
 11
-220.999969
 21
-74.500000
  0
LINE
  8
0
 10
-347.999969
 20
-172.500000
 11
-339.999969
 21
-172.500000
  0
LINE
  8
0
 10
-347.999969
 20
-185.500000
 11
-339.999969
 21
-185.500000
  0
LINE
  8
0
 10
-339.999969
 20
-172.500000
 11
-339.999969
 21
-185.500000
  0
LINE
  8
0
 10
-208.999969
 20
-62.000000
 11
-208.999969
 21
-74.500000
  0
LINE
  8
0
 10
-347.999969
 20
-107.500000
 11
-339.999969
 21
-107.500000
  0
LINE
  8
0
 10
-339.999969
 20
-107.500000
 11
-339.999969
 21
-94.500000
  0
LINE
  8
0
 10
-347.999969
 20
-94.500000
 11
-339.999969
 21
-94.500000
  0
LINE
  8
0
 10
158.000031
 20
-193.000000
 11
118.000031
 21
-193.000000
  0
LINE
  8
0
 10
200.000031
 20
-87.000000
 11
200.000031
 21
-193.000000
  0
LINE
  8
0
 10
118.000031
 20
-87.000000
 11
118.000031
 21
-193.000000
  0
LINE
  8
0
 10
200.000031
 20
-87.000000
 11
160.000031
 21
-87.000000
  0
LINE
  8
0
 10
200.000031
 20
-193.000000
 11
160.000031
 21
-193.000000
  0
LINE
  8
0
 10
160.000031
 20
-87.000000
 11
160.000031
 21
-193.000000
  0
LINE
  8
0
 10
158.000031
 20
-87.000000
 11
118.000031
 21
-87.000000
  0
LINE
  8
0
 10
118.000031
 20
-172.500000
 11
110.000031
 21
-172.500000
  0
LINE
  8
0
 10
118.000031
 20
-185.500000
 11
110.000031
 21
-185.500000
  0
LINE
  8
0
 10
110.000031
 20
-172.500000
 11
110.000031
 21
-185.500000
  0
LINE
  8
0
 10
158.000031
 20
-87.000000
 11
158.000031
 21
-193.000000
  0
LINE
  8
0
 10
118.000031
 20
-107.500000
 11
110.000031
 21
-107.500000
  0
LINE
  8
0
 10
110.000031
 20
-107.500000
 11
110.000031
 21
-94.500000
  0
LINE
  8
0
 10
118.000031
 20
-94.500000
 11
110.000031
 21
-94.500000
  0
LINE
  8
0
 10
-387.999969
 20
-193.000000
 11
-347.999969
 21
-193.000000
  0
LINE
  8
0
 10
-324.999969
 20
-94.000000
 11
-104.999969
 21
-94.000000
  0
LINE
  8
0
  6
CENTER
 10
-444.999969
 20
-140.000000
 11
215.000031
 21
-140.000000
  0
LINE
  8
0
  6
CENTER
 10
-409.999969
 20
-120.000000
 11
-409.999969
 21
-160.000000
  0
LINE
  8
0
  6
CENTER
 10
-439.999969
 20
-101.000000
 11
-334.666626
 21
-101.000000
  0
LINE
  8
0
  6
CENTER
 10
-439.999969
 20
-179.000000
 11
-334.666626
 21
-179.000000
  0
LINE
  8
0
  6
CENTER
 10
-214.999969
 20
-42.000000
 11
-214.999969
 21
-199.000000
  0
LINE
  8
0
  6
CENTER
 10
-14.999969
 20
-42.000000
 11
-14.999969
 21
-199.000000
  0
LINE
  8
0
  6
CENTER
 10
-304.999969
 20
-62.000000
 11
-304.999969
 21
-82.000000
  0
LINE
  8
0
  6
CENTER
 10
-294.999969
 20
-72.000000
 11
-314.999969
 21
-72.000000
  0
LINE
  8
0
  6
CENTER
 10
-259.999969
 20
-64.500000
 11
-259.999969
 21
-79.500000
  0
LINE
  8
0
  6
CENTER
 10
-252.499969
 20
-72.000000
 11
-267.499969
 21
-72.000000
  0
LINE
  8
0
  6
CENTER
 10
-169.999969
 20
-64.500000
 11
-169.999969
 21
-79.500000
  0
LINE
  8
0
  6
CENTER
 10
-177.499969
 20
-72.000000
 11
-162.499969
 21
-72.000000
  0
LINE
  8
0
  6
CENTER
 10
-124.999969
 20
-62.000000
 11
-124.999969
 21
-82.000000
  0
LINE
  8
0
  6
CENTER
 10
-134.999969
 20
-72.000000
 11
-114.999969
 21
-72.000000
  0
LINE
  8
0
  6
CENTER
 10
210.000031
 20
-101.000000
 11
102.666656
 21
-101.000000
  0
LINE
  8
0
  6
CENTER
 10
210.000031
 20
-179.000000
 11
102.666656
 21
-179.000000
  0
LINE
  8
0
  6
CENTER
 10
180.000031
 20
-120.000000
 11
180.000031
 21
-160.000000
  0
LINE
  8
0
  6
CENTER
 10
-215.000000
 20
198.000000
 11
-215.000000
 21
62.000000
  0
LINE
  8
0
 10
-430.000000
 20
183.000000
 11
-430.000000
 21
77.000000
  0
LINE
  8
0
  6
CENTER
 10
-445.000000
 20
130.000000
 11
215.000000
 21
130.000000
  0
LINE
  8
0
 10
-348.000000
 20
183.000000
 11
-348.000000
 21
77.000000
  0
LINE
  8
0
 10
-430.000000
 20
183.000000
 11
-390.000000
 21
183.000000
  0
LINE
  8
0
 10
-430.000000
 20
77.000000
 11
-390.000000
 21
77.000000
  0
LINE
  8
0
 10
-390.000000
 20
183.000000
 11
-390.000000
 21
77.000000
  0
LINE
  8
0
 10
-340.000000
 20
86.000000
 11
110.000000
 21
86.000000
  0
LINE
  8
0
 10
-105.000000
 20
145.000000
 11
-105.000000
 21
115.000000
  0
LINE
  8
0
 10
-325.000000
 20
145.000000
 11
-325.000000
 21
115.000000
  0
LINE
  8
0
 10
-111.000000
 20
139.500000
 11
-111.000000
 21
120.500000
  0
LINE
  8
0
 10
-319.000000
 20
139.500000
 11
-319.000000
 21
120.500000
  0
LINE
  8
0
  6
CENTER
 10
-440.000000
 20
91.000000
 11
-334.666656
 21
91.000000
  0
LINE
  8
0
 10
-348.000000
 20
97.500000
 11
-340.000000
 21
97.500000
  0
LINE
  8
0
 10
-348.000000
 20
84.500000
 11
-340.000000
 21
84.500000
  0
LINE
  8
0
 10
-340.000000
 20
97.500000
 11
-340.000000
 21
84.500000
  0
LINE
  8
0
  6
CENTER
 10
-440.000000
 20
169.000000
 11
-334.666656
 21
169.000000
  0
LINE
  8
0
 10
-348.000000
 20
162.500000
 11
-340.000000
 21
162.500000
  0
LINE
  8
0
 10
-340.000000
 20
162.500000
 11
-340.000000
 21
175.500000
  0
LINE
  8
0
 10
-348.000000
 20
175.500000
 11
-340.000000
 21
175.500000
  0
LINE
  8
0
 10
200.000000
 20
183.000000
 11
200.000000
 21
77.000000
  0
LINE
  8
0
 10
118.000000
 20
183.000000
 11
118.000000
 21
77.000000
  0
LINE
  8
0
 10
200.000000
 20
183.000000
 11
160.000000
 21
183.000000
  0
LINE
  8
0
 10
200.000000
 20
77.000000
 11
160.000000
 21
77.000000
  0
LINE
  8
0
 10
160.000000
 20
183.000000
 11
160.000000
 21
77.000000
  0
LINE
  8
0
  6
CENTER
 10
210.000000
 20
91.000000
 11
104.666626
 21
91.000000
  0
LINE
  8
0
 10
118.000000
 20
97.500000
 11
110.000000
 21
97.500000
  0
LINE
  8
0
 10
118.000000
 20
84.500000
 11
110.000000
 21
84.500000
  0
LINE
  8
0
 10
110.000000
 20
97.500000
 11
110.000000
 21
84.500000
  0
LINE
  8
0
  6
CENTER
 10
210.000000
 20
169.000000
 11
104.666626
 21
169.000000
  0
LINE
  8
0
 10
118.000000
 20
162.500000
 11
110.000000
 21
162.500000
  0
LINE
  8
0
 10
110.000000
 20
162.500000
 11
110.000000
 21
175.500000
  0
LINE
  8
0
 10
118.000000
 20
175.500000
 11
110.000000
 21
175.500000
  0
LINE
  8
0
  6
CENTER
 10
180.000000
 20
62.000000
 11
180.000000
 21
198.000000
  0
LINE
  8
0
 10
-340.000000
 20
174.000000
 11
110.000000
 21
174.000000
  0
LINE
  8
0
  6
CENTER
 10
-305.000000
 20
105.000000
 11
-305.000000
 21
155.000000
  0
LINE
  8
0
 10
-311.500000
 20
107.000000
 11
-298.500000
 21
107.000000
  0
LINE
  8
0
 10
-311.500000
 20
107.000000
 11
-311.500000
 21
115.000000
  0
LINE
  8
0
 10
-298.500000
 20
107.000000
 11
-298.500000
 21
115.000000
  0
LINE
  8
0
 10
-309.000000
 20
152.000000
 11
-301.000000
 21
152.000000
  0
LINE
  8
0
 10
-309.000000
 20
150.000000
 11
-309.000000
 21
152.000000
  0
LINE
  8
0
 10
-301.000000
 20
150.000000
 11
-301.000000
 21
152.000000
  0
LINE
  8
0
 10
-308.323486
 20
150.000000
 11
-308.323486
 21
152.000000
  0
LINE
  8
0
 10
-301.676514
 20
150.000000
 11
-301.676514
 21
152.000000
  0
LINE
  8
0
  6
CENTER
 10
-15.000000
 20
198.000000
 11
-15.000000
 21
62.000000
  0
LINE
  8
0
  6
DASHED
 10
167.500000
 20
79.000000
 11
192.500000
 21
79.000000
  0
LINE
  8
0
  6
DASHED
 10
172.044006
 20
91.000000
 11
187.955994
 21
91.000000
  0
LINE
  8
0
  6
DASHED
 10
167.500000
 20
77.000000
 11
167.500000
 21
79.000000
  0
LINE
  8
0
  6
DASHED
 10
172.524765
 20
78.999985
 11
173.212326
 21
100.999985
  0
LINE
  8
0
  6
DASHED
 10
171.668762
 20
78.999718
 11
172.043762
 21
90.999710
  0
LINE
  8
0
  6
DASHED
 10
192.500000
 20
77.000000
 11
192.500000
 21
79.000000
  0
LINE
  8
0
  6
DASHED
 10
188.330551
 20
78.999756
 11
187.955551
 21
90.999741
  0
LINE
  8
0
  6
DASHED
 10
187.474930
 20
78.999825
 11
186.787430
 21
100.999962
  0
LINE
  8
0
  6
DASHED
 10
187.474915
 20
180.999771
 11
186.787354
 21
158.999771
  0
LINE
  8
0
  6
DASHED
 10
172.044006
 20
169.000000
 11
187.955994
 21
169.000000
  0
LINE
  8
0
  6
DASHED
 10
172.524658
 20
180.999619
 11
173.212158
 21
158.999619
  0
LINE
  8
0
  6
DASHED
 10
171.668655
 20
180.999603
 11
172.043655
 21
168.999603
  0
LINE
  8
0
  6
DASHED
 10
188.330582
 20
180.999420
 11
187.955582
 21
168.999451
  0
LINE
  8
0
  6
DASHED
 10
167.500000
 20
181.000000
 11
192.500000
 21
181.000000
  0
LINE
  8
0
  6
DASHED
 10
192.500000
 20
183.000000
 11
192.500000
 21
181.000000
  0
LINE
  8
0
  6
DASHED
 10
167.500000
 20
183.000000
 11
167.500000
 21
181.000000
  0
LINE
  8
0
 10
-348.000000
 20
116.885132
 11
-327.000000
 21
116.885132
  0
LINE
  8
0
 10
-348.000000
 20
143.114868
 11
-327.000000
 21
143.114868
  0
LINE
  8
0
 10
-103.000000
 20
145.000000
 11
-103.000000
 21
115.000000
  0
LINE
  8
0
 10
-327.000000
 20
145.000000
 11
-327.000000
 21
115.000000
  0
LINE
  8
0
 10
-325.000000
 20
145.000000
 11
-105.000000
 21
145.000000
  0
LINE
  8
0
 10
-325.000000
 20
115.000000
 11
-105.000000
 21
115.000000
  0
LINE
  8
0
 10
-325.000000
 20
139.500000
 11
-105.000000
 21
139.500000
  0
LINE
  8
0
 10
-325.000000
 20
120.500000
 11
-105.000000
 21
120.500000
  0
LINE
  8
0
 10
-325.000000
 20
113.000000
 11
-311.500000
 21
113.000000
  0
LINE
  8
0
 10
-325.000000
 20
147.000000
 11
-311.500000
 21
147.000000
  0
LINE
  8
0
 10
-103.000000
 20
143.114868
 11
118.000000
 21
143.114868
  0
LINE
  8
0
 10
-103.000000
 20
116.885132
 11
118.000000
 21
116.885132
  0
LINE
  8
0
 10
-311.500000
 20
145.000000
 11
-311.500000
 21
150.000000
  0
LINE
  8
0
 10
-298.500000
 20
145.000000
 11
-298.500000
 21
150.000000
  0
LINE
  8
0
 10
-311.500000
 20
150.000000
 11
-298.500000
 21
150.000000
  0
LINE
  8
0
 10
-305.000000
 20
145.580566
 11
-305.000000
 21
149.419434
  0
LINE
  8
0
 10
-125.000000
 20
145.580566
 11
-125.000000
 21
149.419434
  0
LINE
  8
0
  6
CENTER
 10
-125.000000
 20
105.000000
 11
-125.000000
 21
155.000000
  0
LINE
  8
0
 10
-131.500000
 20
107.000000
 11
-118.500000
 21
107.000000
  0
LINE
  8
0
 10
-131.500000
 20
107.000000
 11
-131.500000
 21
115.000000
  0
LINE
  8
0
 10
-118.500000
 20
107.000000
 11
-118.500000
 21
115.000000
  0
LINE
  8
0
 10
-129.000000
 20
152.000000
 11
-121.000000
 21
152.000000
  0
LINE
  8
0
 10
-129.000000
 20
150.000000
 11
-129.000000
 21
152.000000
  0
LINE
  8
0
 10
-121.000000
 20
150.000000
 11
-121.000000
 21
152.000000
  0
LINE
  8
0
 10
-128.323486
 20
150.000000
 11
-128.323486
 21
152.000000
  0
LINE
  8
0
 10
-121.676514
 20
150.000000
 11
-121.676514
 21
152.000000
  0
LINE
  8
0
 10
-131.500000
 20
145.000000
 11
-131.500000
 21
150.000000
  0
LINE
  8
0
 10
-118.500000
 20
145.000000
 11
-118.500000
 21
150.000000
  0
LINE
  8
0
 10
-131.500000
 20
150.000000
 11
-118.500000
 21
150.000000
  0
LINE
  8
0
 10
-298.500000
 20
113.000000
 11
-131.500000
 21
113.000000
  0
LINE
  8
0
 10
-298.500000
 20
147.000000
 11
-131.500000
 21
147.000000
  0
LINE
  8
0
 10
-118.500000
 20
147.000000
 11
-105.000000
 21
147.000000
  0
LINE
  8
0
 10
-118.500000
 20
113.000000
 11
-105.000000
 21
113.000000
  0
LINE
  8
0
  6
CENTER
 10
-170.000000
 20
107.585510
 11
-170.000000
 21
152.810699
  0
LINE
  8
0
  6
CENTER
 10
-260.000000
 20
107.585510
 11
-260.000000
 21
152.810699
  0
LINE
  8
0
  6
DASHED
 10
-422.500000
 20
183.000000
 11
-422.500000
 21
181.000000
  0
LINE
  8
0
  6
DASHED
 10
-422.500000
 20
181.000000
 11
-397.500000
 21
181.000000
  0
LINE
  8
0
  6
DASHED
 10
-397.500000
 20
183.000000
 11
-397.500000
 21
181.000000
  0
LINE
  8
0
  6
CENTER
 10
-410.000000
 20
62.000000
 11
-410.000000
 21
198.000000
  0
LINE
  8
0
  6
DASHED
 10
-422.500000
 20
79.000000
 11
-397.500000
 21
79.000000
  0
LINE
  8
0
  6
DASHED
 10
-417.955994
 20
91.000000
 11
-402.044006
 21
91.000000
  0
LINE
  8
0
  6
DASHED
 10
-422.500000
 20
77.000000
 11
-422.500000
 21
79.000000
  0
LINE
  8
0
  6
DASHED
 10
-417.475006
 20
78.999985
 11
-416.787445
 21
100.999985
  0
LINE
  8
0
  6
DASHED
 10
-418.330841
 20
78.999710
 11
-417.955841
 21
90.999710
  0
LINE
  8
0
  6
DASHED
 10
-397.500000
 20
77.000000
 11
-397.500000
 21
79.000000
  0
LINE
  8
0
  6
DASHED
 10
-401.668823
 20
78.999794
 11
-402.043823
 21
90.999779
  0
LINE
  8
0
  6
DASHED
 10
-402.524933
 20
78.999855
 11
-403.212433
 21
100.999992
  0
LINE
  8
0
  6
DASHED
 10
-402.524872
 20
180.999771
 11
-403.212433
 21
158.999802
  0
LINE
  8
0
  6
DASHED
 10
-417.955994
 20
169.000000
 11
-402.044006
 21
169.000000
  0
LINE
  8
0
  6
DASHED
 10
-417.474792
 20
180.999664
 11
-416.787292
 21
158.999664
  0
LINE
  8
0
  6
DASHED
 10
-418.330811
 20
180.999664
 11
-417.955811
 21
168.999649
  0
LINE
  8
0
  6
DASHED
 10
-401.668762
 20
180.999420
 11
-402.043762
 21
168.999451
  0
LINE
  8
0
 10
-388.000000
 20
183.000000
 11
-388.000000
 21
77.000000
  0
LINE
  8
0
 10
-388.000000
 20
77.000000
 11
-348.000000
 21
77.000000
  0
LINE
  8
0
 10
-388.000000
 20
183.000000
 11
-348.000000
 21
183.000000
  0
LINE
  8
0
 10
158.000000
 20
183.000000
 11
158.000000
 21
77.000000
  0
LINE
  8
0
 10
158.000000
 20
77.000000
 11
118.000000
 21
77.000000
  0
LINE
  8
0
 10
158.000000
 20
183.000000
 11
118.000000
 21
183.000000
  0
LINE
  8
0
 10
-209.000000
 20
120.500000
 11
-209.000000
 21
115.000000
  0
LINE
  8
0
 10
-209.000000
 20
139.500000
 11
-209.000000
 21
145.000000
  0
LINE
  8
0
 10
-221.000000
 20
120.500000
 11
-221.000000
 21
115.000000
  0
LINE
  8
0
 10
-221.000000
 20
139.500000
 11
-221.000000
 21
145.000000
  0
LINE
  8
0
 10
306.999969
 20
-100.999939
 11
306.999969
 21
-178.999939
  0
LINE
  8
0
 10
412.999969
 20
-100.999939
 11
412.999969
 21
-178.999939
  0
LINE
  8
0
  6
CENTER
 10
359.999969
 20
-41.999939
 11
359.999969
 21
-207.999939
  0
LINE
  8
0
  6
CENTER
 10
291.999969
 20
-139.999939
 11
427.999969
 21
-139.999939
  0
LINE
  8
0
 10
320.999969
 20
-86.999939
 11
398.999969
 21
-86.999939
  0
LINE
  8
0
 10
320.999969
 20
-192.999939
 11
398.999969
 21
-192.999939
  0
LINE
  8
0
 10
374.999969
 20
-61.999939
 11
374.999969
 21
-86.999939
  0
LINE
  8
0
 10
369.499969
 20
-56.999939
 11
369.499969
 21
-86.999939
  0
LINE
  8
0
 10
350.499969
 20
-56.999939
 11
369.499969
 21
-56.999939
  0
LINE
  8
0
 10
344.999969
 20
-61.999939
 11
374.999969
 21
-61.999939
  0
LINE
  8
0
 10
344.999969
 20
-61.999939
 11
344.999969
 21
-86.999939
  0
LINE
  8
0
 10
350.499969
 20
-56.999939
 11
350.499969
 21
-86.999939
  0
LINE
  8
0
 10
324.752930
 20
-107.499962
 11
328.505707
 21
-100.999962
  0
LINE
  8
0
 10
328.505676
 20
-100.999924
 11
324.752899
 21
-94.499924
  0
LINE
  8
0
 10
324.752777
 20
-94.499939
 11
317.247162
 21
-94.499939
  0
LINE
  8
0
 10
317.247253
 20
-94.499893
 11
313.494476
 21
-100.999893
  0
LINE
  8
0
 10
313.494415
 20
-100.999870
 11
317.247192
 21
-107.499870
  0
LINE
  8
0
 10
317.247162
 20
-107.499939
 11
324.752716
 21
-107.499939
  0
LINE
  8
0
  6
CENTER
 10
308.499969
 20
-100.999939
 11
333.499969
 21
-100.999939
  0
LINE
  8
0
  6
CENTER
 10
320.999969
 20
-88.499939
 11
320.999969
 21
-113.499939
  0
LINE
  8
0
 10
324.752808
 20
-172.499908
 11
328.505585
 21
-178.999908
  0
LINE
  8
0
 10
328.505676
 20
-178.999954
 11
324.752899
 21
-185.499954
  0
LINE
  8
0
 10
324.752777
 20
-185.499939
 11
317.247162
 21
-185.499939
  0
LINE
  8
0
 10
317.247253
 20
-185.499908
 11
313.494507
 21
-178.999954
  0
LINE
  8
0
 10
313.494568
 20
-179.000031
 11
317.247345
 21
-172.500031
  0
LINE
  8
0
 10
317.247162
 20
-172.499939
 11
324.752716
 21
-172.499939
  0
LINE
  8
0
  6
CENTER
 10
308.499969
 20
-178.999939
 11
333.499969
 21
-178.999939
  0
LINE
  8
0
  6
CENTER
 10
320.999969
 20
-191.499939
 11
320.999969
 21
-166.499939
  0
LINE
  8
0
 10
395.247131
 20
-107.499969
 11
391.494415
 21
-101.000008
  0
LINE
  8
0
 10
391.494446
 20
-100.999931
 11
395.247162
 21
-94.499939
  0
LINE
  8
0
 10
395.247162
 20
-94.499939
 11
402.752777
 21
-94.499939
  0
LINE
  8
0
 10
402.752594
 20
-94.499924
 11
406.505341
 21
-100.999886
  0
LINE
  8
0
 10
406.505524
 20
-100.999962
 11
402.752716
 21
-107.499962
  0
LINE
  8
0
 10
402.752777
 20
-107.499939
 11
395.247223
 21
-107.499939
  0
LINE
  8
0
  6
CENTER
 10
411.499969
 20
-100.999939
 11
386.499969
 21
-100.999939
  0
LINE
  8
0
  6
CENTER
 10
398.999969
 20
-88.499939
 11
398.999969
 21
-113.499939
  0
LINE
  8
0
 10
395.247040
 20
-172.499847
 11
391.494293
 21
-178.999863
  0
LINE
  8
0
 10
391.494141
 20
-179.000076
 11
395.246979
 21
-185.500046
  0
LINE
  8
0
 10
395.247162
 20
-185.499939
 11
402.752777
 21
-185.499939
  0
LINE
  8
0
 10
402.752563
 20
-185.499847
 11
406.505310
 21
-178.999863
  0
LINE
  8
0
 10
406.505554
 20
-178.999924
 11
402.752777
 21
-172.499939
  0
LINE
  8
0
 10
402.752777
 20
-172.499939
 11
395.247223
 21
-172.499939
  0
LINE
  8
0
  6
CENTER
 10
411.499969
 20
-178.999939
 11
386.499969
 21
-178.999939
  0
LINE
  8
0
  6
CENTER
 10
398.999969
 20
-191.499939
 11
398.999969
 21
-166.499939
  0
LINE
  8
0
  6
CENTER
 10
334.999969
 20
-71.999939
 11
384.999969
 21
-71.999939
  0
LINE
  8
0
 10
336.999969
 20
-65.499939
 11
336.999969
 21
-78.499939
  0
LINE
  8
0
 10
336.999969
 20
-65.499939
 11
344.999969
 21
-65.499939
  0
LINE
  8
0
 10
336.999969
 20
-78.499939
 11
344.999969
 21
-78.499939
  0
LINE
  8
0
 10
379.999969
 20
-65.499908
 11
379.999969
 21
-78.500031
  0
LINE
  8
0
 10
381.999969
 20
-67.999939
 11
381.999969
 21
-75.999939
  0
LINE
  8
0
 10
379.999969
 20
-67.999939
 11
381.999969
 21
-67.999939
  0
LINE
  8
0
 10
379.999969
 20
-75.999939
 11
381.999969
 21
-75.999939
  0
LINE
  8
0
 10
375.580536
 20
-75.752686
 11
379.419403
 21
-75.752686
  0
LINE
  8
0
 10
375.580475
 20
-79.505493
 11
379.419464
 21
-79.505493
  0
LINE
  8
0
 10
375.580536
 20
-64.494354
 11
379.419403
 21
-64.494354
  0
LINE
  8
0
 10
375.580536
 20
-68.247131
 11
379.419403
 21
-68.247131
  0
LINE
  8
0
 10
380.000244
 20
-65.499802
 11
379.419678
 21
-64.494225
  0
LINE
  8
0
 10
379.999725
 20
-78.499779
 11
379.419159
 21
-79.505379
  0
LINE
  8
0
 10
375.000092
 20
-65.499939
 11
375.580658
 21
-64.494331
  0
LINE
  8
0
 10
374.999329
 20
-78.500206
 11
375.579895
 21
-79.505814
  0
LINE
  8
0
 10
379.999969
 20
-68.676437
 11
381.999969
 21
-68.676437
  0
LINE
  8
0
 10
379.999969
 20
-75.323441
 11
381.999969
 21
-75.323441
  0
LINE
  8
0
  6
DASHED
 10
308.999969
 20
-127.499939
 11
308.999969
 21
-152.499939
  0
LINE
  8
0
  6
DASHED
 10
320.999969
 20
-132.043961
 11
320.999969
 21
-147.955917
  0
LINE
  8
0
  6
DASHED
 10
306.999969
 20
-127.499939
 11
308.999969
 21
-127.499939
  0
LINE
  8
0
  6
DASHED
 10
309.000031
 20
-132.524918
 11
331.000031
 21
-133.212463
  0
LINE
  8
0
  6
DASHED
 10
309.000000
 20
-131.668930
 11
321.000000
 21
-132.043945
  0
LINE
  8
0
  6
DASHED
 10
306.999969
 20
-152.499939
 11
308.999969
 21
-152.499939
  0
LINE
  8
0
  6
DASHED
 10
308.999939
 20
-148.330887
 11
320.999939
 21
-147.955872
  0
LINE
  8
0
  6
DASHED
 10
308.999939
 20
-147.474960
 11
330.999878
 21
-146.787415
  0
LINE
  8
0
  6
DASHED
 10
410.999908
 20
-147.474899
 11
388.999908
 21
-146.787369
  0
LINE
  8
0
  6
DASHED
 10
398.999969
 20
-132.043961
 11
398.999969
 21
-147.955917
  0
LINE
  8
0
  6
DASHED
 10
410.999847
 20
-132.524933
 11
388.999847
 21
-133.212463
  0
LINE
  8
0
  6
DASHED
 10
410.999908
 20
-131.668930
 11
398.999908
 21
-132.043945
  0
LINE
  8
0
  6
DASHED
 10
410.999939
 20
-148.330917
 11
398.999939
 21
-147.955902
  0
LINE
  8
0
  6
DASHED
 10
410.999969
 20
-127.499939
 11
410.999969
 21
-152.499939
  0
LINE
  8
0
  6
DASHED
 10
412.999969
 20
-152.499939
 11
410.999969
 21
-152.499939
  0
LINE
  8
0
  6
DASHED
 10
412.999969
 20
-127.499939
 11
410.999969
 21
-127.499939
  0
LINE
  8
0
 10
358.232208
 20
-73.767761
 11
361.767731
 21
-70.232231
  0
LINE
  8
0
 10
358.232208
 20
-70.232155
 11
361.767761
 21
-73.767693
  0
LINE
  8
0
 10
175.834549
 20
-132.785187
 11
132.079987
 21
-57.000008
  0
LINE
  8
0
 10
175.834534
 20
-132.785187
 11
173.893387
 21
-125.540741
  0
LINE
  8
0
 10
175.834534
 20
-132.785187
 11
170.531235
 21
-127.481880
  0
LINE
  8
0
 10
56.888054
 20
-57.000011
 11
132.079971
 21
-57.000011
  0
LINE
  8
0
 10
-215.000000
 20
-254.000000
 11
-15.000000
 21
-254.000000
  0
LINE
  8
0
 10
-214.999969
 20
-199.000000
 11
-214.999969
 21
-257.000000
  0
LINE
  8
0
 10
-14.999969
 20
-199.000000
 11
-14.999969
 21
-257.000000
  0
LINE
  8
0
 10
-215.000000
 20
-253.999985
 11
-207.755554
 21
-252.058853
  0
LINE
  8
0
 10
-22.244442
 20
-255.941116
 11
-14.999998
 21
-253.999985
  0
LINE
  8
0
 10
-22.244438
 20
-252.058838
 11
-14.999995
 21
-253.999985
  0
LINE
  8
0
 10
-214.999985
 20
-253.999985
 11
-207.755554
 21
-255.941132
  0
ARC
  8
0
 10
461.595520
 20
-328.215485
 40
1.564059
 50
291.688049
 51
0.000000
  0
ARC
  8
0
 10
386.130402
 20
-332.404785
 40
3.128082
 50
0.000000
 51
90.000000
  0
ARC
  8
0
 10
411.937195
 20
-349.218353
 40
3.128082
 50
270.000000
 51
0.000000
  0
ARC
  8
0
 10
410.373047
 20
-333.968781
 40
4.692139
 50
0.000000
 51
90.000000
  0
ARC
  8
0
 10
438.916931
 20
-334.903870
 40
3.128100
 50
294.999969
 51
0.000000
  0
ARC
  8
0
 10
438.916931
 20
-332.404785
 40
3.128082
 50
0.000000
 51
90.000000
  0
ARC
  8
0
 10
463.159729
 20
-329.276672
 40
4.692149
 50
291.688202
 51
0.000000
  0
ARC
  8
0
 10
-214.999969
 20
-74.500000
 40
6.000000
 50
180.000000
 51
0.000000
  0
ARC
  8
0
 10
-324.999969
 20
-96.000000
 40
2.000000
 50
90.000000
 51
270.000000
  0
ARC
  8
0
 10
-104.999969
 20
-96.000000
 40
2.000000
 50
270.000000
 51
90.000000
  0
CIRCLE
  8
0
 10
180.000031
 20
-140.000000
 40
12.500000
  0
CIRCLE
  8
0
 10
180.000031
 20
-140.000000
 40
8.331000
  0
CIRCLE
  8
0
 10
180.000031
 20
-140.000000
 40
7.475000
  0
CIRCLE
  8
0
 10
-409.999969
 20
-140.000000
 40
7.475000
  0
CIRCLE
  8
0
 10
-409.999969
 20
-140.000000
 40
8.331000
  0
CIRCLE
  8
0
 10
-409.999969
 20
-140.000000
 40
12.500000
  0
CIRCLE
  8
0
 10
-304.999969
 20
-72.000000
 40
6.500000
  0
CIRCLE
  8
0
 10
-259.999969
 20
-72.000000
 40
4.500000
  0
CIRCLE
  8
0
 10
-124.999969
 20
-72.000000
 40
6.500000
  0
CIRCLE
  8
0
 10
-169.999969
 20
-72.000000
 40
4.500000
  0
ARC
  8
0
 10
-128.250000
 20
154.387009
 40
9.386999
 50
249.743393
 51
290.256439
  0
ARC
  8
0
 10
-121.750000
 20
140.612991
 40
9.387009
 50
69.743515
 51
110.256485
  0
ARC
  8
0
 10
-325.000000
 20
145.000000
 40
2.000000
 50
90.000000
 51
180.000000
  0
ARC
  8
0
 10
-325.000000
 20
115.000000
 40
2.000000
 50
180.000000
 51
270.000000
  0
ARC
  8
0
 10
-105.000000
 20
145.000000
 40
2.000000
 50
0.000000
 51
90.000000
  0
ARC
  8
0
 10
-105.000000
 20
115.000000
 40
2.000000
 50
270.000000
 51
0.000000
  0
ARC
  8
0
 10
-308.250000
 20
140.612991
 40
9.387009
 50
69.743515
 51
110.256485
  0
ARC
  8
0
 10
-301.750000
 20
140.612991
 40
9.387009
 50
69.743515
 51
110.256485
  0
ARC
  8
0
 10
-308.250000
 20
154.387009
 40
9.386994
 50
249.743484
 51
290.256470
  0
ARC
  8
0
 10
-301.750000
 20
154.387009
 40
9.386994
 50
249.743484
 51
290.256470
  0
ARC
  8
0
 10
-121.750000
 20
154.387009
 40
9.386999
 50
249.743393
 51
290.256439
  0
ARC
  8
0
 10
-128.250000
 20
140.612991
 40
9.387009
 50
69.743515
 51
110.256485
  0
CIRCLE
  8
0
 10
359.999969
 20
-71.999939
 40
5.000000
  0
ARC
  8
0
 10
378.322479
 20
-77.629135
 40
3.322516
 50
145.614960
 51
214.385040
  0
ARC
  8
0
 10
320.999969
 20
-100.999939
 40
14.000000
 50
90.000000
 51
179.999969
  0
ARC
  8
0
 10
398.999969
 20
-100.999939
 40
14.000000
 50
0.000000
 51
90.000000
  0
ARC
  8
0
 10
398.999969
 20
-178.999939
 40
14.000000
 50
270.000000
 51
0.000000
  0
ARC
  8
0
 10
320.999969
 20
-178.999939
 40
14.000000
 50
180.000000
 51
270.000000
  0
CIRCLE
  8
0
 10
320.999969
 20
-100.999939
 40
4.000000
  0
CIRCLE
  8
0
 10
320.999969
 20
-100.999939
 40
3.323500
  0
CIRCLE
  8
0
 10
320.999969
 20
-100.999939
 40
6.500000
  0
CIRCLE
  8
0
 10
320.999969
 20
-100.999939
 40
7.550000
  0
CIRCLE
  8
0
 10
320.999969
 20
-178.999939
 40
4.000000
  0
CIRCLE
  8
0
 10
320.999969
 20
-178.999939
 40
3.323500
  0
CIRCLE
  8
0
 10
320.999969
 20
-178.999939
 40
6.500000
  0
CIRCLE
  8
0
 10
320.999969
 20
-178.999939
 40
7.550000
  0
CIRCLE
  8
0
 10
398.999969
 20
-100.999939
 40
4.000000
  0
CIRCLE
  8
0
 10
398.999969
 20
-100.999939
 40
3.323500
  0
CIRCLE
  8
0
 10
398.999969
 20
-100.999939
 40
6.500000
  0
CIRCLE
  8
0
 10
398.999969
 20
-100.999939
 40
7.550000
  0
CIRCLE
  8
0
 10
398.999969
 20
-178.999939
 40
4.000000
  0
CIRCLE
  8
0
 10
398.999969
 20
-178.999939
 40
3.323500
  0
CIRCLE
  8
0
 10
398.999969
 20
-178.999939
 40
6.500000
  0
CIRCLE
  8
0
 10
398.999969
 20
-178.999939
 40
7.550000
  0
ARC
  8
0
 10
376.677460
 20
-66.370743
 40
3.322516
 50
325.614960
 51
34.385036
  0
ARC
  8
0
 10
367.580719
 20
-71.999908
 40
12.419250
 50
342.411774
 51
17.588238
  0
ARC
  8
0
 10
376.677460
 20
-77.629135
 40
3.322516
 50
325.614960
 51
34.385036
  0
ARC
  8
0
 10
378.322479
 20
-66.370743
 40
3.322516
 50
145.614960
 51
214.385040
  0
ARC
  8
0
 10
387.419220
 20
-71.999908
 40
12.419252
 50
162.411728
 51
197.588211
  0
TEXT
  8
0
 10
320.176147
 20
329.975403
 40
12.000000
  1
DATE : NOV ,1991
 50
0.000000
 41
1.052631
 51
0.000000
  7
STANDARD
  0
TEXT
  8
0
 10
-520.015564
 20
328.175385
 40
14.000000
  1
RODLESS CYLINDER
 50
0.000000
 41
0.956938
 51
0.000000
  7
STANDARD
  0
TEXT
  8
0
 10
-494.999268
 20
268.779816
 40
14.000000
  1
MODEL : ORC 63xSt(200)
 50
0.000000
 41
1.052632
 51
0.000000
  7
STANDARD
  0
TEXT
  8
0
 10
58.901379
 20
-57.500011
 40
10.000000
  1
4-Rc3/8
 50
0.000000
 41
1.052632
 51
0.000000
  7
STANDARD
  0
TEXT
  8
0
 10
-146.178574
 20
-252.000000
 40
10.000000
  1
STROKE
 50
0.000000
 41
1.052632
 51
0.000000
  7
STANDARD
  0
ENDSEC
  0
EOF
