  0
SECTION
  2
HEADER
  9
$ACADVER
  1
AC1012
  9
$DWGCODEPAGE
  3
dos932
  9
$INSBASE
 10
0.0
 20
0.0
 30
0.0
  9
$EXTMIN
 10
-194.25
 20
-133.5
 30
0.0
  9
$EXTMAX
 10
196.2723600854633
 20
132.60000610351562
 30
0.0
  9
$LIMMIN
 10
-194.25
 20
-133.5
  9
$LIMMAX
 10
196.2723600854633
 20
132.60000610351562
  9
$ORTHOMODE
 70
               0
  9
$REGENMODE
 70
               1
  9
$FILLMODE
 70
               1
  9
$QTEXTMODE
 70
               0
  9
$MIRRTEXT
 70
               1
  9
$DRAGMODE
 70
               2
  9
$LTSCALE
 40
1.0
  9
$OSMODE
 70
               0
  9
$ATTMODE
 70
               1
  9
$TEXTSIZE
 40
3.2000000476837158
  9
$TRACEWID
 40
0.05
  9
$TEXTSTYLE
  7
MX_NOTE_STANDARD
  9
$CLAYER
  8
0
  9
$CELTYPE
  6
CONTINUOUS
  9
$CECOLOR
 62
             256
  9
$CELTSCALE
 40
1.0
  9
$DELOBJ
 70
               1
  9
$DISPSILH
 70
               0
  9
$DIMSCALE
 40
1.0
  9
$DIMASZ
 40
2.5
  9
$DIMEXO
 40
1.5
  9
$DIMDLI
 40
3.75
  9
$DIMRND
 40
0.0
  9
$DIMDLE
 40
0.0
  9
$DIMEXE
 40
1.5
  9
$DIMTP
 40
0.0
  9
$DIMTM
 40
0.0
  9
$DIMTXT
 40
3.2000000476837158
  9
$DIMCEN
 40
2.5
  9
$DIMTSZ
 40
0.0
  9
$DIMTOL
 70
               0
  9
$DIMLIM
 70
               0
  9
$DIMTIH
 70
               0
  9
$DIMTOH
 70
               0
  9
$DIMSE1
 70
               0
  9
$DIMSE2
 70
               0
  9
$DIMTAD
 70
               1
  9
$DIMZIN
 70
               8
  9
$DIMBLK
  1

  9
$DIMASO
 70
               1
  9
$DIMSHO
 70
               1
  9
$DIMPOST
  1

  9
$DIMAPOST
  1

  9
$DIMALT
 70
               0
  9
$DIMALTD
 70
               4
  9
$DIMALTF
 40
0.03937007874016
  9
$DIMLFAC
 40
1.0
  9
$DIMTOFL
 70
               1
  9
$DIMTVP
 40
0.0
  9
$DIMTIX
 70
               0
  9
$DIMSOXD
 70
               0
  9
$DIMSAH
 70
               0
  9
$DIMBLK1
  1

  9
$DIMBLK2
  1

  9
$DIMSTYLE
  2
MXDIMSTYLE
  9
$DIMCLRD
 70
               0
  9
$DIMCLRE
 70
               0
  9
$DIMCLRT
 70
               0
  9
$DIMTFAC
 40
1.0
  9
$DIMGAP
 40
1.0
  9
$DIMJUST
 70
               0
  9
$DIMSD1
 70
               0
  9
$DIMSD2
 70
               0
  9
$DIMTOLJ
 70
               1
  9
$DIMTZIN
 70
               0
  9
$DIMALTZ
 70
               0
  9
$DIMALTTZ
 70
               0
  9
$DIMFIT
 70
               3
  9
$DIMUPT
 70
               1
  9
$DIMUNIT
 70
               2
  9
$DIMDEC
 70
               4
  9
$DIMTDEC
 70
               4
  9
$DIMALTU
 70
               2
  9
$DIMALTTD
 70
               4
  9
$DIMTXSTY
  7
MX_NOTE_STANDARD
  9
$DIMAUNIT
 70
               0
  9
$LUNITS
 70
               2
  9
$LUPREC
 70
               4
  9
$SKETCHINC
 40
0.1
  9
$FILLETRAD
 40
0.0
  9
$AUNITS
 70
               0
  9
$AUPREC
 70
               0
  9
$MENU
  1
acad
  9
$ELEVATION
 40
0.0
  9
$PELEVATION
 40
0.0
  9
$THICKNESS
 40
0.0
  9
$LIMCHECK
 70
               0
  9
$BLIPMODE
 70
               1
  9
$CHAMFERA
 40
0.0
  9
$CHAMFERB
 40
0.0
  9
$CHAMFERC
 40
0.0
  9
$CHAMFERD
 40
0.0
  9
$SKPOLY
 70
               0
  9
$TDCREATE
 40
2453378.356770834
  9
$TDUPDATE
 40
2453378.356770834
  9
$TDINDWG
 40
0.0000000000
  9
$TDUSRTIMER
 40
0.0000000000
  9
$USRTIMER
 70
               1
  9
$ANGBASE
 50
0.0
  9
$ANGDIR
 70
               0
  9
$PDMODE
 70
               0
  9
$PDSIZE
 40
0.0
  9
$PLINEWID
 40
0.0
  9
$COORDS
 70
               1
  9
$SPLFRAME
 70
               0
  9
$SPLINETYPE
 70
               6
  9
$SPLINESEGS
 70
               8
  9
$ATTDIA
 70
               0
  9
$ATTREQ
 70
               1
  9
$HANDLING
 70
               1
  9
$HANDSEED
  5
2CA
  9
$SURFTAB1
 70
               6
  9
$SURFTAB2
 70
               6
  9
$SURFTYPE
 70
               6
  9
$SURFU
 70
               6
  9
$SURFV
 70
               6
  9
$UCSNAME
  2

  9
$UCSORG
 10
0.0
 20
0.0
 30
0.0
  9
$UCSXDIR
 10
1.0
 20
0.0
 30
0.0
  9
$UCSYDIR
 10
0.0
 20
1.0
 30
0.0
  9
$PUCSNAME
  2

  9
$PUCSORG
 10
0.0
 20
0.0
 30
0.0
  9
$PUCSXDIR
 10
1.0
 20
0.0
 30
0.0
  9
$PUCSYDIR
 10
0.0
 20
1.0
 30
0.0
  9
$USERI1
 70
               0
  9
$USERI2
 70
               0
  9
$USERI3
 70
               0
  9
$USERI4
 70
               0
  9
$USERI5
 70
               0
  9
$USERR1
 40
0.0
  9
$USERR2
 40
0.0
  9
$USERR3
 40
0.0
  9
$USERR4
 40
0.0
  9
$USERR5
 40
0.0
  9
$WORLDVIEW
 70
               1
  9
$SHADEDGE
 70
               3
  9
$SHADEDIF
 70
              70
  9
$TILEMODE
 70
               1
  9
$MAXACTVP
 70
              16
  9
$PINSBASE
 10
0.0
 20
0.0
 30
0.0
  9
$PLIMCHECK
 70
               0
  9
$PEXTMIN
 10
1.0000000000000000E+20
 20
1.0000000000000000E+20
 30
1.0000000000000000E+20
  9
$PEXTMAX
 10
-1.0000000000000000E+20
 20
-1.0000000000000000E+20
 30
-1.0000000000000000E+20
  9
$PLIMMIN
 10
0.0
 20
0.0
  9
$PLIMMAX
 10
12.0
 20
9.0
  9
$UNITMODE
 70
               0
  9
$VISRETAIN
 70
               0
  9
$PLINEGEN
 70
               1
  9
$PSLTSCALE
 70
               0
  9
$TREEDEPTH
 70
            3020
  9
$PICKSTYLE
 70
               1
  9
$CMLSTYLE
  2
Standard
  9
$CMLJUST
 70
               0
  9
$CMLSCALE
 40
1.0
  9
$SAVEIMAGES
 70
               0
  0
ENDSEC
  0
SECTION
  2
CLASSES
  0
CLASS
  1
LWPOLYLINE
  2
AcDbPolyline
  3
"AutoCAD"
 90
        0
280
               0
281
               1
  0
CLASS
  1
IMAGE
  2
AcDbRasterImage
  3
ISM
 90
      127
280
               0
281
               1
  0
CLASS
  1
OLE2FRAME
  2
AcDbOle2Frame
  3
""
 90
        0
280
               0
281
               1
  0
CLASS
  1
HATCH
  2
AcDbHatch
  3
"ACAD_SEDONA"
 90
        0
280
               0
281
               1
  0
CLASS
  1
DICTIONARYVAR
  2
AcDbDictionaryVar
  3
"AutoCAD"
 90
        0
280
               0
281
               0
  0
CLASS
  1
RASTERVARIABLES
  2
AcDbRasterVariables
  3
ISM
 90
        0
280
               0
281
               0
  0
CLASS
  1
IMAGEDEF
  2
AcDbRasterImageDef
  3
ISM
 90
        0
280
               0
281
               0
  0
CLASS
  1
IMAGEDEF_REACTOR
  2
AcDbRasterImageDefReactor
  3
ISM
 90
        1
280
               0
281
               0
  0
CLASS
  1
IDBUFFER
  2
AcDbIdBuffer
  3
"Acad"
 90
        0
280
               0
281
               0
  0
CLASS
  1
SPATIAL_FILTER
  2
AcDbSpatialFilter
  3
"Acad"
 90
        0
280
               0
281
               0
  0
CLASS
  1
XRECORD
  2
AcDbXrecord
  3
"<Built In>"
 90
        0
280
               0
281
               0
  0
CLASS
  1
SORTENTSTABLE
  2
AcDbSortentsTable
  3
"AutoCAD"
 90
        0
280
               0
281
               0
  0
CLASS
  1
LAYER_INDEX
  2
AcDbLayerIndex
  3
"Acad"
 90
        0
280
               0
281
               0
  0
CLASS
  1
SPATIAL_INDEX
  2
AcDbSpatialIndex
  3
"Acad"
 90
        0
280
               0
281
               0
  0
CLASS
  1
OBJECT_PTR
  2
CAseDLPNTableRecord
  3
"ASE-LPNTableRecord"
 90
        1
280
               0
281
               0
  0
CLASS
  1
LAYOUT
  2
AcDbLayout
  3
"AutoCAD 2000"
 90
        1
280
               0
281
               0
  0
CLASS
  1
PLOTSETTINGS
  2
AcDbPlotSettings
  3
"AutoCAD 2000"
 90
        1
280
               0
281
               0
  0
CLASS
  1
ACDBDICTIONARYWDFLT
  2
AcDbDictionaryWithDefault
  3
"AutoCAD 2000"
 90
        1
280
               0
281
               0
  0
CLASS
  1
ACDBPLACEHOLDER
  2
AcDbPlaceHolder
  3
"AutoCAD 2000"
 90
        1
280
               0
281
               0
  0
ENDSEC
  0
SECTION
  2
TABLES
  0
TABLE
  2
VPORT
  5
7
100
AcDbSymbolTable
 70
               1
  0
VPORT
  5
15
100
AcDbSymbolTableRecord
100
AcDbViewportTableRecord
  2
*ACTIVE
 70
               0
 10
0.0
 20
0.0
 11
1.0
 21
1.0
 12
1.0111800427316666
 22
-0.4499969482421875
 13
0.0
 23
0.0
 14
1.0
 24
1.0
 15
0.0
 25
0.0
 16
0.0
 26
0.0
 36
1.0
 17
0.0
 27
0.0
 37
0.0
 40
268.76100616455079
 41
1.7320508075688772
 42
50.0
 43
0.0
 44
0.0
 50
0.0
 51
0.0
 71
               0
 72
             100
 73
               1
 74
               1
 75
               0
 76
               0
 77
               0
 78
               0
  0
ENDTAB
  0
TABLE
  2
LTYPE
  5
4
100
AcDbSymbolTable
 70
               4
  0
LTYPE
  5
11
100
AcDbSymbolTableRecord
100
AcDbLinetypeTableRecord
  2
BYBLOCK
 70
              64
  3

 72
              65
 73
               0
 40
0.0
  0
LTYPE
  5
12
100
AcDbSymbolTableRecord
100
AcDbLinetypeTableRecord
  2
BYLAYER
 70
              64
  3

 72
              65
 73
               0
 40
0.0
  0
LTYPE
  5
13
100
AcDbSymbolTableRecord
100
AcDbLinetypeTableRecord
  2
CONTINUOUS
 70
              64
  3
Solid line
 72
              65
 73
               0
 40
0.0
  0
LTYPE
  5
25
100
AcDbSymbolTableRecord
100
AcDbLinetypeTableRecord
  2
CENTER
 70
              64
  3
Center ____ _ ____ _ ____ _ ____ _ ____ _ ____
 72
              65
 73
               4
 40
26.0
 49
20.0
 74
               0
 49
-2.0
 74
               0
 49
2.0
 74
               0
 49
-2.0
 74
               0
  0
ENDTAB
  0
TABLE
  2
LAYER
  5
2
100
AcDbSymbolTable
 70
               2
  0
LAYER
  5
14
100
AcDbSymbolTableRecord
100
AcDbLayerTableRecord
  2
0
 70
               0
 62
               7
  6
CONTINUOUS
  0
LAYER
  5
1D
100
AcDbSymbolTableRecord
100
AcDbLayerTableRecord
  2
DEFPOINTS
 70
               0
 62
               7
  6
CONTINUOUS
  0
ENDTAB
  0
TABLE
  2
STYLE
  5
3
100
AcDbSymbolTable
 70
               1
  0
STYLE
  5
17
100
AcDbSymbolTableRecord
100
AcDbTextStyleTableRecord
  2
MX_NOTE_STANDARD
 70
               0
 40
0.0
 41
1.0
 50
0.0
 71
               0
 42
3.2000000476837158
  3
txt.shx
  4
extfont.shx
  0
ENDTAB
  0
TABLE
  2
VIEW
  5
5
100
AcDbSymbolTable
 70
               0
  0
ENDTAB
  0
TABLE
  2
UCS
  5
6
100
AcDbSymbolTable
 70
               0
  0
ENDTAB
  0
TABLE
  2
APPID
  5
8
100
AcDbSymbolTable
 70
               1
  0
APPID
  5
16
100
AcDbSymbolTableRecord
100
AcDbRegAppTableRecord
  2
ACAD
 70
               0
  0
ENDTAB
  0
TABLE
  2
DIMSTYLE
  5
9
100
AcDbSymbolTable
 70
               1
  0
DIMSTYLE
105
18
100
AcDbSymbolTableRecord
100
AcDbDimStyleTableRecord
  2
MXDIMSTYLE
 70
               0
  3

  4

  5

  6

  7

 40
1.0
 41
2.5
 42
1.5
 43
3.75
 44
1.5
 45
0.0
 46
0.0
 47
0.0
 48
0.0
 71
               0
 72
               0
 73
               0
 74
               0
 75
               0
 76
               0
 77
               1
 78
               8
140
3.2000000476837158
141
2.5
142
0.0
143
0.03937007874016
144
1.0
145
0.0
146
1.0
147
1.0
170
               0
171
               4
172
               1
173
               0
174
               0
175
               0
176
               0
177
               0
178
               0
270
               2
271
               4
272
               4
273
               2
274
               4
275
               0
280
               0
281
               0
282
               0
283
               1
284
               0
285
               0
286
               0
287
               3
288
               1
340
17
  0
ENDTAB
  0
TABLE
  2
BLOCK_RECORD
  5
1
100
AcDbSymbolTable
 70
               6
  0
BLOCK_RECORD
  5
A
100
AcDbSymbolTableRecord
100
AcDbBlockTableRecord
  2
*MODEL_SPACE
  0
BLOCK_RECORD
  5
B
100
AcDbSymbolTableRecord
100
AcDbBlockTableRecord
  2
*PAPER_SPACE
  0
BLOCK_RECORD
  5
1E
100
AcDbSymbolTableRecord
100
AcDbBlockTableRecord
  2
NVRA200-1
  0
BLOCK_RECORD
  5
1F
100
AcDbSymbolTableRecord
100
AcDbBlockTableRecord
  2
NVRA200-2
  0
BLOCK_RECORD
  5
20
100
AcDbSymbolTableRecord
100
AcDbBlockTableRecord
  2
NVRA200-3
  0
BLOCK_RECORD
  5
21
100
AcDbSymbolTableRecord
100
AcDbBlockTableRecord
  2
NVRA200-4
  0
BLOCK_RECORD
  5
22
100
AcDbSymbolTableRecord
100
AcDbBlockTableRecord
  2
NVRA200-5
  0
BLOCK_RECORD
  5
23
100
AcDbSymbolTableRecord
100
AcDbBlockTableRecord
  2
NVRA200-6
  0
ENDTAB
  0
ENDSEC
  0
SECTION
  2
BLOCKS
  0
BLOCK
  5
D
100
AcDbEntity
  8
0
100
AcDbBlockBegin
  2
*MODEL_SPACE
 70
               0
 10
0.0
 20
0.0
 30
0.0
  3
*MODEL_SPACE
  1

  0
ENDBLK
  5
E
100
AcDbEntity
  8
0
100
AcDbBlockEnd
  0
BLOCK
  5
F
100
AcDbEntity
 67
               1
  8
0
100
AcDbBlockBegin
  2
*PAPER_SPACE
 70
               0
 10
0.0
 20
0.0
 30
0.0
  3
*PAPER_SPACE
  1

  0
ENDBLK
  5
10
100
AcDbEntity
 67
               1
  8
0
100
AcDbBlockEnd
  0
BLOCK
  5
24
100
AcDbEntity
  8
0
100
AcDbBlockBegin
  2
NVRA200-1
 70
               0
 10
0.0
 20
0.0
 30
0.0
  3
NVRA200-1
  1

  0
LINE
  5
26
100
AcDbEntity
  8
0
  6
CENTER
 62
               2
100
AcDbLine
 10
-1.0
 20
-27.749599066919359
 30
0.0
 11
-1.0
 21
-42.133185595567852
 31
0.0
  0
LINE
  5
27
100
AcDbEntity
  8
0
  6
CONTINUOUS
 62
               4
100
AcDbLine
 10
-10.0
 20
-19.999999999999986
 30
0.0
 11
40.0
 21
-19.999999999999986
 31
0.0
  0
LINE
  5
28
100
AcDbEntity
  8
0
  6
CONTINUOUS
 62
               7
100
AcDbLine
 10
29.0
 20
-20.999999999999986
 30
0.0
 11
1.0
 21
-20.999999999999986
 31
0.0
  0
LINE
  5
29
100
AcDbEntity
  8
0
  6
CONTINUOUS
 62
               7
100
AcDbLine
 10
29.0
 20
-20.999999999999986
 30
0.0
 11
28.0
 21
-19.999999999999986
 31
0.0
  0
LINE
  5
2A
100
AcDbEntity
  8
0
  6
CONTINUOUS
 62
               7
100
AcDbLine
 10
1.0
 20
-20.999999999999986
 30
0.0
 11
2.0
 21
-19.999999999999986
 31
0.0
  0
LINE
  5
2B
100
AcDbEntity
  8
0
  6
CONTINUOUS
 62
               7
100
AcDbLine
 10
1.5
 20
-17.399999999999977
 30
0.0
 11
28.5
 21
-17.399999999999977
 31
0.0
  0
ARC
  5
2C
100
AcDbEntity
  8
0
  6
CONTINUOUS
 62
               7
100
AcDbCircle
 10
26.688833273563091
 20
-19.301175324743824
 30
0.0
 40
6.8985779311403128
100
AcDbArc
 50
64.396412695023272
 51
124.41373465590925
  0
ARC
  5
2D
100
AcDbEntity
  8
0
  6
CONTINUOUS
 62
               7
100
AcDbCircle
 10
14.995000000000005
 20
-38.194248718311769
 30
0.0
 40
25.790449977536543
100
AcDbArc
 50
72.407587489937455
 51
107.59241251006216
  0
ARC
  5
2E
100
AcDbEntity
  8
0
  6
CONTINUOUS
 62
               7
100
AcDbCircle
 10
3.3012642322605075
 20
-19.299909588768884
 30
0.0
 40
6.8974786491163051
100
AcDbArc
 50
55.580991298151027
 51
115.60886135091557
  0
LINE
  5
2F
100
AcDbEntity
  8
0
  6
CONTINUOUS
 62
               7
100
AcDbLine
 10
22.789999999999964
 20
-13.609999999999985
 30
0.0
 11
22.789999999999964
 21
-16.899999999999977
 31
0.0
  0
LINE
  5
30
100
AcDbEntity
  8
0
  6
CONTINUOUS
 62
               7
100
AcDbLine
 10
7.1999999999999886
 20
-13.609999999999985
 30
0.0
 11
7.1999999999999886
 21
-16.899999999999977
 31
0.0
  0
LINE
  5
31
100
AcDbEntity
  8
0
  6
CONTINUOUS
 62
               7
100
AcDbLine
 10
28.5
 20
-12.399999999999977
 30
0.0
 11
30.589999999999975
 21
-13.609999999999985
 31
0.0
  0
LINE
  5
32
100
AcDbEntity
  8
0
  6
CONTINUOUS
 62
               7
100
AcDbLine
 10
-0.5900000000000318
 20
-13.609999999999985
 30
0.0
 11
1.5
 21
-12.399999999999977
 31
0.0
  0
LINE
  5
33
100
AcDbEntity
  8
0
  6
CONTINUOUS
 62
               7
100
AcDbLine
 10
30.589999999999975
 20
-13.609999999999985
 30
0.0
 11
30.589999999999975
 21
-16.899999999999977
 31
0.0
  0
LINE
  5
34
100
AcDbEntity
  8
0
  6
CONTINUOUS
 62
               7
100
AcDbLine
 10
-0.5900000000000318
 20
-13.609999999999985
 30
0.0
 11
-0.5900000000000318
 21
-16.899999999999977
 31
0.0
  0
LINE
  5
35
100
AcDbEntity
  8
0
  6
CONTINUOUS
 62
               7
100
AcDbLine
 10
1.5
 20
-12.399999999999977
 30
0.0
 11
28.5
 21
-12.399999999999977
 31
0.0
  0
LINE
  5
36
100
AcDbEntity
  8
0
  6
CONTINUOUS
 62
               7
100
AcDbLine
 10
28.5
 20
-16.899999999999977
 30
0.0
 11
28.5
 21
-17.399999999999977
 31
0.0
  0
LINE
  5
37
100
AcDbEntity
  8
0
  6
CONTINUOUS
 62
               7
100
AcDbLine
 10
1.5
 20
-16.899999999999977
 30
0.0
 11
1.5
 21
-17.399999999999977
 31
0.0
  0
LINE
  5
38
100
AcDbEntity
  8
0
  6
CONTINUOUS
 62
               7
100
AcDbLine
 10
-0.5900000000000318
 20
-16.899999999999977
 30
0.0
 11
30.589999999999975
 21
-16.899999999999977
 31
0.0
  0
LINE
  5
39
100
AcDbEntity
  8
0
  6
CONTINUOUS
 62
               7
100
AcDbLine
 10
4.0
 20
-9.9999999999999858
 30
0.0
 11
3.0
 21
-10.999999999999986
 31
0.0
  0
LINE
  5
3A
100
AcDbEntity
  8
0
  6
CONTINUOUS
 62
               7
100
AcDbLine
 10
26.0
 20
-9.9999999999999858
 30
0.0
 11
27.0
 21
-10.999999999999986
 31
0.0
  0
LINE
  5
3B
100
AcDbEntity
  8
0
  6
CONTINUOUS
 62
               2
100
AcDbLine
 10
4.0
 20
-9.9999999999999858
 30
0.0
 11
4.0
 21
-12.399999999999977
 31
0.0
  0
LINE
  5
3C
100
AcDbEntity
  8
0
  6
CONTINUOUS
 62
               2
100
AcDbLine
 10
26.0
 20
-9.9999999999999858
 30
0.0
 11
26.0
 21
-12.399999999999977
 31
0.0
  0
LINE
  5
3D
100
AcDbEntity
  8
0
  6
CONTINUOUS
 62
               7
100
AcDbLine
 10
6.0
 20
-4.9999999999999858
 30
0.0
 11
24.0
 21
-4.9999999999999858
 31
0.0
  0
LINE
  5
3E
100
AcDbEntity
  8
0
  6
CONTINUOUS
 62
               7
100
AcDbLine
 10
3.0
 20
-17.399999999999977
 30
0.0
 11
3.0
 21
-17.999999999999986
 31
0.0
  0
LINE
  5
3F
100
AcDbEntity
  8
0
  6
CONTINUOUS
 62
               7
100
AcDbLine
 10
27.0
 20
-17.399999999999977
 30
0.0
 11
27.0
 21
-17.999999999999986
 31
0.0
  0
LINE
  5
40
100
AcDbEntity
  8
0
  6
CONTINUOUS
 62
               7
100
AcDbLine
 10
29.0
 20
-20.999999999999986
 30
0.0
 11
29.0
 21
-27.999999999999986
 31
0.0
  0
LINE
  5
41
100
AcDbEntity
  8
0
  6
CONTINUOUS
 62
               7
100
AcDbLine
 10
1.0
 20
-20.999999999999986
 30
0.0
 11
1.0
 21
-27.999999999999986
 31
0.0
  0
LINE
  5
42
100
AcDbEntity
  8
0
  6
CONTINUOUS
 62
               7
100
AcDbLine
 10
-9.0
 20
-26.999999999999986
 30
0.0
 11
-10.0
 21
-27.999999999999986
 31
0.0
  0
LINE
  5
43
100
AcDbEntity
  8
0
  6
CONTINUOUS
 62
               7
100
AcDbLine
 10
39.0
 20
-26.999999999999986
 30
0.0
 11
40.0
 21
-27.999999999999972
 31
0.0
  0
ARC
  5
44
100
AcDbEntity
  8
0
  6
CONTINUOUS
 62
               7
100
AcDbCircle
 10
0.0
 20
-25.999999999999986
 30
0.0
 40
1.0
100
AcDbArc
 50
270.00000000000023
 51
0.0
  0
ARC
  5
45
100
AcDbEntity
  8
0
  6
CONTINUOUS
 62
               7
100
AcDbCircle
 10
30.0
 20
-25.999999999999986
 30
0.0
 40
1.0
100
AcDbArc
 50
179.99999999999963
 51
269.99999999999937
  0
LINE
  5
46
100
AcDbEntity
  8
0
  6
CONTINUOUS
 62
               7
100
AcDbLine
 10
-10.0
 20
-27.999999999999986
 30
0.0
 11
1.0
 21
-27.999999999999986
 31
0.0
  0
LINE
  5
47
100
AcDbEntity
  8
0
  6
CONTINUOUS
 62
               7
100
AcDbLine
 10
-5.0
 20
-32.999999999999986
 30
0.0
 11
3.0
 21
-32.999999999999986
 31
0.0
  0
LINE
  5
48
100
AcDbEntity
  8
0
  6
CONTINUOUS
 62
               7
100
AcDbLine
 10
29.0
 20
-27.999999999999986
 30
0.0
 11
40.0
 21
-27.999999999999986
 31
0.0
  0
LINE
  5
49
100
AcDbEntity
  8
0
  6
CONTINUOUS
 62
               7
100
AcDbLine
 10
3.0
 20
-32.999999999999986
 30
0.0
 11
3.0
 21
-27.999999999999986
 31
0.0
  0
LINE
  5
4A
100
AcDbEntity
  8
0
  6
CONTINUOUS
 62
               7
100
AcDbLine
 10
27.0
 20
-32.999999999999986
 30
0.0
 11
27.0
 21
-27.999999999999986
 31
0.0
  0
LINE
  5
4B
100
AcDbEntity
  8
0
  6
CONTINUOUS
 62
               7
100
AcDbLine
 10
-9.0
 20
-26.999999999999986
 30
0.0
 11
39.0
 21
-26.999999999999986
 31
0.0
  0
ARC
  5
4C
100
AcDbEntity
  8
0
  6
CONTINUOUS
 62
               7
100
AcDbCircle
 10
4.0
 20
-27.999999999999986
 30
0.0
 40
1.0
100
AcDbArc
 50
89.999999999999815
 51
179.99999999999963
  0
ARC
  5
4D
100
AcDbEntity
  8
0
  6
CONTINUOUS
 62
               7
100
AcDbCircle
 10
26.0
 20
-27.999999999999986
 30
0.0
 40
1.0
100
AcDbArc
 50
0.0
 51
89.999999999999815
  0
LINE
  5
4E
100
AcDbEntity
  8
0
  6
CONTINUOUS
 62
               7
100
AcDbLine
 10
27.0
 20
-32.999999999999986
 30
0.0
 11
35.0
 21
-32.999999999999986
 31
0.0
  0
ARC
  5
4F
100
AcDbEntity
  8
0
  6
CONTINUOUS
 62
               7
100
AcDbCircle
 10
29.5
 20
-31.1573593128807
 30
0.0
 40
2.0
100
AcDbArc
 50
109.47122063449046
 51
179.99999999999963
  0
ARC
  5
50
100
AcDbEntity
  8
0
  6
CONTINUOUS
 62
               7
100
AcDbCircle
 10
31.0
 20
-35.399999999999977
 30
0.0
 40
6.5
100
AcDbArc
 50
70.528779365509138
 51
109.47122063449046
  0
ARC
  5
51
100
AcDbEntity
  8
0
  6
CONTINUOUS
 62
               7
100
AcDbCircle
 10
32.5
 20
-31.1573593128807
 30
0.0
 40
2.0
100
AcDbArc
 50
0.0
 51
70.528779365509166
  0
LINE
  5
52
100
AcDbEntity
  8
0
  6
CONTINUOUS
 62
               7
100
AcDbLine
 10
34.5
 20
-31.1573593128807
 30
0.0
 11
34.5
 21
-31.999999999999986
 31
0.0
  0
LINE
  5
53
100
AcDbEntity
  8
0
  6
CONTINUOUS
 62
               7
100
AcDbLine
 10
27.5
 20
-31.1573593128807
 30
0.0
 11
27.5
 21
-31.999999999999986
 31
0.0
  0
LINE
  5
54
100
AcDbEntity
  8
0
  6
CONTINUOUS
 62
               7
100
AcDbLine
 10
27.199999999999989
 20
-31.999999999999986
 30
0.0
 11
34.799999999999955
 21
-31.999999999999986
 31
0.0
  0
LINE
  5
55
100
AcDbEntity
  8
0
  6
CONTINUOUS
 62
               7
100
AcDbLine
 10
27.199999999999989
 20
-31.999999999999986
 30
0.0
 11
27.199999999999989
 21
-32.999999999999986
 31
0.0
  0
LINE
  5
56
100
AcDbEntity
  8
0
  6
CONTINUOUS
 62
               7
100
AcDbLine
 10
34.799999999999955
 20
-31.999999999999986
 30
0.0
 11
34.799999999999955
 21
-32.999999999999986
 31
0.0
  0
LINE
  5
57
100
AcDbEntity
  8
0
  6
CONTINUOUS
 62
               7
100
AcDbLine
 10
2.7999999999999545
 20
-31.999999999999986
 30
0.0
 11
-4.8000000000000114
 21
-31.999999999999986
 31
0.0
  0
LINE
  5
58
100
AcDbEntity
  8
0
  6
CONTINUOUS
 62
               7
100
AcDbLine
 10
2.7999999999999545
 20
-31.999999999999986
 30
0.0
 11
2.7999999999999545
 21
-32.999999999999986
 31
0.0
  0
ARC
  5
59
100
AcDbEntity
  8
0
  6
CONTINUOUS
 62
               7
100
AcDbCircle
 10
-1.0
 20
-35.399999999999977
 30
0.0
 40
6.5
100
AcDbArc
 50
70.528779365509138
 51
109.47122063449045
  0
ARC
  5
5A
100
AcDbEntity
  8
0
  6
CONTINUOUS
 62
               7
100
AcDbCircle
 10
0.5
 20
-31.1573593128807
 30
0.0
 40
2.0
100
AcDbArc
 50
0.0
 51
70.528779365509138
  0
LINE
  5
5B
100
AcDbEntity
  8
0
  6
CONTINUOUS
 62
               7
100
AcDbLine
 10
2.5
 20
-31.1573593128807
 30
0.0
 11
2.5
 21
-31.999999999999986
 31
0.0
  0
ARC
  5
5C
100
AcDbEntity
  8
0
  6
CONTINUOUS
 62
               7
100
AcDbCircle
 10
-2.5
 20
-31.1573593128807
 30
0.0
 40
2.0
100
AcDbArc
 50
109.47122063449045
 51
179.99999999999963
  0
LINE
  5
5D
100
AcDbEntity
  8
0
  6
CONTINUOUS
 62
               7
100
AcDbLine
 10
-4.5
 20
-31.1573593128807
 30
0.0
 11
-4.5
 21
-31.999999999999986
 31
0.0
  0
LINE
  5
5E
100
AcDbEntity
  8
0
  6
CONTINUOUS
 62
               7
100
AcDbLine
 10
-4.8000000000000114
 20
-31.999999999999986
 30
0.0
 11
-4.8000000000000114
 21
-32.999999999999986
 31
0.0
  0
LINE
  5
5F
100
AcDbEntity
  8
0
  6
CONTINUOUS
 62
               7
100
AcDbLine
 10
-1.0
 20
-32.999999999999986
 30
0.0
 11
-0.7320508075688963
 21
-31.999999999999986
 31
0.0
  0
LINE
  5
60
100
AcDbEntity
  8
0
  6
CONTINUOUS
 62
               7
100
AcDbLine
 10
-1.0
 20
-31.999999999999986
 30
0.0
 11
-1.2679491924311606
 21
-32.999999999999986
 31
0.0
  0
LINE
  5
61
100
AcDbEntity
  8
0
  6
CONTINUOUS
 62
               7
100
AcDbLine
 10
31.0
 20
-31.999999999999986
 30
0.0
 11
30.732050807568839
 21
-32.999999999999986
 31
0.0
  0
LINE
  5
62
100
AcDbEntity
  8
0
  6
CONTINUOUS
 62
               7
100
AcDbLine
 10
31.0
 20
-32.999999999999986
 30
0.0
 11
31.267949192431104
 21
-31.999999999999986
 31
0.0
  0
LINE
  5
63
100
AcDbEntity
  8
0
  6
CENTER
 62
             200
100
AcDbLine
 10
21.242606318803041
 20
0.0
 30
0.0
 11
38.468100201083814
 21
0.0
 31
0.0
  0
LINE
  5
64
100
AcDbEntity
  8
0
  6
CONTINUOUS
 62
               4
100
AcDbLine
 10
40.0
 20
8.0
 30
0.0
 11
38.0
 21
10.0
 31
0.0
  0
LINE
  5
65
100
AcDbEntity
  8
0
  6
CONTINUOUS
 62
               4
100
AcDbLine
 10
-8.0
 20
10.0
 30
0.0
 11
-10.0
 21
8.0
 31
0.0
  0
ARC
  5
66
100
AcDbEntity
  8
0
  6
CONTINUOUS
 62
               4
100
AcDbCircle
 10
30.0
 20
-17.399999999999991
 30
0.0
 40
5.5999999999999996
100
AcDbArc
 50
8.7147420186180717
 51
116.76550057675568
  0
ARC
  5
67
100
AcDbEntity
  8
0
  6
CONTINUOUS
 62
               4
100
AcDbCircle
 10
36.523802572120019
 20
-16.399999999999991
 30
0.0
 40
1.0
100
AcDbArc
 50
188.71474201861798
 51
269.99999999999937
  0
ARC
  5
68
100
AcDbEntity
  8
0
  6
CONTINUOUS
 62
               4
100
AcDbCircle
 10
-6.5238025721200188
 20
-16.399999999999991
 30
0.0
 40
1.0
100
AcDbArc
 50
269.99999999999937
 51
351.28525798138082
  0
ARC
  5
69
100
AcDbEntity
  8
0
  6
CONTINUOUS
 62
               4
100
AcDbCircle
 10
0.0
 20
-17.399999999999991
 30
0.0
 40
5.5999999999999996
100
AcDbArc
 50
63.234499423243918
 51
171.28525798138153
  0
LINE
  5
6A
100
AcDbEntity
  8
0
  6
CENTER
 62
             200
100
AcDbLine
 10
0.0
 20
-5.2860041580041326
 30
0.0
 11
0.0
 21
6.028136191677163
 31
0.0
  0
LINE
  5
6B
100
AcDbEntity
  8
0
  6
CENTER
 62
             200
100
AcDbLine
 10
30.0
 20
-5.2860041580041326
 30
0.0
 11
30.0
 21
6.5995228519818738
 31
0.0
  0
ARC
  5
6C
100
AcDbEntity
  8
0
  6
CONTINUOUS
 62
               4
100
AcDbCircle
 10
32.5
 20
0.0
 30
0.0
 40
3.5
100
AcDbArc
 50
269.99999999999937
 51
89.999999999999801
  0
LINE
  5
6D
100
AcDbEntity
  8
0
  6
CONTINUOUS
 62
               4
100
AcDbLine
 10
27.5
 20
3.5
 30
0.0
 11
32.5
 21
3.5
 31
0.0
  0
LINE
  5
6E
100
AcDbEntity
  8
0
  6
CONTINUOUS
 62
               4
100
AcDbLine
 10
27.5
 20
-3.4999999999999858
 30
0.0
 11
32.5
 21
-3.4999999999999858
 31
0.0
  0
ARC
  5
6F
100
AcDbEntity
  8
0
  6
CONTINUOUS
 62
               4
100
AcDbCircle
 10
27.5
 20
0.0
 30
0.0
 40
3.5
100
AcDbArc
 50
89.999999999999815
 51
269.99999999999937
  0
ARC
  5
70
100
AcDbEntity
  8
0
  6
CONTINUOUS
 62
               4
100
AcDbCircle
 10
-2.5
 20
0.0
 30
0.0
 40
3.5
100
AcDbArc
 50
89.999999999999815
 51
269.99999999999937
  0
LINE
  5
71
100
AcDbEntity
  8
0
  6
CONTINUOUS
 62
               4
100
AcDbLine
 10
-8.0
 20
10.0
 30
0.0
 11
38.0
 21
10.0
 31
0.0
  0
LINE
  5
72
100
AcDbEntity
  8
0
  6
CONTINUOUS
 62
               4
100
AcDbLine
 10
-10.0
 20
-17.399999999999991
 30
0.0
 11
40.0
 21
-17.399999999999991
 31
0.0
  0
LINE
  5
73
100
AcDbEntity
  8
0
  6
CONTINUOUS
 62
               4
100
AcDbLine
 10
40.0
 20
-19.999999999999986
 30
0.0
 11
40.0
 21
8.0
 31
0.0
  0
LINE
  5
74
100
AcDbEntity
  8
0
  6
CONTINUOUS
 62
               4
100
AcDbLine
 10
-10.0
 20
-19.999999999999986
 30
0.0
 11
-10.0
 21
8.0
 31
0.0
  0
LINE
  5
75
100
AcDbEntity
  8
0
  6
CONTINUOUS
 62
               4
100
AcDbLine
 10
2.5
 20
3.5
 30
0.0
 11
-2.5
 21
3.5
 31
0.0
  0
LINE
  5
76
100
AcDbEntity
  8
0
  6
CONTINUOUS
 62
               4
100
AcDbLine
 10
2.5
 20
-3.4999999999999858
 30
0.0
 11
-2.5
 21
-3.4999999999999858
 31
0.0
  0
ARC
  5
77
100
AcDbEntity
  8
0
  6
CONTINUOUS
 62
               4
100
AcDbCircle
 10
2.5
 20
0.0
 30
0.0
 40
3.5
100
AcDbArc
 50
270.00000000000023
 51
89.999999999999801
  0
LINE
  5
78
100
AcDbEntity
  8
0
  6
CENTER
 62
             200
100
AcDbLine
 10
8.7573936811969588
 20
0.0
 30
0.0
 11
-8.7007755700215057
 21
0.0
 31
0.0
  0
LINE
  5
79
100
AcDbEntity
  8
0
  6
CONTINUOUS
 62
               7
100
AcDbLine
 10
2.0
 20
-19.999999999999986
 30
0.0
 11
28.0
 21
-19.999999999999986
 31
0.0
  0
LINE
  5
7A
100
AcDbEntity
  8
0
  6
CONTINUOUS
 62
               7
100
AcDbLine
 10
4.0
 20
-9.9999999999999858
 30
0.0
 11
26.0
 21
-9.9999999999999858
 31
0.0
  0
LINE
  5
7B
100
AcDbEntity
  8
0
  6
CONTINUOUS
 62
               7
100
AcDbLine
 10
3.0
 20
-12.399999999999977
 30
0.0
 11
3.0
 21
-10.999999999999986
 31
0.0
  0
LINE
  5
7C
100
AcDbEntity
  8
0
  6
CONTINUOUS
 62
               7
100
AcDbLine
 10
3.0
 20
-17.999999999999986
 30
0.0
 11
27.0
 21
-17.999999999999986
 31
0.0
  0
LINE
  5
7D
100
AcDbEntity
  8
0
  6
CONTINUOUS
 62
               7
100
AcDbLine
 10
5.0
 20
-9.9999999999999858
 30
0.0
 11
5.0
 21
-5.9999999999998579
 31
0.0
  0
LINE
  5
7E
100
AcDbEntity
  8
0
  6
CONTINUOUS
 62
               7
100
AcDbLine
 10
6.0
 20
-4.9999999999999858
 30
0.0
 11
5.0
 21
-5.9999999999998579
 31
0.0
  0
LINE
  5
7F
100
AcDbEntity
  8
0
  6
CONTINUOUS
 62
               7
100
AcDbLine
 10
5.0
 20
-5.9999999999998579
 30
0.0
 11
25.0
 21
-5.9999999999998579
 31
0.0
  0
LINE
  5
80
100
AcDbEntity
  8
0
  6
CONTINUOUS
 62
               7
100
AcDbLine
 10
4.0
 20
-19.999999999999986
 30
0.0
 11
4.0
 21
-17.999999999999986
 31
0.0
  0
LINE
  5
81
100
AcDbEntity
  8
0
  6
CONTINUOUS
 62
               2
100
AcDbLine
 10
4.0
 20
-17.399999999999977
 30
0.0
 11
4.0
 21
-17.999999999999986
 31
0.0
  0
LINE
  5
82
100
AcDbEntity
  8
0
  6
CONTINUOUS
 62
               7
100
AcDbLine
 10
3.0
 20
-10.999999999999986
 30
0.0
 11
27.0
 21
-10.999999999999986
 31
0.0
  0
LINE
  5
83
100
AcDbEntity
  8
0
  6
CONTINUOUS
 62
               7
100
AcDbLine
 10
24.0
 20
-4.9999999999999858
 30
0.0
 11
25.0
 21
-5.9999999999998579
 31
0.0
  0
LINE
  5
84
100
AcDbEntity
  8
0
  6
CONTINUOUS
 62
               7
100
AcDbLine
 10
27.0
 20
-12.399999999999977
 30
0.0
 11
27.0
 21
-10.999999999999986
 31
0.0
  0
LINE
  5
85
100
AcDbEntity
  8
0
  6
CONTINUOUS
 62
               7
100
AcDbLine
 10
26.0
 20
-19.999999999999986
 30
0.0
 11
26.0
 21
-17.999999999999986
 31
0.0
  0
LINE
  5
86
100
AcDbEntity
  8
0
  6
CONTINUOUS
 62
               2
100
AcDbLine
 10
26.0
 20
-17.399999999999977
 30
0.0
 11
26.0
 21
-17.999999999999986
 31
0.0
  0
LINE
  5
87
100
AcDbEntity
  8
0
  6
CONTINUOUS
 62
               7
100
AcDbLine
 10
25.0
 20
-9.9999999999999858
 30
0.0
 11
25.0
 21
-5.9999999999998579
 31
0.0
  0
LINE
  5
88
100
AcDbEntity
  8
0
  6
CENTER
 62
               2
100
AcDbLine
 10
31.0
 20
-27.749599066919359
 30
0.0
 11
31.0
 21
-42.133185595567852
 31
0.0
  0
LINE
  5
89
100
AcDbEntity
  8
0
  6
CONTINUOUS
 62
               7
100
AcDbLine
 10
-5.0
 20
-40.799999999999983
 30
0.0
 11
-5.0
 21
-32.999999999999986
 31
0.0
  0
LINE
  5
8A
100
AcDbEntity
  8
0
  6
CONTINUOUS
 62
               7
100
AcDbLine
 10
1.0
 20
-65.599999999999994
 30
0.0
 11
1.0
 21
-61.799999999999983
 31
0.0
  0
LINE
  5
8B
100
AcDbEntity
  8
0
  6
CONTINUOUS
 62
               7
100
AcDbLine
 10
29.0
 20
-65.599999999999994
 30
0.0
 11
29.0
 21
-61.799999999999983
 31
0.0
  0
LINE
  5
8C
100
AcDbEntity
  8
0
  6
CONTINUOUS
 62
               7
100
AcDbLine
 10
26.0
 20
-65.799999999999983
 30
0.0
 11
26.0
 21
-65.599999999999994
 31
0.0
  0
LINE
  5
8D
100
AcDbEntity
  8
0
  6
CONTINUOUS
 62
               7
100
AcDbLine
 10
4.0
 20
-65.799999999999983
 30
0.0
 11
4.0
 21
-65.599999999999994
 31
0.0
  0
LINE
  5
8E
100
AcDbEntity
  8
0
  6
CONTINUOUS
 62
               7
100
AcDbLine
 10
29.0
 20
-71.499999999999972
 30
0.0
 11
29.0
 21
-65.799999999999983
 31
0.0
  0
LINE
  5
8F
100
AcDbEntity
  8
0
  6
CONTINUOUS
 62
               7
100
AcDbLine
 10
28.0
 20
-72.499999999999972
 30
0.0
 11
2.0
 21
-72.499999999999972
 31
0.0
  0
LINE
  5
90
100
AcDbEntity
  8
0
  6
CONTINUOUS
 62
               7
100
AcDbLine
 10
29.0
 20
-71.499999999999972
 30
0.0
 11
1.0
 21
-71.499999999999972
 31
0.0
  0
LINE
  5
91
100
AcDbEntity
  8
0
  6
CONTINUOUS
 62
               7
100
AcDbLine
 10
28.0
 20
-72.499999999999972
 30
0.0
 11
29.0
 21
-71.499999999999972
 31
0.0
  0
LINE
  5
92
100
AcDbEntity
  8
0
  6
CONTINUOUS
 62
               7
100
AcDbLine
 10
2.0
 20
-72.499999999999972
 30
0.0
 11
1.0
 21
-71.499999999999972
 31
0.0
  0
LINE
  5
93
100
AcDbEntity
  8
0
  6
CONTINUOUS
 62
               7
100
AcDbLine
 10
1.0
 20
-71.499999999999972
 30
0.0
 11
1.0
 21
-65.799999999999983
 31
0.0
  0
LINE
  5
94
100
AcDbEntity
  8
0
  6
CONTINUOUS
 62
               7
100
AcDbLine
 10
29.0
 20
-65.799999999999983
 30
0.0
 11
1.0
 21
-65.799999999999983
 31
0.0
  0
ARC
  5
95
100
AcDbEntity
  8
0
  6
CONTINUOUS
 62
               7
100
AcDbCircle
 10
14.999999987232059
 20
-63.959188669582133
 30
0.0
 40
16.240811330417845
100
AcDbArc
 50
252.41204701397623
 51
287.58795298602246
  0
ARC
  5
96
100
AcDbEntity
  8
0
  6
CONTINUOUS
 62
               7
100
AcDbCircle
 10
7.6387840469081993
 20
-75.855101143338018
 30
0.0
 40
4.3448988566619828
100
AcDbArc
 50
244.38425344003454
 51
304.38424591384126
  0
ARC
  5
97
100
AcDbEntity
  8
0
  6
CONTINUOUS
 62
               7
100
AcDbCircle
 10
22.361215915212597
 20
-75.85510118323235
 30
0.0
 40
4.344898816767671
100
AcDbArc
 50
235.61575392338705
 51
295.61575072893885
  0
LINE
  5
98
100
AcDbEntity
  8
0
  6
CONTINUOUS
 62
               7
100
AcDbLine
 10
10.092522697804156
 20
-79.440810655794635
 30
0.0
 11
10.092522697804156
 21
-72.499999999999986
 31
0.0
  0
LINE
  5
99
100
AcDbEntity
  8
0
  6
CONTINUOUS
 62
               7
100
AcDbLine
 10
19.907477276659961
 20
-79.440810655794635
 30
0.0
 11
19.907477276659961
 21
-72.499999999999986
 31
0.0
  0
LINE
  5
9A
100
AcDbEntity
  8
0
  6
CONTINUOUS
 62
               7
100
AcDbLine
 10
6.5
 20
-80.200000000000003
 30
0.0
 11
5.1850453960122422
 21
-79.440810605415535
 31
0.0
  0
LINE
  5
9B
100
AcDbEntity
  8
0
  6
CONTINUOUS
 62
               7
100
AcDbLine
 10
23.5
 20
-80.200000000000003
 30
0.0
 11
24.814954553765233
 21
-79.440810634411534
 31
0.0
  0
LINE
  5
9C
100
AcDbEntity
  8
0
  6
CONTINUOUS
 62
               7
100
AcDbLine
 10
23.5
 20
-80.200000000000003
 30
0.0
 11
6.5
 21
-80.200000000000003
 31
0.0
  0
LINE
  5
9D
100
AcDbEntity
  8
0
  6
CONTINUOUS
 62
               7
100
AcDbLine
 10
5.1850453960122422
 20
-79.440810596189991
 30
0.0
 11
5.1850453960122422
 21
-72.499999999999986
 31
0.0
  0
LINE
  5
9E
100
AcDbEntity
  8
0
  6
CONTINUOUS
 62
               7
100
AcDbLine
 10
24.814954553765233
 20
-79.440810655794635
 30
0.0
 11
24.814954553765233
 21
-72.499999999999986
 31
0.0
  0
LINE
  5
9F
100
AcDbEntity
  8
0
  6
CONTINUOUS
 62
               7
100
AcDbLine
 10
1.0
 20
-65.599999999999994
 30
0.0
 11
29.0
 21
-65.599999999999994
 31
0.0
  0
LINE
  5
A0
100
AcDbEntity
  8
0
  6
CENTER
 62
               2
100
AcDbLine
 10
15.0
 20
-86.262190612987013
 30
0.0
 11
15.0
 21
0.0
 31
0.0
  0
LINE
  5
A1
100
AcDbEntity
  8
0
  6
CONTINUOUS
 62
               7
100
AcDbLine
 10
5.0
 20
-59.799999999999983
 30
0.0
 11
5.2679491924311037
 21
-60.799999999999983
 31
0.0
  0
LINE
  5
A2
100
AcDbEntity
  8
0
  6
CONTINUOUS
 62
               7
100
AcDbLine
 10
25.0
 20
-59.799999999999983
 30
0.0
 11
24.732050807568839
 21
-60.799999999999983
 31
0.0
  0
LINE
  5
A3
100
AcDbEntity
  8
0
  6
CONTINUOUS
 62
               7
100
AcDbLine
 10
25.0
 20
-58.799999999999983
 30
0.0
 11
25.0
 21
-59.799999999999983
 31
0.0
  0
LINE
  5
A4
100
AcDbEntity
  8
0
  6
CONTINUOUS
 62
               7
100
AcDbLine
 10
5.0
 20
-59.799999999999983
 30
0.0
 11
5.0
 21
-40.999999999999986
 31
0.0
  0
LINE
  5
A5
100
AcDbEntity
  8
0
  6
CONTINUOUS
 62
               7
100
AcDbLine
 10
26.549834435270725
 20
-40.799999999999983
 30
0.0
 11
35.0
 21
-40.799999999999983
 31
0.0
  0
CIRCLE
  5
A6
100
AcDbEntity
  8
0
  6
CONTINUOUS
 62
               7
100
AcDbCircle
 10
19.0
 20
-50.799999999999983
 30
0.0
 40
5.7224998474121094
  0
CIRCLE
  5
A7
100
AcDbEntity
  8
0
  6
CONTINUOUS
 62
               2
100
AcDbCircle
 10
19.0
 20
-50.799999999999983
 30
0.0
 40
6.5784997940063477
  0
LINE
  5
A8
100
AcDbEntity
  8
0
  6
CONTINUOUS
 62
               7
100
AcDbLine
 10
38.0
 20
-57.799999999999983
 30
0.0
 11
35.0
 21
-57.799999999999983
 31
0.0
  0
LINE
  5
A9
100
AcDbEntity
  8
0
  6
CONTINUOUS
 62
               7
100
AcDbLine
 10
35.0
 20
-57.799999999999983
 30
0.0
 11
35.0
 21
-43.799999999999983
 31
0.0
  0
LINE
  5
AA
100
AcDbEntity
  8
0
  6
CONTINUOUS
 62
               7
100
AcDbLine
 10
38.0
 20
-57.799999999999983
 30
0.0
 11
38.0
 21
-43.799999999999983
 31
0.0
  0
LINE
  5
AB
100
AcDbEntity
  8
0
  6
CONTINUOUS
 62
               7
100
AcDbLine
 10
38.0
 20
-43.799999999999983
 30
0.0
 11
35.0
 21
-43.799999999999983
 31
0.0
  0
LINE
  5
AC
100
AcDbEntity
  8
0
  6
CONTINUOUS
 62
               7
100
AcDbLine
 10
-8.0
 20
-43.799999999999983
 30
0.0
 11
-5.0
 21
-43.799999999999983
 31
0.0
  0
LINE
  5
AD
100
AcDbEntity
  8
0
  6
CONTINUOUS
 62
               7
100
AcDbLine
 10
-8.0
 20
-57.799999999999983
 30
0.0
 11
-5.0
 21
-57.799999999999983
 31
0.0
  0
LINE
  5
AE
100
AcDbEntity
  8
0
  6
CONTINUOUS
 62
               7
100
AcDbLine
 10
-5.0
 20
-57.799999999999983
 30
0.0
 11
-5.0
 21
-43.799999999999983
 31
0.0
  0
LINE
  5
AF
100
AcDbEntity
  8
0
  6
CONTINUOUS
 62
               7
100
AcDbLine
 10
-8.0
 20
-57.799999999999983
 30
0.0
 11
-8.0
 21
-43.799999999999983
 31
0.0
  0
ARC
  5
B0
100
AcDbEntity
  8
0
  6
CONTINUOUS
 62
               7
100
AcDbCircle
 10
11.450165564729218
 20
-42.799999999999983
 30
0.0
 40
2.0
100
AcDbArc
 50
313.34175822722165
 51
89.999999999999801
  0
ARC
  5
B1
100
AcDbEntity
  8
0
  6
CONTINUOUS
 62
               7
100
AcDbCircle
 10
26.549834435270725
 20
-42.799999999999983
 30
0.0
 40
2.0
100
AcDbArc
 50
89.999999999999815
 51
226.65824177277716
  0
ARC
  5
B2
100
AcDbEntity
  8
0
  6
CONTINUOUS
 62
               7
100
AcDbCircle
 10
19.0
 20
-50.799999999999983
 30
0.0
 40
10.0
100
AcDbArc
 50
295.84193276316648
 51
56.131113839409366
  0
LINE
  5
B3
100
AcDbEntity
  8
0
  6
CONTINUOUS
 62
               7
100
AcDbLine
 10
35.0
 20
-40.799999999999983
 30
0.0
 11
35.0
 21
-32.999999999999986
 31
0.0
  0
LINE
  5
B4
100
AcDbEntity
  8
0
  6
CONTINUOUS
 62
               7
100
AcDbLine
 10
-5.0
 20
-40.799999999999983
 30
0.0
 11
11.450165564729218
 21
-40.799999999999983
 31
0.0
  0
ARC
  5
B5
100
AcDbEntity
  8
0
  6
CONTINUOUS
 62
               7
100
AcDbCircle
 10
19.0
 20
-50.799999999999983
 30
0.0
 40
9.0
100
AcDbArc
 50
133.34175822722213
 51
46.65824177277748
  0
ARC
  5
B6
100
AcDbEntity
  8
0
  6
CONTINUOUS
 62
               7
100
AcDbCircle
 10
19.0
 20
-50.799999999999983
 30
0.0
 40
10.0
100
AcDbArc
 50
123.86888616059025
 51
244.1580672368323
  0
LINE
  5
B7
100
AcDbEntity
  8
0
  6
CENTER
 62
               2
100
AcDbLine
 10
-15.668477216182112
 20
-50.799999999999983
 30
0.0
 11
45.668477216182112
 21
-50.799999999999983
 31
0.0
  0
LINE
  5
B8
100
AcDbEntity
  8
0
  6
CENTER
 62
               2
100
AcDbLine
 10
19.0
 20
-62.167313019390548
 30
0.0
 11
19.0
 21
-39.592022160664797
 31
0.0
  0
LINE
  5
B9
100
AcDbEntity
  8
0
  6
CONTINUOUS
 62
               7
100
AcDbLine
 10
39.0
 20
-26.999999999999986
 30
0.0
 11
39.0
 21
-60.799999999999983
 31
0.0
  0
LINE
  5
BA
100
AcDbEntity
  8
0
  6
CONTINUOUS
 62
               7
100
AcDbLine
 10
-9.0
 20
-26.999999999999986
 30
0.0
 11
-9.0
 21
-60.799999999999983
 31
0.0
  0
ARC
  5
BB
100
AcDbEntity
  8
0
  6
CONTINUOUS
 62
               7
100
AcDbCircle
 10
30.0
 20
-61.799999999999983
 30
0.0
 40
1.0
100
AcDbArc
 50
89.999999999999815
 51
179.99999999999963
  0
ARC
  5
BC
100
AcDbEntity
  8
0
  6
CONTINUOUS
 62
               7
100
AcDbCircle
 10
0.0
 20
-61.799999999999983
 30
0.0
 40
1.0
100
AcDbArc
 50
0.0
 51
89.999999999999815
  0
LINE
  5
BD
100
AcDbEntity
  8
0
  6
CONTINUOUS
 62
               7
100
AcDbLine
 10
-10.0
 20
-59.799999999999983
 30
0.0
 11
40.0
 21
-59.799999999999983
 31
0.0
  0
LINE
  5
BE
100
AcDbEntity
  8
0
  6
CONTINUOUS
 62
               7
100
AcDbLine
 10
39.0
 20
-60.799999999999983
 30
0.0
 11
40.0
 21
-59.799999999999997
 31
0.0
  0
LINE
  5
BF
100
AcDbEntity
  8
0
  6
CONTINUOUS
 62
               7
100
AcDbLine
 10
-9.0
 20
-60.799999999999983
 30
0.0
 11
-10.0
 21
-59.799999999999983
 31
0.0
  0
LINE
  5
C0
100
AcDbEntity
  8
0
  6
CONTINUOUS
 62
               7
100
AcDbLine
 10
-9.0
 20
-60.799999999999983
 30
0.0
 11
39.0
 21
-60.799999999999983
 31
0.0
  0
LINE
  5
C1
100
AcDbEntity
  8
0
  6
CONTINUOUS
 62
               7
100
AcDbLine
 10
-10.0
 20
-36.999999999999986
 30
0.0
 11
40.0
 21
-36.999999999999986
 31
0.0
  0
LINE
  5
C2
100
AcDbEntity
  8
0
  6
CONTINUOUS
 62
               7
100
AcDbLine
 10
40.0
 20
-59.799999999999983
 30
0.0
 11
40.0
 21
-27.999999999999986
 31
0.0
  0
LINE
  5
C3
100
AcDbEntity
  8
0
  6
CONTINUOUS
 62
               7
100
AcDbLine
 10
-10.0
 20
-59.799999999999983
 30
0.0
 11
-10.0
 21
-27.999999999999986
 31
0.0
  0
ENDBLK
  5
C4
100
AcDbEntity
  8
0
100
AcDbBlockEnd
  0
BLOCK
  5
C5
100
AcDbEntity
  8
0
100
AcDbBlockBegin
  2
NVRA200-2
 70
               0
 10
0.0
 20
0.0
 30
0.0
  3
NVRA200-2
  1

  0
SPLINE
  5
C6
100
AcDbEntity
  8
0
  6
CONTINUOUS
 62
               7
100
AcDbSpline
210
0.0
220
0.0
230
1.0
 70
               0
 71
               3
 72
               0
 73
               0
 74
               9
 44
0.000001
 12
0.9417053023926586
 22
-0.3364388851568014
 32
0.0
 13
0.9417053023926586
 23
0.3364388851568015
 33
0.0
 11
-48.5
 21
-79.440810655794635
 31
0.0
 11
-47.466649222697839
 21
-79.76402140979134
 31
0.0
 11
-46.409574754658635
 21
-80.001967750908548
 31
0.0
 11
-45.333964924304674
 21
-80.149470578928046
 31
0.0
 11
-44.25
 21
-80.200000000000003
 31
0.0
 11
-43.166035075695326
 21
-80.149470578928046
 31
0.0
 11
-42.090425245341365
 21
-80.001967750908548
 31
0.0
 11
-41.033350777302161
 21
-79.76402140979134
 31
0.0
 11
-40.0
 21
-79.440810655794635
 31
0.0
  0
SPLINE
  5
C7
100
AcDbEntity
  8
0
  6
CONTINUOUS
 62
               7
100
AcDbSpline
210
0.0
220
0.0
230
1.0
 70
               0
 71
               3
 72
               0
 73
               0
 74
               9
 44
0.000001
 12
0.9417053023926586
 22
-0.3364388851568014
 32
0.0
 13
0.9417053023926586
 23
0.3364388851568015
 33
0.0
 11
-40.0
 21
-79.440810655794635
 31
0.0
 11
-38.966649222697839
 21
-79.76402140979134
 31
0.0
 11
-37.909574754658635
 21
-80.001967750908548
 31
0.0
 11
-36.833964924304674
 21
-80.149470578928046
 31
0.0
 11
-35.75
 21
-80.200000000000003
 31
0.0
 11
-34.666035075695326
 21
-80.149470578928046
 31
0.0
 11
-33.590425245341365
 21
-80.001967750908548
 31
0.0
 11
-32.533350777302161
 21
-79.76402140979134
 31
0.0
 11
-31.5
 21
-79.440810655794635
 31
0.0
  0
LINE
  5
C8
100
AcDbEntity
  8
0
  6
CONTINUOUS
 62
               7
100
AcDbLine
 10
-54.0
 20
-20.999999999999986
 30
0.0
 11
-26.0
 21
-20.999999999999986
 31
0.0
  0
LINE
  5
C9
100
AcDbEntity
  8
0
  6
CONTINUOUS
 62
               4
100
AcDbLine
 10
-55.0
 20
-19.999999999999986
 30
0.0
 11
-3.6000000000000227
 21
-19.999999999999986
 31
0.0
  0
LINE
  5
CA
100
AcDbEntity
  8
0
  6
CONTINUOUS
 62
               7
100
AcDbLine
 10
-27.0
 20
-19.999999999999986
 30
0.0
 11
-26.0
 21
-21.000000000000128
 31
0.0
  0
LINE
  5
CB
100
AcDbEntity
  8
0
  6
CONTINUOUS
 62
               7
100
AcDbLine
 10
-54.0
 20
-20.999999999999986
 30
0.0
 11
-53.000000000000114
 21
-19.999999999999986
 31
0.0
  0
LINE
  5
CC
100
AcDbEntity
  8
0
  6
CONTINUOUS
 62
               7
100
AcDbLine
 10
-26.5
 20
-17.399999999999977
 30
0.0
 11
-53.489999999999895
 21
-17.399999999999977
 31
0.0
  0
ARC
  5
CD
100
AcDbEntity
  8
0
  6
CONTINUOUS
 62
               7
100
AcDbCircle
 10
-46.745000000000005
 20
-31.896422643862323
 30
0.0
 40
19.490722872945518
100
AcDbArc
 50
69.753357746720653
 51
110.24664225327894
  0
ARC
  5
CE
100
AcDbEntity
  8
0
  6
CONTINUOUS
 62
               7
100
AcDbCircle
 10
-33.25
 20
-31.896446537450601
 30
0.0
 40
19.492476163049169
100
AcDbArc
 50
69.739593252627103
 51
110.26040674737249
  0
LINE
  5
CF
100
AcDbEntity
  8
0
  6
CONTINUOUS
 62
               7
100
AcDbLine
 10
-40.0
 20
-13.609999999999971
 30
0.0
 11
-40.0
 21
-16.899999999999977
 31
0.0
  0
LINE
  5
D0
100
AcDbEntity
  8
0
  6
CONTINUOUS
 62
               7
100
AcDbLine
 10
-26.5
 20
-12.399999999999991
 30
0.0
 11
-53.489999999999895
 21
-12.399999999999991
 31
0.0
  0
LINE
  5
D1
100
AcDbEntity
  8
0
  6
CONTINUOUS
 62
               7
100
AcDbLine
 10
-53.489999999999895
 20
-12.399999999999991
 30
0.0
 11
-53.489999999999895
 21
-17.399999999999977
 31
0.0
  0
LINE
  5
D2
100
AcDbEntity
  8
0
  6
CONTINUOUS
 62
               7
100
AcDbLine
 10
-26.5
 20
-12.399999999999991
 30
0.0
 11
-26.5
 21
-17.399999999999977
 31
0.0
  0
LINE
  5
D3
100
AcDbEntity
  8
0
  6
CONTINUOUS
 62
               7
100
AcDbLine
 10
-26.5
 20
-16.899999999999977
 30
0.0
 11
-53.489999999999895
 21
-16.899999999999977
 31
0.0
  0
LINE
  5
D4
100
AcDbEntity
  8
0
  6
CONTINUOUS
 62
               7
100
AcDbLine
 10
-28.0
 20
-27.999999999999986
 30
0.0
 11
-29.0
 21
-26.999999999999986
 31
0.0
  0
LINE
  5
D5
100
AcDbEntity
  8
0
  6
CONTINUOUS
 62
               7
100
AcDbLine
 10
-51.0
 20
-26.999999999999986
 30
0.0
 11
-52.0
 21
-27.999999999999986
 31
0.0
  0
LINE
  5
D6
100
AcDbEntity
  8
0
  6
CONTINUOUS
 62
               7
100
AcDbLine
 10
-28.0
 20
-27.999999999999986
 30
0.0
 11
-52.0
 21
-27.999999999999986
 31
0.0
  0
LINE
  5
D7
100
AcDbEntity
  8
0
  6
CONTINUOUS
 62
               7
100
AcDbLine
 10
-21.0
 20
-26.999999999999986
 30
0.0
 11
-59.0
 21
-26.999999999999986
 31
0.0
  0
ARC
  5
D8
100
AcDbEntity
  8
0
  6
CONTINUOUS
 62
               7
100
AcDbCircle
 10
-21.0
 20
-27.999999999999986
 30
0.0
 40
1.0
100
AcDbArc
 50
0.0
 51
89.999999999999815
  0
ARC
  5
D9
100
AcDbEntity
  8
0
  6
CONTINUOUS
 62
               7
100
AcDbCircle
 10
-59.0
 20
-27.999999999999986
 30
0.0
 40
1.0
100
AcDbArc
 50
89.999999999999815
 51
179.99999999999963
  0
ARC
  5
DA
100
AcDbEntity
  8
0
  6
CONTINUOUS
 62
               7
100
AcDbCircle
 10
-25.0
 20
-25.999999999999986
 30
0.0
 40
1.0
100
AcDbArc
 50
179.99999999999963
 51
269.99999999999937
  0
ARC
  5
DB
100
AcDbEntity
  8
0
  6
CONTINUOUS
 62
               7
100
AcDbCircle
 10
-54.989999999999895
 20
-25.999999999999986
 30
0.0
 40
1.0
100
AcDbArc
 50
269.99999999999937
 51
0.0
  0
LINE
  5
DC
100
AcDbEntity
  8
0
  6
CONTINUOUS
 62
               7
100
AcDbLine
 10
-20.0
 20
-32.999999999999986
 30
0.0
 11
-28.0
 21
-32.999999999999986
 31
0.0
  0
LINE
  5
DD
100
AcDbEntity
  8
0
  6
CONTINUOUS
 62
               7
100
AcDbLine
 10
-52.0
 20
-32.999999999999986
 30
0.0
 11
-60.0
 21
-32.999999999999986
 31
0.0
  0
LINE
  5
DE
100
AcDbEntity
  8
0
  6
CONTINUOUS
 62
               7
100
AcDbLine
 10
-52.199999999999932
 20
-31.999999999999986
 30
0.0
 11
-59.799999999999955
 21
-31.999999999999986
 31
0.0
  0
LINE
  5
DF
100
AcDbEntity
  8
0
  6
CONTINUOUS
 62
               7
100
AcDbLine
 10
-59.799999999999955
 20
-31.999999999999986
 30
0.0
 11
-59.799999999999955
 21
-32.999999999999986
 31
0.0
  0
LINE
  5
E0
100
AcDbEntity
  8
0
  6
CONTINUOUS
 62
               7
100
AcDbLine
 10
-52.199999999999932
 20
-31.999999999999986
 30
0.0
 11
-52.199999999999932
 21
-32.999999999999986
 31
0.0
  0
ARC
  5
E1
100
AcDbEntity
  8
0
  6
CONTINUOUS
 62
               7
100
AcDbCircle
 10
-56.0
 20
-35.399999999999977
 30
0.0
 40
6.5
100
AcDbArc
 50
70.528779365509138
 51
109.47122063449045
  0
LINE
  5
E2
100
AcDbEntity
  8
0
  6
CONTINUOUS
 62
               7
100
AcDbLine
 10
-59.5
 20
-31.1573593128807
 30
0.0
 11
-59.5
 21
-31.999999999999986
 31
0.0
  0
LINE
  5
E3
100
AcDbEntity
  8
0
  6
CONTINUOUS
 62
               7
100
AcDbLine
 10
-52.5
 20
-31.1573593128807
 30
0.0
 11
-52.5
 21
-31.999999999999986
 31
0.0
  0
ARC
  5
E4
100
AcDbEntity
  8
0
  6
CONTINUOUS
 62
               7
100
AcDbCircle
 10
-54.5
 20
-31.1573593128807
 30
0.0
 40
2.0
100
AcDbArc
 50
0.0
 51
70.528779365509138
  0
ARC
  5
E5
100
AcDbEntity
  8
0
  6
CONTINUOUS
 62
               7
100
AcDbCircle
 10
-57.5
 20
-31.1573593128807
 30
0.0
 40
2.0
100
AcDbArc
 50
109.47122063449045
 51
179.99999999999963
  0
LINE
  5
E6
100
AcDbEntity
  8
0
  6
CONTINUOUS
 62
               7
100
AcDbLine
 10
-27.5
 20
-31.1573593128807
 30
0.0
 11
-27.5
 21
-31.999999999999986
 31
0.0
  0
ARC
  5
E7
100
AcDbEntity
  8
0
  6
CONTINUOUS
 62
               7
100
AcDbCircle
 10
-25.5
 20
-31.1573593128807
 30
0.0
 40
2.0
100
AcDbArc
 50
109.47122063449046
 51
179.99999999999963
  0
ARC
  5
E8
100
AcDbEntity
  8
0
  6
CONTINUOUS
 62
               7
100
AcDbCircle
 10
-24.0
 20
-35.399999999999977
 30
0.0
 40
6.5
100
AcDbArc
 50
70.528779365509138
 51
109.47122063449046
  0
ARC
  5
E9
100
AcDbEntity
  8
0
  6
CONTINUOUS
 62
               7
100
AcDbCircle
 10
-22.5
 20
-31.1573593128807
 30
0.0
 40
2.0
100
AcDbArc
 50
0.0
 51
70.528779365509166
  0
LINE
  5
EA
100
AcDbEntity
  8
0
  6
CONTINUOUS
 62
               7
100
AcDbLine
 10
-20.5
 20
-31.1573593128807
 30
0.0
 11
-20.5
 21
-31.999999999999986
 31
0.0
  0
LINE
  5
EB
100
AcDbEntity
  8
0
  6
CONTINUOUS
 62
               7
100
AcDbLine
 10
-27.799999999999955
 20
-31.999999999999986
 30
0.0
 11
-20.199999999999932
 21
-31.999999999999986
 31
0.0
  0
LINE
  5
EC
100
AcDbEntity
  8
0
  6
CONTINUOUS
 62
               7
100
AcDbLine
 10
-20.199999999999932
 20
-31.999999999999986
 30
0.0
 11
-20.199999999999932
 21
-32.999999999999986
 31
0.0
  0
LINE
  5
ED
100
AcDbEntity
  8
0
  6
CONTINUOUS
 62
               7
100
AcDbLine
 10
-27.799999999999955
 20
-31.999999999999986
 30
0.0
 11
-27.799999999999955
 21
-32.999999999999986
 31
0.0
  0
LINE
  5
EE
100
AcDbEntity
  8
0
  6
CONTINUOUS
 62
               7
100
AcDbLine
 10
-56.0
 20
-32.999999999999986
 30
0.0
 11
-56.267949192431047
 21
-31.999999999999986
 31
0.0
  0
LINE
  5
EF
100
AcDbEntity
  8
0
  6
CONTINUOUS
 62
               7
100
AcDbLine
 10
-56.0
 20
-31.999999999999986
 30
0.0
 11
-55.732050807568839
 21
-32.999999999999986
 31
0.0
  0
LINE
  5
F0
100
AcDbEntity
  8
0
  6
CONTINUOUS
 62
               7
100
AcDbLine
 10
-24.0
 20
-31.999999999999986
 30
0.0
 11
-23.732050807568839
 21
-32.999999999999986
 31
0.0
  0
LINE
  5
F1
100
AcDbEntity
  8
0
  6
CONTINUOUS
 62
               7
100
AcDbLine
 10
-24.0
 20
-32.999999999999986
 30
0.0
 11
-24.267949192431047
 21
-31.999999999999986
 31
0.0
  0
LINE
  5
F2
100
AcDbEntity
  8
0
  6
CONTINUOUS
 62
               4
100
AcDbLine
 10
-9.0769552621700313
 20
-17.399999999999991
 30
0.0
 11
-2.6000000000000227
 21
-10.923044737829926
 31
0.0
  0
ARC
  5
F3
100
AcDbEntity
  8
0
  6
CONTINUOUS
 62
               4
100
AcDbCircle
 10
-3.6000000000000227
 20
-16.399999999999991
 30
0.0
 40
3.6000000000000001
100
AcDbArc
 50
269.99999999999937
 51
0.0
  0
ARC
  5
F4
100
AcDbEntity
  8
0
  6
CONTINUOUS
 62
               4
100
AcDbCircle
 10
-3.6000000000000227
 20
-16.399999999999991
 30
0.0
 40
1.0
100
AcDbArc
 50
269.99999999999937
 51
0.0
  0
LINE
  5
F5
100
AcDbEntity
  8
0
  6
CONTINUOUS
 62
               4
100
AcDbLine
 10
-2.6000000000000227
 20
10.0
 30
0.0
 11
0.0
 21
10.0
 31
0.0
  0
LINE
  5
F6
100
AcDbEntity
  8
0
  6
CONTINUOUS
 62
               4
100
AcDbLine
 10
-55.0
 20
-17.399999999999991
 30
0.0
 11
-3.6000000000000227
 21
-17.399999999999991
 31
0.0
  0
LINE
  5
F7
100
AcDbEntity
  8
0
  6
CONTINUOUS
 62
               4
100
AcDbLine
 10
-55.0
 20
-17.399999999999991
 30
0.0
 11
-55.0
 21
-19.999999999999986
 31
0.0
  0
LINE
  5
F8
100
AcDbEntity
  8
0
  6
CONTINUOUS
 62
               4
100
AcDbLine
 10
-2.6000000000000227
 20
10.0
 30
0.0
 11
-2.6000000000000227
 21
-16.399999999999991
 31
0.0
  0
LINE
  5
F9
100
AcDbEntity
  8
0
  6
CONTINUOUS
 62
               4
100
AcDbLine
 10
0.0
 20
10.0
 30
0.0
 11
0.0
 21
-16.399999999999991
 31
0.0
  0
LINE
  5
FA
100
AcDbEntity
  8
0
  6
CONTINUOUS
 62
               7
100
AcDbLine
 10
-54.0
 20
-20.999999999999986
 30
0.0
 11
-54.0
 21
-26.141067359796779
 31
0.0
  0
LINE
  5
FB
100
AcDbEntity
  8
0
  6
CONTINUOUS
 62
               7
100
AcDbLine
 10
-26.0
 20
-25.999999999999986
 30
0.0
 11
-26.0
 21
-21.000000000000128
 31
0.0
  0
LINE
  5
FC
100
AcDbEntity
  8
0
  6
CONTINUOUS
 62
               7
100
AcDbLine
 10
-27.0
 20
-19.999999999999986
 30
0.0
 11
-53.000000000000114
 21
-19.999999999999986
 31
0.0
  0
LINE
  5
FD
100
AcDbEntity
  8
0
  6
CONTINUOUS
 62
               2
100
AcDbLine
 10
-29.0
 20
-9.9999999999999858
 30
0.0
 11
-29.0
 21
-12.399999999999991
 31
0.0
  0
LINE
  5
FE
100
AcDbEntity
  8
0
  6
CONTINUOUS
 62
               2
100
AcDbLine
 10
-51.0
 20
-9.9999999999999858
 30
0.0
 11
-51.0
 21
-12.399999999999991
 31
0.0
  0
LINE
  5
FF
100
AcDbEntity
  8
0
  6
CONTINUOUS
 62
               7
100
AcDbLine
 10
-28.0
 20
-12.399999999999977
 30
0.0
 11
-28.0
 21
-10.999999999999986
 31
0.0
  0
LINE
  5
100
100
AcDbEntity
  8
0
  6
CONTINUOUS
 62
               7
100
AcDbLine
 10
-52.0
 20
-12.399999999999977
 30
0.0
 11
-52.0
 21
-10.999999999999986
 31
0.0
  0
LINE
  5
101
100
AcDbEntity
  8
0
  6
CONTINUOUS
 62
               7
100
AcDbLine
 10
-50.0
 20
-9.9999999999999858
 30
0.0
 11
-50.0
 21
-5.9999999999998579
 31
0.0
  0
LINE
  5
102
100
AcDbEntity
  8
0
  6
CONTINUOUS
 62
               7
100
AcDbLine
 10
-49.0
 20
-4.9999999999999858
 30
0.0
 11
-50.0
 21
-5.9999999999998579
 31
0.0
  0
LINE
  5
103
100
AcDbEntity
  8
0
  6
CONTINUOUS
 62
               7
100
AcDbLine
 10
-28.0
 20
-10.999999999999986
 30
0.0
 11
-52.0
 21
-10.999999999999986
 31
0.0
  0
LINE
  5
104
100
AcDbEntity
  8
0
  6
CONTINUOUS
 62
               7
100
AcDbLine
 10
-30.0
 20
-5.9999999999998579
 30
0.0
 11
-50.0
 21
-5.9999999999998579
 31
0.0
  0
LINE
  5
105
100
AcDbEntity
  8
0
  6
CONTINUOUS
 62
               7
100
AcDbLine
 10
-31.0
 20
-4.9999999999999858
 30
0.0
 11
-30.0
 21
-5.9999999999998579
 31
0.0
  0
LINE
  5
106
100
AcDbEntity
  8
0
  6
CONTINUOUS
 62
               7
100
AcDbLine
 10
-30.0
 20
-9.9999999999999858
 30
0.0
 11
-30.0
 21
-5.9999999999998579
 31
0.0
  0
LINE
  5
107
100
AcDbEntity
  8
0
  6
CONTINUOUS
 62
               7
100
AcDbLine
 10
-29.0
 20
-9.9999999999999858
 30
0.0
 11
-51.0
 21
-9.9999999999999858
 31
0.0
  0
LINE
  5
108
100
AcDbEntity
  8
0
  6
CONTINUOUS
 62
               7
100
AcDbLine
 10
-31.0
 20
-4.9999999999999858
 30
0.0
 11
-49.0
 21
-4.9999999999999858
 31
0.0
  0
LINE
  5
109
100
AcDbEntity
  8
0
  6
CONTINUOUS
 62
               7
100
AcDbLine
 10
-51.0
 20
-9.9999999999999858
 30
0.0
 11
-52.0
 21
-10.999999999999986
 31
0.0
  0
LINE
  5
10A
100
AcDbEntity
  8
0
  6
CONTINUOUS
 62
               7
100
AcDbLine
 10
-29.0
 20
-9.9999999999999858
 30
0.0
 11
-28.0
 21
-10.999999999999986
 31
0.0
  0
LINE
  5
10B
100
AcDbEntity
  8
0
  6
CONTINUOUS
 62
               7
100
AcDbLine
 10
-28.0
 20
-17.399999999999977
 30
0.0
 11
-28.0
 21
-17.999999999999986
 31
0.0
  0
LINE
  5
10C
100
AcDbEntity
  8
0
  6
CONTINUOUS
 62
               7
100
AcDbLine
 10
-28.0
 20
-17.999999999999986
 30
0.0
 11
-52.0
 21
-17.999999999999986
 31
0.0
  0
LINE
  5
10D
100
AcDbEntity
  8
0
  6
CONTINUOUS
 62
               7
100
AcDbLine
 10
-29.0
 20
-19.999999999999986
 30
0.0
 11
-29.0
 21
-17.999999999999986
 31
0.0
  0
LINE
  5
10E
100
AcDbEntity
  8
0
  6
CONTINUOUS
 62
               2
100
AcDbLine
 10
-29.0
 20
-17.399999999999977
 30
0.0
 11
-29.0
 21
-17.999999999999986
 31
0.0
  0
LINE
  5
10F
100
AcDbEntity
  8
0
  6
CONTINUOUS
 62
               7
100
AcDbLine
 10
-52.0
 20
-17.399999999999977
 30
0.0
 11
-52.0
 21
-17.999999999999986
 31
0.0
  0
LINE
  5
110
100
AcDbEntity
  8
0
  6
CONTINUOUS
 62
               7
100
AcDbLine
 10
-51.0
 20
-19.999999999999986
 30
0.0
 11
-51.0
 21
-17.999999999999986
 31
0.0
  0
LINE
  5
111
100
AcDbEntity
  8
0
  6
CONTINUOUS
 62
               2
100
AcDbLine
 10
-51.0
 20
-17.399999999999977
 30
0.0
 11
-51.0
 21
-17.999999999999986
 31
0.0
  0
LINE
  5
112
100
AcDbEntity
  8
0
  6
CENTER
 62
               2
100
AcDbLine
 10
-24.0
 20
-27.749599066919359
 30
0.0
 11
-24.0
 21
-42.133185595567852
 31
0.0
  0
LINE
  5
113
100
AcDbEntity
  8
0
  6
CENTER
 62
               2
100
AcDbLine
 10
-56.0
 20
-27.749599066919359
 30
0.0
 11
-56.0
 21
-42.133185595567852
 31
0.0
  0
LINE
  5
114
100
AcDbEntity
  8
0
  6
CONTINUOUS
 62
               7
100
AcDbLine
 10
-48.5
 20
-80.200000000000003
 30
0.0
 11
-48.5
 21
-72.499999999999986
 31
0.0
  0
LINE
  5
115
100
AcDbEntity
  8
0
  6
CONTINUOUS
 62
               7
100
AcDbLine
 10
-31.5
 20
-80.200000000000003
 30
0.0
 11
-31.5
 21
-72.499999999999986
 31
0.0
  0
LINE
  5
116
100
AcDbEntity
  8
0
  6
CONTINUOUS
 62
               7
100
AcDbLine
 10
-31.5
 20
-80.200000000000003
 30
0.0
 11
-48.5
 21
-80.200000000000003
 31
0.0
  0
LINE
  5
117
100
AcDbEntity
  8
0
  6
CENTER
 62
               2
100
AcDbLine
 10
-40.0
 20
0.0
 30
0.0
 11
-40.0
 21
-86.262190612987013
 31
0.0
  0
LINE
  5
118
100
AcDbEntity
  8
0
  6
CONTINUOUS
 62
               7
100
AcDbLine
 10
-26.0
 20
-65.799999999999997
 30
0.0
 11
-54.0
 21
-65.799999999999997
 31
0.0
  0
CIRCLE
  5
119
100
AcDbEntity
  8
0
  6
CONTINUOUS
 62
               7
100
AcDbCircle
 10
-40.0
 20
-50.799999999999997
 30
0.0
 40
8.0
  0
LINE
  5
11A
100
AcDbEntity
  8
0
  6
CONTINUOUS
 62
               7
100
AcDbLine
 10
-55.0
 20
-60.799999999999983
 30
0.0
 11
-56.0
 21
-59.799999999999983
 31
0.0
  0
LINE
  5
11B
100
AcDbEntity
  8
0
  6
CONTINUOUS
 62
               7
100
AcDbLine
 10
-25.0
 20
-60.799999999999983
 30
0.0
 11
-24.0
 21
-59.799999999999983
 31
0.0
  0
ARC
  5
11C
100
AcDbEntity
  8
0
  6
CONTINUOUS
 62
               7
100
AcDbCircle
 10
-55.0
 20
-61.799999999999983
 30
0.0
 40
1.0
100
AcDbArc
 50
0.0
 51
89.999999999999815
  0
LINE
  5
11D
100
AcDbEntity
  8
0
  6
CONTINUOUS
 62
               7
100
AcDbLine
 10
-54.0
 20
-71.499999999999986
 30
0.0
 11
-54.0
 21
-65.799999999999997
 31
0.0
  0
LINE
  5
11E
100
AcDbEntity
  8
0
  6
CONTINUOUS
 62
               7
100
AcDbLine
 10
-53.0
 20
-72.499999999999986
 30
0.0
 11
-54.0
 21
-71.499999999999986
 31
0.0
  0
LINE
  5
11F
100
AcDbEntity
  8
0
  6
CONTINUOUS
 62
               7
100
AcDbLine
 10
-27.0
 20
-72.499999999999986
 30
0.0
 11
-26.0
 21
-71.499999999999986
 31
0.0
  0
LINE
  5
120
100
AcDbEntity
  8
0
  6
CONTINUOUS
 62
               7
100
AcDbLine
 10
-26.0
 20
-71.499999999999986
 30
0.0
 11
-54.0
 21
-71.499999999999986
 31
0.0
  0
LINE
  5
121
100
AcDbEntity
  8
0
  6
CONTINUOUS
 62
               7
100
AcDbLine
 10
-27.0
 20
-72.499999999999986
 30
0.0
 11
-53.0
 21
-72.499999999999986
 31
0.0
  0
LINE
  5
122
100
AcDbEntity
  8
0
  6
CONTINUOUS
 62
               7
100
AcDbLine
 10
-26.0
 20
-71.499999999999986
 30
0.0
 11
-26.0
 21
-65.799999999999997
 31
0.0
  0
ARC
  5
123
100
AcDbEntity
  8
0
  6
CONTINUOUS
 62
               7
100
AcDbCircle
 10
-25.0
 20
-61.799999999999983
 30
0.0
 40
1.0
100
AcDbArc
 50
89.999999999999815
 51
179.99999999999963
  0
LINE
  5
124
100
AcDbEntity
  8
0
  6
CONTINUOUS
 62
               7
100
AcDbLine
 10
-52.0
 20
-40.799999999999997
 30
0.0
 11
-60.0
 21
-40.799999999999997
 31
0.0
  0
LINE
  5
125
100
AcDbEntity
  8
0
  6
CONTINUOUS
 62
               7
100
AcDbLine
 10
-20.0
 20
-40.799999999999997
 30
0.0
 11
-28.0
 21
-40.799999999999997
 31
0.0
  0
LINE
  5
126
100
AcDbEntity
  8
0
  6
CONTINUOUS
 62
               7
100
AcDbLine
 10
-20.0
 20
-27.999999999999986
 30
0.0
 11
-20.0
 21
-59.799999999999983
 31
0.0
  0
LINE
  5
127
100
AcDbEntity
  8
0
  6
CONTINUOUS
 62
               7
100
AcDbLine
 10
-60.0
 20
-27.999999999999986
 30
0.0
 11
-60.0
 21
-59.799999999999983
 31
0.0
  0
LINE
  5
128
100
AcDbEntity
  8
0
  6
CONTINUOUS
 62
               7
100
AcDbLine
 10
-51.0
 20
-26.999999999999986
 30
0.0
 11
-51.0
 21
-60.799999999999983
 31
0.0
  0
LINE
  5
129
100
AcDbEntity
  8
0
  6
CONTINUOUS
 62
               7
100
AcDbLine
 10
-29.0
 20
-26.999999999999986
 30
0.0
 11
-29.0
 21
-60.799999999999983
 31
0.0
  0
LINE
  5
12A
100
AcDbEntity
  8
0
  6
CONTINUOUS
 62
               7
100
AcDbLine
 10
-60.0
 20
-59.799999999999983
 30
0.0
 11
-20.0
 21
-59.799999999999983
 31
0.0
  0
LINE
  5
12B
100
AcDbEntity
  8
0
  6
CONTINUOUS
 62
               7
100
AcDbLine
 10
-29.0
 20
-60.799999999999983
 30
0.0
 11
-28.0
 21
-59.799999999999983
 31
0.0
  0
LINE
  5
12C
100
AcDbEntity
  8
0
  6
CONTINUOUS
 62
               7
100
AcDbLine
 10
-52.0
 20
-59.799999999999983
 30
0.0
 11
-51.0
 21
-60.799999999999983
 31
0.0
  0
LINE
  5
12D
100
AcDbEntity
  8
0
  6
CONTINUOUS
 62
               7
100
AcDbLine
 10
-25.0
 20
-60.799999999999983
 30
0.0
 11
-55.0
 21
-60.799999999999983
 31
0.0
  0
LINE
  5
12E
100
AcDbEntity
  8
0
  6
CONTINUOUS
 62
               7
100
AcDbLine
 10
-20.0
 20
-37.0
 30
0.0
 11
-60.0
 21
-37.0
 31
0.0
  0
LINE
  5
12F
100
AcDbEntity
  8
0
  6
CONTINUOUS
 62
               7
100
AcDbLine
 10
-28.0
 20
-27.999999999999986
 30
0.0
 11
-28.0
 21
-59.799999999999983
 31
0.0
  0
LINE
  5
130
100
AcDbEntity
  8
0
  6
CONTINUOUS
 62
               7
100
AcDbLine
 10
-52.0
 20
-27.999999999999986
 30
0.0
 11
-52.0
 21
-59.799999999999983
 31
0.0
  0
CIRCLE
  5
131
100
AcDbEntity
  8
0
  6
CONTINUOUS
 62
               2
100
AcDbCircle
 10
-40.0
 20
-50.799999999999997
 30
0.0
 40
6.5731535604999163
  0
CIRCLE
  5
132
100
AcDbEntity
  8
0
  6
CONTINUOUS
 62
               7
100
AcDbCircle
 10
-40.0
 20
-50.799999999999997
 30
0.0
 40
5.6912648827136376
  0
LINE
  5
133
100
AcDbEntity
  8
0
  6
CONTINUOUS
 62
               7
100
AcDbLine
 10
-51.0
 20
-65.799999999999997
 30
0.0
 11
-51.0
 21
-65.600000000000009
 31
0.0
  0
LINE
  5
134
100
AcDbEntity
  8
0
  6
CONTINUOUS
 62
               7
100
AcDbLine
 10
-29.0
 20
-65.799999999999997
 30
0.0
 11
-29.0
 21
-65.600000000000009
 31
0.0
  0
LINE
  5
135
100
AcDbEntity
  8
0
  6
CONTINUOUS
 62
               7
100
AcDbLine
 10
-26.0
 20
-65.600000000000009
 30
0.0
 11
-54.0
 21
-65.600000000000009
 31
0.0
  0
LINE
  5
136
100
AcDbEntity
  8
0
  6
CONTINUOUS
 62
               7
100
AcDbLine
 10
-54.0
 20
-65.600000000000009
 30
0.0
 11
-54.0
 21
-61.799999999999983
 31
0.0
  0
LINE
  5
137
100
AcDbEntity
  8
0
  6
CONTINUOUS
 62
               7
100
AcDbLine
 10
-26.0
 20
-65.600000000000009
 30
0.0
 11
-26.0
 21
-61.799999999999983
 31
0.0
  0
LINE
  5
138
100
AcDbEntity
  8
0
  6
CENTER
 62
               2
100
AcDbLine
 10
-63.378120584446606
 20
-50.799999999999983
 30
0.0
 11
-16.621879415553394
 21
-50.799999999999983
 31
0.0
  0
LINE
  5
139
100
AcDbEntity
  8
0
  6
CONTINUOUS
 62
               7
100
AcDbLine
 10
-40.0
 20
-79.440810655794635
 30
0.0
 11
-40.0
 21
-72.500000000000014
 31
0.0
  0
LINE
  5
13A
100
AcDbEntity
  8
0
  6
CENTER
 62
             200
100
AcDbLine
 10
-6.3000000000000682
 20
0.0
 30
0.0
 11
3.6999999999999318
 21
0.0
 31
0.0
  0
ENDBLK
  5
13B
100
AcDbEntity
  8
0
100
AcDbBlockEnd
  0
BLOCK
  5
13C
100
AcDbEntity
  8
0
100
AcDbBlockBegin
  2
NVRA200-3
 70
               0
 10
0.0
 20
0.0
 30
0.0
  3
NVRA200-3
  1

  0
LINE
  5
13D
100
AcDbEntity
  8
0
  6
CENTER
 62
             200
100
AcDbLine
 10
0.0
 20
24.211532994923843
 30
0.0
 11
0.0
 21
-25.093482233502542
 31
0.0
  0
LINE
  5
13E
100
AcDbEntity
  8
0
  6
CENTER
 62
             200
100
AcDbLine
 10
-24.210000000000008
 20
0.0
 30
0.0
 11
24.498335025380726
 21
0.0
 31
0.0
  0
LINE
  5
13F
100
AcDbEntity
  8
0
  6
CONTINUOUS
 62
               4
100
AcDbLine
 10
11.390000000000015
 20
11.230000000000004
 30
0.0
 11
12.359999999999985
 21
12.390000000000001
 31
0.0
  0
LINE
  5
140
100
AcDbEntity
  8
0
  6
CONTINUOUS
 62
               4
100
AcDbLine
 10
9.0900000000000034
 20
13.159999999999997
 30
0.0
 11
10.060000000000002
 21
14.319999999999993
 31
0.0
  0
LINE
  5
141
100
AcDbEntity
  8
0
  6
CONTINUOUS
 62
               4
100
AcDbLine
 10
9.0900000000000034
 20
13.159999999999997
 30
0.0
 11
9.6500000000000057
 21
11.489999999999995
 31
0.0
  0
LINE
  5
142
100
AcDbEntity
  8
0
  6
CONTINUOUS
 62
               4
100
AcDbLine
 10
9.6500000000000057
 20
11.489999999999995
 30
0.0
 11
11.390000000000015
 21
11.230000000000004
 31
0.0
  0
LINE
  5
143
100
AcDbEntity
  8
0
  6
CONTINUOUS
 62
               4
100
AcDbLine
 10
-11.379999999999995
 20
11.230000000000004
 30
0.0
 11
-12.353963679399783
 21
12.394740070210062
 31
0.0
  0
LINE
  5
144
100
AcDbEntity
  8
0
  6
CONTINUOUS
 62
               4
100
AcDbLine
 10
-11.379999999999995
 20
11.230000000000004
 30
0.0
 11
-9.6400000000000148
 21
11.489999999999995
 31
0.0
  0
LINE
  5
145
100
AcDbEntity
  8
0
  6
CONTINUOUS
 62
               4
100
AcDbLine
 10
-9.6400000000000148
 20
11.489999999999995
 30
0.0
 11
-9.0900000000000034
 21
13.159999999999997
 31
0.0
  0
LINE
  5
146
100
AcDbEntity
  8
0
  6
CONTINUOUS
 62
               4
100
AcDbLine
 10
-9.0900000000000034
 20
13.159999999999997
 30
0.0
 11
-10.053382985233668
 21
14.324087773824004
 31
0.0
  0
CIRCLE
  5
147
100
AcDbEntity
  8
0
  6
CONTINUOUS
 62
               4
100
AcDbCircle
 10
0.0
 20
0.0
 30
0.0
 40
21.25
  0
CIRCLE
  5
148
100
AcDbEntity
  8
0
  6
CONTINUOUS
 62
               4
100
AcDbCircle
 10
0.0
 20
0.0
 30
0.0
 40
17.5
  0
CIRCLE
  5
149
100
AcDbEntity
  8
0
  6
CONTINUOUS
 62
               4
100
AcDbCircle
 10
0.0
 20
0.0
 30
0.0
 40
20.75
  0
LINE
  5
14A
100
AcDbEntity
  8
0
  6
CONTINUOUS
 62
               4
100
AcDbLine
 10
11.855683267565752
 20
1.8777557589983758
 30
0.0
 11
17.284545960414903
 21
2.7376031382040509
 31
0.0
  0
LINE
  5
14B
100
AcDbEntity
  8
0
  6
CONTINUOUS
 62
               4
100
AcDbLine
 10
15.451582875031221
 20
8.2157523487530995
 30
0.0
 11
10.597903007184669
 21
5.6350049847536496
 31
0.0
  0
LINE
  5
14C
100
AcDbEntity
  8
0
  6
CONTINUOUS
 62
               4
100
AcDbLine
 10
12.328207517680596
 20
4.1249605332661901
 30
0.0
 11
16.595663966108503
 21
5.5528314870890938
 31
0.0
  0
LINE
  5
14D
100
AcDbEntity
  8
0
  6
CONTINUOUS
 62
               4
100
AcDbLine
 10
11.934971301093725
 20
12.7986897783355
 30
0.0
 11
8.1852446083403549
 21
8.7776002018824499
 31
0.0
  0
LINE
  5
14E
100
AcDbEntity
  8
0
  6
CONTINUOUS
 62
               4
100
AcDbLine
 10
10.313593423786074
 20
7.9138985771133576
 30
0.0
 11
13.883683455096644
 21
10.653325007652597
 31
0.0
  0
LINE
  5
14F
100
AcDbEntity
  8
0
  6
CONTINUOUS
 62
               4
100
AcDbLine
 10
4.8820060529616569
 20
10.965165125374909
 30
0.0
 11
7.1178912538265138
 21
15.987045508745524
 31
0.0
  0
LINE
  5
150
100
AcDbEntity
  8
0
  6
CONTINUOUS
 62
               4
100
AcDbLine
 10
7.1751808090567692
 20
10.840515686873175
 30
0.0
 11
9.6588972429610465
 21
14.593001886175443
 31
0.0
  0
LINE
  5
151
100
AcDbEntity
  8
0
  6
CONTINUOUS
 62
               4
100
AcDbLine
 10
1.0461188360772837
 20
11.957193011267179
 30
0.0
 11
1.5252254980840121
 21
17.433407216605545
 31
0.0
  0
LINE
  5
152
100
AcDbEntity
  8
0
  6
CONTINUOUS
 62
               4
100
AcDbLine
 10
3.2549400527077523
 20
12.585919324915395
 30
0.0
 11
4.3816500709527588
 21
16.942583706616887
 31
0.0
  0
LINE
  5
153
100
AcDbEntity
  8
0
  6
CONTINUOUS
 62
               4
100
AcDbLine
 10
-2.9024762639258199
 20
11.641196459393981
 30
0.0
 11
-4.233633172994189
 21
16.980175209829937
 31
0.0
  0
LINE
  5
154
100
AcDbEntity
  8
0
  6
CONTINUOUS
 62
               4
100
AcDbLine
 10
-1.0199682444619782
 20
12.959925338530667
 30
0.0
 11
-1.3730341752372794
 21
17.44605334032974
 31
0.0
  0
LINE
  5
155
100
AcDbEntity
  8
0
  6
CONTINUOUS
 62
               4
100
AcDbLine
 10
-6.5372301976909739
 20
10.066451741814987
 30
0.0
 11
-9.5311831127629887
 21
14.676734939044906
 31
0.0
  0
LINE
  5
156
100
AcDbEntity
  8
0
  6
CONTINUOUS
 62
               4
100
AcDbLine
 10
-6.9781087061918186
 20
16.048551301739664
 30
0.0
 11
-5.183737896028191
 21
11.921780967006612
 31
0.0
  0
LINE
  5
157
100
AcDbEntity
  8
0
  6
CONTINUOUS
 62
               4
100
AcDbLine
 10
-13.790188188117639
 20
10.774075818198995
 30
0.0
 11
-9.4523812687583586
 21
7.3850096215422383
 31
0.0
  0
LINE
  5
158
100
AcDbEntity
  8
0
  6
CONTINUOUS
 62
               4
100
AcDbLine
 10
-11.822828633274042
 20
12.902353394177169
 30
0.0
 11
-8.7826726990035695
 21
9.5846053785316201
 31
0.0
  0
LINE
  5
159
100
AcDbEntity
  8
0
  6
CONTINUOUS
 62
               4
100
AcDbLine
 10
-11.348934225243426
 20
3.9077514351594687
 30
0.0
 11
-16.546575072988048
 21
5.6974427030002204
 31
0.0
  0
LINE
  5
15A
100
AcDbEntity
  8
0
  6
CONTINUOUS
 62
               4
100
AcDbLine
 10
-15.379299471584403
 20
8.3502783045431386
 30
0.0
 11
-11.424622464605562
 21
6.2030638833749236
 31
0.0
  0
LINE
  5
15B
100
AcDbEntity
  8
0
  6
CONTINUOUS
 62
               4
100
AcDbLine
 10
-12.002867546044683
 20
0.0
 30
0.0
 11
-17.5
 21
-0.0000000000000284
 31
0.0
  0
LINE
  5
15C
100
AcDbEntity
  8
0
  6
CONTINUOUS
 62
               4
100
AcDbLine
 10
-17.25999802690157
 20
2.8883331025618304
 30
0.0
 11
-12.821712819984015
 21
2.14561887618882
 31
0.0
  0
LINE
  5
15D
100
AcDbEntity
  8
0
  6
CONTINUOUS
 62
               4
100
AcDbLine
 10
12.002867546044683
 20
0.0
 30
0.0
 11
17.5
 21
-0.0000000000000284
 31
0.0
  0
ARC
  5
15E
100
AcDbEntity
  8
0
  6
CONTINUOUS
 62
               4
100
AcDbCircle
 10
-0.0028967495007635
 20
-0.0011693291916686
 30
0.0
 40
1.4951398874124771
100
AcDbArc
 50
235.95230037291242
 51
348.07937722263807
  0
ARC
  5
15F
100
AcDbEntity
  8
0
  6
CONTINUOUS
 62
               4
100
AcDbCircle
 10
-0.003144822616207
 20
-0.0007849624915508
 30
0.0
 40
1.4967106494039051
100
AcDbArc
 50
47.914951975751826
 51
160.04562917631358
  0
LINE
  5
160
100
AcDbEntity
  8
0
  6
CONTINUOUS
 62
               4
100
AcDbLine
 10
-4.25
 20
-2.6199999999999903
 30
0.0
 11
-5.7000000000000171
 21
-1.8500000000000085
 31
0.0
  0
LINE
  5
161
100
AcDbEntity
  8
0
  6
CONTINUOUS
 62
               4
100
AcDbLine
 10
-5.7000000000000171
 20
-1.8500000000000085
 30
0.0
 11
-4.9800000000000182
 21
-0.3800000000000097
 31
0.0
  0
LINE
  5
162
100
AcDbEntity
  8
0
  6
CONTINUOUS
 62
               4
100
AcDbLine
 10
-1.4099999999999966
 20
0.5099999999999909
 30
0.0
 11
-4.9800000000000182
 21
-0.3800000000000097
 31
0.0
  0
LINE
  5
163
100
AcDbEntity
  8
0
  6
CONTINUOUS
 62
               4
100
AcDbLine
 10
-0.8400000000000034
 20
-1.2399999999999949
 30
0.0
 11
-4.25
 21
-2.6199999999999903
 31
0.0
  0
LINE
  5
164
100
AcDbEntity
  8
0
  6
CONTINUOUS
 62
               4
100
AcDbLine
 10
11.409999999999997
 20
3.7000000000000171
 30
0.0
 11
0.9999999999999716
 21
1.1099999999999994
 31
0.0
  0
LINE
  5
165
100
AcDbEntity
  8
0
  6
CONTINUOUS
 62
               4
100
AcDbLine
 10
11.409999999999997
 20
3.7000000000000171
 30
0.0
 11
1.460000000000008
 21
-0.3100000000000023
 31
0.0
  0
CIRCLE
  5
166
100
AcDbEntity
  8
0
  6
CONTINUOUS
 62
               4
100
AcDbCircle
 10
-3.5
 20
-12.0
 30
0.0
 40
1.0
  0
LINE
  5
167
100
AcDbEntity
  8
0
  6
CONTINUOUS
 62
               4
100
AcDbLine
 10
-5.0608360704687811
 20
-12.0
 30
0.0
 11
-1.8150832647532127
 21
-12.0
 31
0.0
  0
LINE
  5
168
100
AcDbEntity
  8
0
  6
CONTINUOUS
 62
               4
100
AcDbLine
 10
-3.5
 20
-13.664788819378217
 30
0.0
 11
-3.5
 21
-10.22232372240714
 31
0.0
  0
LINE
  5
169
100
AcDbEntity
  8
0
  6
CONTINUOUS
 62
               4
100
AcDbLine
 10
5.0608360704687811
 20
-12.0
 30
0.0
 11
1.8150832647532127
 21
-12.0
 31
0.0
  0
LINE
  5
16A
100
AcDbEntity
  8
0
  6
CONTINUOUS
 62
               4
100
AcDbLine
 10
3.5
 20
-13.664788819378217
 30
0.0
 11
3.5
 21
-10.22232372240714
 31
0.0
  0
CIRCLE
  5
16B
100
AcDbEntity
  8
0
  6
CONTINUOUS
 62
               4
100
AcDbCircle
 10
3.5
 20
-12.0
 30
0.0
 40
1.0
  0
ENDBLK
  5
16C
100
AcDbEntity
  8
0
100
AcDbBlockEnd
  0
BLOCK
  5
16D
100
AcDbEntity
  8
0
100
AcDbBlockBegin
  2
NVRA200-4
 70
               0
 10
0.0
 20
0.0
 30
0.0
  3
NVRA200-4
  1

  0
LINE
  5
16E
100
AcDbEntity
  8
0
  6
CONTINUOUS
 62
               4
100
AcDbLine
 10
0.0
 20
-6.5748545454545422
 30
0.0
 11
5.0100000000000051
 21
-6.4200000000000017
 31
0.0
  0
LINE
  5
16F
100
AcDbEntity
  8
0
  6
CONTINUOUS
 62
               4
100
AcDbLine
 10
0.0
 20
-5.718105906313653
 30
0.0
 11
5.8299999999999983
 21
-5.5400000000000063
 31
0.0
  0
LINE
  5
170
100
AcDbEntity
  8
0
  6
CONTINUOUS
 62
               4
100
AcDbLine
 10
0.0
 20
5.7181059063136388
 30
0.0
 11
5.8299999999999983
 21
5.539999999999992
 31
0.0
  0
LINE
  5
171
100
AcDbEntity
  8
0
  6
CONTINUOUS
 62
               4
100
AcDbLine
 10
0.0
 20
6.5748545454545422
 30
0.0
 11
5.0100000000000051
 21
6.4200000000000017
 31
0.0
  0
LINE
  5
172
100
AcDbEntity
  8
0
  6
CONTINUOUS
 62
               4
100
AcDbLine
 10
-39.989999999999995
 20
21.25
 30
0.0
 11
-39.989999999999995
 21
-21.25
 31
0.0
  0
LINE
  5
173
100
AcDbEntity
  8
0
  6
CONTINUOUS
 62
               4
100
AcDbLine
 10
-39.989999999999995
 20
21.25
 30
0.0
 11
-36.989999999999995
 21
21.25
 31
0.0
  0
LINE
  5
174
100
AcDbEntity
  8
0
  6
CONTINUOUS
 62
               4
100
AcDbLine
 10
-36.989999999999995
 20
21.25
 30
0.0
 11
-36.989999999999995
 21
-21.25
 31
0.0
  0
LINE
  5
175
100
AcDbEntity
  8
0
  6
CONTINUOUS
 62
               4
100
AcDbLine
 10
-13.489999999999995
 20
19.0
 30
0.0
 11
-13.489999999999995
 21
-19.0
 31
0.0
  0
LINE
  5
176
100
AcDbEntity
  8
0
  6
CONTINUOUS
 62
               4
100
AcDbLine
 10
-36.989999999999995
 20
21.0
 30
0.0
 11
-15.489999999999995
 21
21.0
 31
0.0
  0
LINE
  5
177
100
AcDbEntity
  8
0
  6
CONTINUOUS
 62
               4
100
AcDbLine
 10
-36.989999999999995
 20
-21.0
 30
0.0
 11
-15.489999999999995
 21
-21.0
 31
0.0
  0
LINE
  5
178
100
AcDbEntity
  8
0
  6
CONTINUOUS
 62
               4
100
AcDbLine
 10
-13.489999999999995
 20
-7.0
 30
0.0
 11
-5.9899999999999949
 21
-7.0
 31
0.0
  0
LINE
  5
179
100
AcDbEntity
  8
0
  6
CONTINUOUS
 62
               4
100
AcDbLine
 10
-13.489999999999995
 20
7.0
 30
0.0
 11
-5.9899999999999949
 21
7.0
 31
0.0
  0
LINE
  5
17A
100
AcDbEntity
  8
0
  6
CONTINUOUS
 62
               4
100
AcDbLine
 10
6.0100000000000051
 20
5.3499999999999943
 30
0.0
 11
6.0100000000000051
 21
-5.3499999999999943
 31
0.0
  0
LINE
  5
17B
100
AcDbEntity
  8
0
  6
CONTINUOUS
 62
               4
100
AcDbLine
 10
-5.9899999999999949
 20
7.0
 30
0.0
 11
-5.9899999999999949
 21
-7.0
 31
0.0
  0
LINE
  5
17C
100
AcDbEntity
  8
0
  6
CENTER
 62
             200
100
AcDbLine
 10
0.0
 20
7.9899999999999949
 30
0.0
 11
0.0
 21
-8.2199999999999989
 31
0.0
  0
LINE
  5
17D
100
AcDbEntity
  8
0
  6
CONTINUOUS
 62
               4
100
AcDbLine
 10
-5.9899999999999949
 20
6.7600000000000051
 30
0.0
 11
0.0
 21
6.5748545454545422
 31
0.0
  0
LINE
  5
17E
100
AcDbEntity
  8
0
  6
CONTINUOUS
 62
               4
100
AcDbLine
 10
-3.9899999999999949
 20
5.8400000000000034
 30
0.0
 11
0.0
 21
5.7181059063136388
 31
0.0
  0
LINE
  5
17F
100
AcDbEntity
  8
0
  6
CONTINUOUS
 62
               4
100
AcDbLine
 10
-3.9899999999999949
 20
-5.8400000000000034
 30
0.0
 11
0.0
 21
-5.718105906313653
 31
0.0
  0
LINE
  5
180
100
AcDbEntity
  8
0
  6
CONTINUOUS
 62
               4
100
AcDbLine
 10
-5.9899999999999949
 20
-6.7600000000000051
 30
0.0
 11
0.0
 21
-6.5748545454545422
 31
0.0
  0
LINE
  5
181
100
AcDbEntity
  8
0
  6
CONTINUOUS
 62
               4
100
AcDbLine
 10
5.0100000000000051
 20
6.4200000000000017
 30
0.0
 11
6.0100000000000051
 21
5.3499999999999943
 31
0.0
  0
LINE
  5
182
100
AcDbEntity
  8
0
  6
CONTINUOUS
 62
               4
100
AcDbLine
 10
5.0100000000000051
 20
-6.4200000000000017
 30
0.0
 11
6.0100000000000051
 21
-5.3499999999999943
 31
0.0
  0
LINE
  5
183
100
AcDbEntity
  8
0
  6
CONTINUOUS
 62
               4
100
AcDbLine
 10
-3.9899999999999949
 20
6.7000000000000028
 30
0.0
 11
-3.9899999999999949
 21
-6.7000000000000028
 31
0.0
  0
ARC
  5
184
100
AcDbEntity
  8
0
  6
CONTINUOUS
 62
               4
100
AcDbCircle
 10
-15.489998474121677
 20
-19.000001525878332
 30
0.0
 40
1.9999984741222565
100
AcDbArc
 50
269.99995628677198
 51
0.0000437132273695
  0
ARC
  5
185
100
AcDbEntity
  8
0
  6
CONTINUOUS
 62
               4
100
AcDbCircle
 10
-15.489998474121677
 20
19.000001525878332
 30
0.0
 40
1.9999984741222565
100
AcDbArc
 50
359.99995628677181
 51
90.000043713227171
  0
LINE
  5
186
100
AcDbEntity
  8
0
  6
CONTINUOUS
 62
               4
100
AcDbLine
 10
-5.9899999999999949
 20
7.0
 30
0.0
 11
-13.489999999999995
 21
-7.0
 31
0.0
  0
LINE
  5
187
100
AcDbEntity
  8
0
  6
CONTINUOUS
 62
               4
100
AcDbLine
 10
-5.9899999999999949
 20
-7.0
 30
0.0
 11
-13.489999999999995
 21
7.0
 31
0.0
  0
LINE
  5
188
100
AcDbEntity
  8
0
  6
CONTINUOUS
 62
               4
100
AcDbLine
 10
-39.989999999999995
 20
-21.25
 30
0.0
 11
-36.989999999999995
 21
-21.25
 31
0.0
  0
LINE
  5
189
100
AcDbEntity
  8
0
  6
CENTER
 62
             200
100
AcDbLine
 10
-44.00798984771572
 20
0.0
 30
0.0
 11
9.269999999999996
 21
0.0
 31
0.0
  0
ENDBLK
  5
18A
100
AcDbEntity
  8
0
100
AcDbBlockEnd
  0
BLOCK
  5
18B
100
AcDbEntity
  8
0
100
AcDbBlockBegin
  2
NVRA200-5
 70
               0
 10
0.0
 20
0.0
 30
0.0
  3
NVRA200-5
  1

  0
LINE
  5
18C
100
AcDbEntity
  8
0
  6
CONTINUOUS
 62
               4
100
AcDbLine
 10
20.0
 20
17.0
 30
0.0
 11
20.0
 21
-17.0
 31
0.0
  0
LINE
  5
18D
100
AcDbEntity
  8
0
  6
CONTINUOUS
 62
               4
100
AcDbLine
 10
-20.0
 20
17.0
 30
0.0
 11
-20.0
 21
-17.0
 31
0.0
  0
LINE
  5
18E
100
AcDbEntity
  8
0
  6
CONTINUOUS
 62
               4
100
AcDbLine
 10
-17.0
 20
-20.0
 30
0.0
 11
17.0
 21
-20.0
 31
0.0
  0
LINE
  5
18F
100
AcDbEntity
  8
0
  6
CONTINUOUS
 62
               4
100
AcDbLine
 10
-17.0
 20
20.0
 30
0.0
 11
17.0
 21
20.0
 31
0.0
  0
ARC
  5
190
100
AcDbEntity
  8
0
  6
CONTINUOUS
 62
               4
100
AcDbCircle
 10
-17.003653168526725
 20
17.003653168526725
 30
0.0
 40
2.99634905845768
100
AcDbArc
 50
89.930144590565391
 51
180.06985540943401
  0
ARC
  5
191
100
AcDbEntity
  8
0
  6
CONTINUOUS
 62
               4
100
AcDbCircle
 10
-16.996342377511088
 20
-16.996342377511084
 30
0.0
 40
3.0036598494733067
100
AcDbArc
 50
180.0697703448327
 51
269.93022965516622
  0
ARC
  5
192
100
AcDbEntity
  8
0
  6
CONTINUOUS
 62
               4
100
AcDbCircle
 10
16.996342377511084
 20
-16.996342377511084
 30
0.0
 40
3.0036598494733067
100
AcDbArc
 50
270.06977034483259
 51
359.9302296551661
  0
ARC
  5
193
100
AcDbEntity
  8
0
  6
CONTINUOUS
 62
               4
100
AcDbCircle
 10
17.003653168526725
 20
17.003653168526725
 30
0.0
 40
2.99634905845768
100
AcDbArc
 50
359.93014459056474
 51
90.06985540943424
  0
LINE
  5
194
100
AcDbEntity
  8
0
  6
CONTINUOUS
 62
               4
100
AcDbLine
 10
4.5
 20
-20.0
 30
0.0
 11
4.5
 21
-20.5
 31
0.0
  0
LINE
  5
195
100
AcDbEntity
  8
0
  6
CONTINUOUS
 62
               4
100
AcDbLine
 10
-4.5
 20
-20.0
 30
0.0
 11
-4.5
 21
-20.5
 31
0.0
  0
LINE
  5
196
100
AcDbEntity
  8
0
  6
CONTINUOUS
 62
               4
100
AcDbLine
 10
-4.5
 20
-25.5
 30
0.0
 11
4.5
 21
-25.5
 31
0.0
  0
LINE
  5
197
100
AcDbEntity
  8
0
  6
CONTINUOUS
 62
               4
100
AcDbLine
 10
-4.0
 20
-20.0
 30
0.0
 11
-4.0
 21
-20.5
 31
0.0
  0
LINE
  5
198
100
AcDbEntity
  8
0
  6
CONTINUOUS
 62
               4
100
AcDbLine
 10
4.0
 20
-20.0
 30
0.0
 11
4.0
 21
-20.5
 31
0.0
  0
LINE
  5
199
100
AcDbEntity
  8
0
  6
CONTINUOUS
 62
               4
100
AcDbLine
 10
-4.5
 20
-24.5
 30
0.0
 11
4.5
 21
-24.5
 31
0.0
  0
LINE
  5
19A
100
AcDbEntity
  8
0
  6
CONTINUOUS
 62
               4
100
AcDbLine
 10
-4.5
 20
-20.5
 30
0.0
 11
4.5
 21
-20.5
 31
0.0
  0
LINE
  5
19B
100
AcDbEntity
  8
0
  6
CONTINUOUS
 62
               4
100
AcDbLine
 10
-4.5
 20
-24.5
 30
0.0
 11
-4.5
 21
-25.5
 31
0.0
  0
LINE
  5
19C
100
AcDbEntity
  8
0
  6
CONTINUOUS
 62
               4
100
AcDbLine
 10
-4.0
 20
-24.5
 30
0.0
 11
-4.0
 21
-25.5
 31
0.0
  0
LINE
  5
19D
100
AcDbEntity
  8
0
  6
CONTINUOUS
 62
               4
100
AcDbLine
 10
4.0
 20
-24.5
 30
0.0
 11
4.0
 21
-25.5
 31
0.0
  0
LINE
  5
19E
100
AcDbEntity
  8
0
  6
CONTINUOUS
 62
               4
100
AcDbLine
 10
4.5
 20
-24.5
 30
0.0
 11
4.5
 21
-25.5
 31
0.0
  0
LINE
  5
19F
100
AcDbEntity
  8
0
  6
CONTINUOUS
 62
               4
100
AcDbLine
 10
4.2999999999999972
 20
-20.5
 30
0.0
 11
4.2999999999999972
 21
-24.5
 31
0.0
  0
LINE
  5
1A0
100
AcDbEntity
  8
0
  6
CONTINUOUS
 62
               4
100
AcDbLine
 10
-4.2999999999999972
 20
-20.5
 30
0.0
 11
-4.2999999999999972
 21
-24.5
 31
0.0
  0
CIRCLE
  5
1A1
100
AcDbEntity
  8
0
  6
CONTINUOUS
 62
               4
100
AcDbCircle
 10
14.488887786865234
 20
-3.8749676513671858
 30
0.0
 40
1.0
  0
LINE
  5
1A2
100
AcDbEntity
  8
0
  6
CONTINUOUS
 62
               4
100
AcDbLine
 10
0.0
 20
12.0
 30
0.0
 11
0.7999999999999972
 21
13.010000000000005
 31
0.0
  0
LINE
  5
1A3
100
AcDbEntity
  8
0
  6
CONTINUOUS
 62
               4
100
AcDbLine
 10
-0.7999999999999972
 20
13.010000000000005
 30
0.0
 11
0.0
 21
12.0
 31
0.0
  0
LINE
  5
1A4
100
AcDbEntity
  8
0
  6
CONTINUOUS
 62
               4
100
AcDbLine
 10
0.7999999999999972
 20
15.5
 30
0.0
 11
0.7999999999999972
 21
13.010000000000005
 31
0.0
  0
LINE
  5
1A5
100
AcDbEntity
  8
0
  6
CONTINUOUS
 62
               4
100
AcDbLine
 10
-0.7999999999999972
 20
15.5
 30
0.0
 11
-0.7999999999999972
 21
13.010000000000005
 31
0.0
  0
LINE
  5
1A6
100
AcDbEntity
  8
0
  6
CONTINUOUS
 62
               4
100
AcDbLine
 10
-0.2999999999999972
 20
16.0
 30
0.0
 11
0.2999999999999972
 21
16.0
 31
0.0
  0
ARC
  5
1A7
100
AcDbEntity
  8
0
  6
CONTINUOUS
 62
               4
100
AcDbCircle
 10
0.3036442533337223
 20
15.503644253333718
 30
0.0
 40
0.4963691245746421
100
AcDbArc
 50
359.57934085540131
 51
90.42065914459846
  0
ARC
  5
1A8
100
AcDbEntity
  8
0
  6
CONTINUOUS
 62
               4
100
AcDbCircle
 10
-0.3036246804515344
 20
15.503624680451537
 30
0.0
 40
0.4963885536202649
100
AcDbArc
 50
89.581616586273299
 51
180.41838341372659
  0
LINE
  5
1A9
100
AcDbEntity
  8
0
  6
CONTINUOUS
 62
               4
100
AcDbLine
 10
-2.1799999999999997
 20
11.799999999999997
 30
0.0
 11
-1.5799999999999983
 21
12.939999999999998
 31
0.0
  0
LINE
  5
1AA
100
AcDbEntity
  8
0
  6
CONTINUOUS
 62
               4
100
AcDbLine
 10
-3.1499999999999986
 20
12.640000000000001
 30
0.0
 11
-2.1799999999999997
 21
11.799999999999997
 31
0.0
  0
LINE
  5
1AB
100
AcDbEntity
  8
0
  6
CONTINUOUS
 62
               4
100
AcDbLine
 10
-2.0300000000000011
 20
15.390000000000001
 30
0.0
 11
-1.5799999999999983
 21
12.939999999999998
 31
0.0
  0
LINE
  5
1AC
100
AcDbEntity
  8
0
  6
CONTINUOUS
 62
               4
100
AcDbLine
 10
-3.6099999999999994
 20
15.100000000000009
 30
0.0
 11
-3.1499999999999986
 21
12.640000000000001
 31
0.0
  0
LINE
  5
1AD
100
AcDbEntity
  8
0
  6
CONTINUOUS
 62
               4
100
AcDbLine
 10
-3.2100000000000009
 20
15.680000000000007
 30
0.0
 11
-2.6199999999999974
 21
15.790000000000006
 31
0.0
  0
ARC
  5
1AE
100
AcDbEntity
  8
0
  6
CONTINUOUS
 62
               4
100
AcDbCircle
 10
-2.5230459223986514
 20
15.29788226446199
 30
0.0
 40
0.5015774703817837
100
AcDbArc
 50
10.582787099793693
 51
101.14533274438118
  0
ARC
  5
1AF
100
AcDbEntity
  8
0
  6
CONTINUOUS
 62
               4
100
AcDbCircle
 10
-3.1211704381197123
 20
15.190807198703254
 30
0.0
 40
0.4971924053164979
100
AcDbArc
 50
100.29185497505021
 51
190.52356764992865
  0
LINE
  5
1B0
100
AcDbEntity
  8
0
  6
CONTINUOUS
 62
               4
100
AcDbLine
 10
-4.2999999999999972
 20
11.210000000000008
 30
0.0
 11
-3.9099999999999966
 21
12.430000000000007
 31
0.0
  0
LINE
  5
1B1
100
AcDbEntity
  8
0
  6
CONTINUOUS
 62
               4
100
AcDbLine
 10
-5.3999999999999986
 20
11.859999999999999
 30
0.0
 11
-4.2999999999999972
 21
11.210000000000008
 31
0.0
  0
LINE
  5
1B2
100
AcDbEntity
  8
0
  6
CONTINUOUS
 62
               4
100
AcDbLine
 10
-4.7999999999999972
 20
14.760000000000005
 30
0.0
 11
-3.9099999999999966
 21
12.430000000000007
 31
0.0
  0
LINE
  5
1B3
100
AcDbEntity
  8
0
  6
CONTINUOUS
 62
               4
100
AcDbLine
 10
-6.2999999999999972
 20
14.189999999999998
 30
0.0
 11
-5.3999999999999986
 21
11.859999999999999
 31
0.0
  0
LINE
  5
1B4
100
AcDbEntity
  8
0
  6
CONTINUOUS
 62
               4
100
AcDbLine
 10
-6.009999999999998
 20
14.829999999999998
 30
0.0
 11
-5.4500000000000028
 21
15.049999999999997
 31
0.0
  0
ARC
  5
1B5
100
AcDbEntity
  8
0
  6
CONTINUOUS
 62
               4
100
AcDbCircle
 10
-5.2688045323794057
 20
14.58267949639098
 30
0.0
 40
0.5012187651910358
100
AcDbArc
 50
20.718609891743817
 51
111.19294356952179
  0
ARC
  5
1B6
100
AcDbEntity
  8
0
  6
CONTINUOUS
 62
               4
100
AcDbCircle
 10
-5.8367741942238354
 20
14.365803931757682
 30
0.0
 40
0.495464599702574
100
AcDbArc
 50
110.46425612636844
 51
200.78280664028247
  0
LINE
  5
1B7
100
AcDbEntity
  8
0
  6
CONTINUOUS
 62
               4
100
AcDbLine
 10
-6.269999999999996
 20
10.230000000000004
 30
0.0
 11
-6.1099999999999994
 21
11.510000000000005
 31
0.0
  0
LINE
  5
1B8
100
AcDbEntity
  8
0
  6
CONTINUOUS
 62
               4
100
AcDbLine
 10
-7.4699999999999989
 20
10.670000000000002
 30
0.0
 11
-6.269999999999996
 21
10.230000000000004
 31
0.0
  0
LINE
  5
1B9
100
AcDbEntity
  8
0
  6
CONTINUOUS
 62
               4
100
AcDbLine
 10
-7.4099999999999966
 20
13.640000000000001
 30
0.0
 11
-6.1099999999999994
 21
11.510000000000005
 31
0.0
  0
LINE
  5
1BA
100
AcDbEntity
  8
0
  6
CONTINUOUS
 62
               4
100
AcDbLine
 10
-8.7800000000000011
 20
12.799999999999997
 30
0.0
 11
-7.4699999999999989
 21
10.670000000000002
 31
0.0
  0
LINE
  5
1BB
100
AcDbEntity
  8
0
  6
CONTINUOUS
 62
               4
100
AcDbLine
 10
-8.6099999999999994
 20
13.489999999999995
 30
0.0
 11
-8.1000000000000014
 21
13.799999999999997
 31
0.0
  0
ARC
  5
1BC
100
AcDbEntity
  8
0
  6
CONTINUOUS
 62
               4
100
AcDbCircle
 10
-7.8343242662479327
 20
13.377914101805771
 30
0.0
 40
0.4987385096010997
100
AcDbArc
 50
31.701748613470901
 51
122.18775693893602
  0
ARC
  5
1BD
100
AcDbEntity
  8
0
  6
CONTINUOUS
 62
               4
100
AcDbCircle
 10
-8.3557324024442323
 20
13.061412331036976
 30
0.0
 40
0.4983366343687096
100
AcDbArc
 50
120.6793244763863
 51
211.63928454030093
  0
LINE
  5
1BE
100
AcDbEntity
  8
0
  6
CONTINUOUS
 62
               4
100
AcDbLine
 10
-8.0300000000000011
 20
8.9200000000000017
 30
0.0
 11
-8.1000000000000014
 21
10.200000000000003
 31
0.0
  0
LINE
  5
1BF
100
AcDbEntity
  8
0
  6
CONTINUOUS
 62
               4
100
AcDbLine
 10
-9.2899999999999991
 20
9.1299999999999955
 30
0.0
 11
-8.0300000000000011
 21
8.9200000000000017
 31
0.0
  0
LINE
  5
1C0
100
AcDbEntity
  8
0
  6
CONTINUOUS
 62
               4
100
AcDbLine
 10
-9.769999999999996
 20
12.060000000000002
 30
0.0
 11
-8.1000000000000014
 21
10.200000000000003
 31
0.0
  0
LINE
  5
1C1
100
AcDbEntity
  8
0
  6
CONTINUOUS
 62
               4
100
AcDbLine
 10
-10.960000000000001
 20
10.989999999999995
 30
0.0
 11
-9.2899999999999991
 21
9.1299999999999955
 31
0.0
  0
LINE
  5
1C2
100
AcDbEntity
  8
0
  6
CONTINUOUS
 62
               4
100
AcDbLine
 10
-10.920000000000002
 20
11.689999999999998
 30
0.0
 11
-10.480000000000004
 21
12.090000000000003
 31
0.0
  0
ARC
  5
1C3
100
AcDbEntity
  8
0
  6
CONTINUOUS
 62
               4
100
AcDbCircle
 10
-10.139731670610445
 20
11.7263504622195
 30
0.0
 40
0.498019600330683
100
AcDbArc
 50
42.063408364791378
 51
133.09757320189533
  0
ARC
  5
1C4
100
AcDbEntity
  8
0
  6
CONTINUOUS
 62
               4
100
AcDbCircle
 10
-10.594721035037132
 20
11.320269773430681
 30
0.0
 40
0.4924498405790242
100
AcDbArc
 50
131.34047222495025
 51
222.11855192868035
  0
LINE
  5
1C5
100
AcDbEntity
  8
0
  6
CONTINUOUS
 62
               4
100
AcDbLine
 10
-9.519999999999996
 20
7.3100000000000023
 30
0.0
 11
-9.8299999999999983
 21
8.5499999999999972
 31
0.0
  0
LINE
  5
1C6
100
AcDbEntity
  8
0
  6
CONTINUOUS
 62
               4
100
AcDbLine
 10
-10.799999999999997
 20
7.2900000000000063
 30
0.0
 11
-9.519999999999996
 21
7.3100000000000023
 31
0.0
  0
LINE
  5
1C7
100
AcDbEntity
  8
0
  6
CONTINUOUS
 62
               4
100
AcDbLine
 10
-11.810000000000002
 20
10.070000000000007
 30
0.0
 11
-9.8299999999999983
 21
8.5499999999999972
 31
0.0
  0
LINE
  5
1C8
100
AcDbEntity
  8
0
  6
CONTINUOUS
 62
               4
100
AcDbLine
 10
-12.780000000000001
 20
8.7999999999999972
 30
0.0
 11
-10.799999999999997
 21
7.2900000000000063
 31
0.0
  0
LINE
  5
1C9
100
AcDbEntity
  8
0
  6
CONTINUOUS
 62
               4
100
AcDbLine
 10
-12.869999999999997
 20
9.5
 30
0.0
 11
-12.509999999999998
 21
9.980000000000004
 31
0.0
  0
ARC
  5
1CA
100
AcDbEntity
  8
0
  6
CONTINUOUS
 62
               4
100
AcDbCircle
 10
-12.115761263159541
 20
9.6809209356853501
 30
0.0
 40
0.4948459036274728
100
AcDbArc
 50
51.837649090321953
 51
142.81516423001722
  0
ARC
  5
1CB
100
AcDbEntity
  8
0
  6
CONTINUOUS
 62
               4
100
AcDbCircle
 10
-12.478772800405373
 20
9.1988879548781881
 30
0.0
 40
0.499849403643267
100
AcDbArc
 50
141.50754626965386
 51
232.94108511843507
  0
LINE
  5
1CC
100
AcDbEntity
  8
0
  6
CONTINUOUS
 62
               4
100
AcDbLine
 10
-10.689999999999998
 20
5.4500000000000028
 30
0.0
 11
-11.219999999999999
 21
6.6200000000000045
 31
0.0
  0
LINE
  5
1CD
100
AcDbEntity
  8
0
  6
CONTINUOUS
 62
               4
100
AcDbLine
 10
-11.950000000000003
 20
5.1899999999999977
 30
0.0
 11
-10.689999999999998
 21
5.4500000000000028
 31
0.0
  0
LINE
  5
1CE
100
AcDbEntity
  8
0
  6
CONTINUOUS
 62
               4
100
AcDbLine
 10
-13.439999999999998
 20
7.75
 30
0.0
 11
-11.219999999999999
 21
6.6200000000000045
 31
0.0
  0
LINE
  5
1CF
100
AcDbEntity
  8
0
  6
CONTINUOUS
 62
               4
100
AcDbLine
 10
-14.170000000000002
 20
6.3299999999999983
 30
0.0
 11
-11.950000000000003
 21
5.1899999999999977
 31
0.0
  0
LINE
  5
1D0
100
AcDbEntity
  8
0
  6
CONTINUOUS
 62
               4
100
AcDbLine
 10
-14.390000000000001
 20
7.0
 30
0.0
 11
-14.119999999999997
 21
7.5300000000000011
 31
0.0
  0
ARC
  5
1D1
100
AcDbEntity
  8
0
  6
CONTINUOUS
 62
               4
100
AcDbCircle
 10
-13.673771454055014
 20
7.3116572216245999
 30
0.0
 40
0.4967831358700342
100
AcDbArc
 50
61.928669223474557
 51
153.92717030053944
  0
ARC
  5
1D2
100
AcDbEntity
  8
0
  6
CONTINUOUS
 62
               4
100
AcDbCircle
 10
-13.946050557628617
 20
6.7746550407786685
 30
0.0
 40
0.4978669079466208
100
AcDbArc
 50
153.08803820353751
 51
243.26799939329965
  0
LINE
  5
1D3
100
AcDbEntity
  8
0
  6
CONTINUOUS
 62
               4
100
AcDbLine
 10
-11.5
 20
3.4099999999999966
 30
0.0
 11
-12.240000000000002
 21
4.460000000000008
 31
0.0
  0
LINE
  5
1D4
100
AcDbEntity
  8
0
  6
CONTINUOUS
 62
               4
100
AcDbLine
 10
-12.689999999999998
 20
2.9300000000000068
 30
0.0
 11
-11.5
 21
3.4099999999999966
 31
0.0
  0
LINE
  5
1D5
100
AcDbEntity
  8
0
  6
CONTINUOUS
 62
               4
100
AcDbLine
 10
-14.630000000000003
 20
5.1700000000000017
 30
0.0
 11
-12.240000000000002
 21
4.460000000000008
 31
0.0
  0
LINE
  5
1D6
100
AcDbEntity
  8
0
  6
CONTINUOUS
 62
               4
100
AcDbLine
 10
-15.079999999999998
 20
3.6400000000000006
 30
0.0
 11
-12.689999999999998
 21
2.9300000000000068
 31
0.0
  0
LINE
  5
1D7
100
AcDbEntity
  8
0
  6
CONTINUOUS
 62
               4
100
AcDbLine
 10
-15.420000000000002
 20
4.2600000000000051
 30
0.0
 11
-15.25
 21
4.8299999999999983
 31
0.0
  0
ARC
  5
1D8
100
AcDbEntity
  8
0
  6
CONTINUOUS
 62
               4
100
AcDbCircle
 10
-14.774531599648629
 20
4.6982635052416271
 30
0.0
 40
0.4933808911823762
100
AcDbArc
 50
72.965875175221726
 51
164.51371540815489
  0
ARC
  5
1D9
100
AcDbEntity
  8
0
  6
CONTINUOUS
 62
               4
100
AcDbCircle
 10
-14.94447734850641
 20
4.1175446798513207
 30
0.0
 40
0.4964023673615569
100
AcDbArc
 50
163.32302972214794
 51
254.15656086122607
  0
LINE
  5
1DA
100
AcDbEntity
  8
0
  6
CONTINUOUS
 62
               4
100
AcDbLine
 10
-11.93
 20
1.2600000000000051
 30
0.0
 11
-12.850000000000001
 21
2.1599999999999966
 31
0.0
  0
LINE
  5
1DB
100
AcDbEntity
  8
0
  6
CONTINUOUS
 62
               4
100
AcDbLine
 10
-13.009999999999998
 20
0.5700000000000074
 30
0.0
 11
-11.93
 21
1.2600000000000051
 31
0.0
  0
LINE
  5
1DC
100
AcDbEntity
  8
0
  6
CONTINUOUS
 62
               4
100
AcDbLine
 10
-15.329999999999998
 20
2.4200000000000017
 30
0.0
 11
-12.850000000000001
 21
2.1599999999999966
 31
0.0
  0
LINE
  5
1DD
100
AcDbEntity
  8
0
  6
CONTINUOUS
 62
               4
100
AcDbLine
 10
-15.490000000000002
 20
0.8299999999999983
 30
0.0
 11
-13.009999999999998
 21
0.5700000000000074
 31
0.0
  0
LINE
  5
1DE
100
AcDbEntity
  8
0
  6
CONTINUOUS
 62
               4
100
AcDbLine
 10
-15.939999999999998
 20
1.3799999999999955
 30
0.0
 11
-15.880000000000003
 21
1.9699999999999989
 31
0.0
  0
ARC
  5
1DF
100
AcDbEntity
  8
0
  6
CONTINUOUS
 62
               4
100
AcDbCircle
 10
-15.384361871808615
 20
1.9253311766549785
 30
0.0
 40
0.4976469209149096
100
AcDbArc
 50
83.728618076497852
 51
174.85019564850296
  0
ARC
  5
1E0
100
AcDbEntity
  8
0
  6
CONTINUOUS
 62
               4
100
AcDbCircle
 10
-15.444258170552644
 20
1.3265160422751165
 30
0.0
 40
0.4986185868955627
100
AcDbArc
 50
173.84236352241925
 51
264.73645020258198
  0
LINE
  5
1E1
100
AcDbEntity
  8
0
  6
CONTINUOUS
 62
               4
100
AcDbLine
 10
-11.960000000000001
 20
-0.9399999999999977
 30
0.0
 11
-13.019999999999996
 21
-0.2199999999999989
 31
0.0
  0
LINE
  5
1E2
100
AcDbEntity
  8
0
  6
CONTINUOUS
 62
               4
100
AcDbLine
 10
-12.899999999999999
 20
-1.8200000000000074
 30
0.0
 11
-11.960000000000001
 21
-0.9399999999999977
 31
0.0
  0
LINE
  5
1E3
100
AcDbEntity
  8
0
  6
CONTINUOUS
 62
               4
100
AcDbLine
 10
-15.509999999999998
 20
-0.4200000000000017
 30
0.0
 11
-13.019999999999996
 21
-0.2199999999999989
 31
0.0
  0
LINE
  5
1E4
100
AcDbEntity
  8
0
  6
CONTINUOUS
 62
               4
100
AcDbLine
 10
-15.380000000000003
 20
-2.0100000000000051
 30
0.0
 11
-12.899999999999999
 21
-1.8200000000000074
 31
0.0
  0
LINE
  5
1E5
100
AcDbEntity
  8
0
  6
CONTINUOUS
 62
               4
100
AcDbLine
 10
-15.920000000000002
 20
-1.5499999999999972
 30
0.0
 11
-15.969999999999999
 21
-0.9500000000000028
 31
0.0
  0
ARC
  5
1E6
100
AcDbEntity
  8
0
  6
CONTINUOUS
 62
               4
100
AcDbCircle
 10
-15.478025775945483
 20
-0.9123738548397711
 30
0.0
 40
0.4934109483317793
100
AcDbArc
 50
93.715508788626494
 51
184.37346235973541
  0
ARC
  5
1E7
100
AcDbEntity
  8
0
  6
CONTINUOUS
 62
               4
100
AcDbCircle
 10
-15.422558369857445
 20
-1.5130033037456911
 30
0.0
 40
0.4988155279585986
100
AcDbArc
 50
184.2534819791382
 51
274.8943605406626
  0
LINE
  5
1E8
100
AcDbEntity
  8
0
  6
CONTINUOUS
 62
               4
100
AcDbLine
 10
-11.590000000000003
 20
-3.1000000000000085
 30
0.0
 11
-12.769999999999996
 21
-2.5899999999999892
 31
0.0
  0
LINE
  5
1E9
100
AcDbEntity
  8
0
  6
CONTINUOUS
 62
               4
100
AcDbLine
 10
-12.350000000000001
 20
-4.1400000000000006
 30
0.0
 11
-11.590000000000003
 21
-3.1000000000000085
 31
0.0
  0
LINE
  5
1EA
100
AcDbEntity
  8
0
  6
CONTINUOUS
 62
               4
100
AcDbLine
 10
-15.170000000000002
 20
-3.2399999999999949
 30
0.0
 11
-12.769999999999996
 21
-2.5899999999999892
 31
0.0
  0
LINE
  5
1EB
100
AcDbEntity
  8
0
  6
CONTINUOUS
 62
               4
100
AcDbLine
 10
-14.759999999999998
 20
-4.7800000000000011
 30
0.0
 11
-12.350000000000001
 21
-4.1400000000000006
 31
0.0
  0
LINE
  5
1EC
100
AcDbEntity
  8
0
  6
CONTINUOUS
 62
               4
100
AcDbLine
 10
-15.369999999999997
 20
-4.4299999999999926
 30
0.0
 11
-15.530000000000001
 21
-3.8500000000000085
 31
0.0
  0
ARC
  5
1ED
100
AcDbEntity
  8
0
  6
CONTINUOUS
 62
               4
100
AcDbCircle
 10
-15.052848548436572
 20
-3.720368069775148
 30
0.0
 40
0.4944471104809018
100
AcDbArc
 50
103.70566722226522
 51
195.19918927991984
  0
ARC
  5
1EE
100
AcDbEntity
  8
0
  6
CONTINUOUS
 62
               4
100
AcDbCircle
 10
-14.888494145507856
 20
-4.2973755107422704
 30
0.0
 40
0.4994368258960152
100
AcDbArc
 50
195.39952222424566
 51
284.90861387637824
  0
LINE
  5
1EF
100
AcDbEntity
  8
0
  6
CONTINUOUS
 62
               4
100
AcDbLine
 10
2.1799999999999997
 20
11.799999999999997
 30
0.0
 11
3.1499999999999986
 21
12.640000000000001
 31
0.0
  0
LINE
  5
1F0
100
AcDbEntity
  8
0
  6
CONTINUOUS
 62
               4
100
AcDbLine
 10
1.5799999999999983
 20
12.939999999999998
 30
0.0
 11
2.1799999999999997
 21
11.799999999999997
 31
0.0
  0
LINE
  5
1F1
100
AcDbEntity
  8
0
  6
CONTINUOUS
 62
               4
100
AcDbLine
 10
3.6099999999999994
 20
15.100000000000009
 30
0.0
 11
3.1499999999999986
 21
12.640000000000001
 31
0.0
  0
LINE
  5
1F2
100
AcDbEntity
  8
0
  6
CONTINUOUS
 62
               4
100
AcDbLine
 10
2.0300000000000011
 20
15.390000000000001
 30
0.0
 11
1.5799999999999983
 21
12.939999999999998
 31
0.0
  0
LINE
  5
1F3
100
AcDbEntity
  8
0
  6
CONTINUOUS
 62
               4
100
AcDbLine
 10
2.6199999999999974
 20
15.790000000000006
 30
0.0
 11
3.2100000000000009
 21
15.680000000000007
 31
0.0
  0
ARC
  5
1F4
100
AcDbEntity
  8
0
  6
CONTINUOUS
 62
               4
100
AcDbCircle
 10
3.1211892679791831
 20
15.190820184813234
 30
0.0
 40
0.497176264224508
100
AcDbArc
 50
349.47456464360528
 51
79.710012731414025
  0
ARC
  5
1F5
100
AcDbEntity
  8
0
  6
CONTINUOUS
 62
               4
100
AcDbCircle
 10
2.5230581344165799
 20
15.297864251735561
 30
0.0
 40
0.5015927830647133
100
AcDbArc
 50
78.856433618676888
 51
169.41544653714828
  0
LINE
  5
1F6
100
AcDbEntity
  8
0
  6
CONTINUOUS
 62
               4
100
AcDbLine
 10
4.2999999999999972
 20
11.210000000000008
 30
0.0
 11
5.3999999999999986
 21
11.859999999999999
 31
0.0
  0
LINE
  5
1F7
100
AcDbEntity
  8
0
  6
CONTINUOUS
 62
               4
100
AcDbLine
 10
3.9099999999999966
 20
12.430000000000007
 30
0.0
 11
4.2999999999999972
 21
11.210000000000008
 31
0.0
  0
LINE
  5
1F8
100
AcDbEntity
  8
0
  6
CONTINUOUS
 62
               4
100
AcDbLine
 10
6.2999999999999972
 20
14.189999999999998
 30
0.0
 11
5.3999999999999986
 21
11.859999999999999
 31
0.0
  0
LINE
  5
1F9
100
AcDbEntity
  8
0
  6
CONTINUOUS
 62
               4
100
AcDbLine
 10
4.7999999999999972
 20
14.760000000000005
 30
0.0
 11
3.9099999999999966
 21
12.430000000000007
 31
0.0
  0
LINE
  5
1FA
100
AcDbEntity
  8
0
  6
CONTINUOUS
 62
               4
100
AcDbLine
 10
5.4500000000000028
 20
15.049999999999997
 30
0.0
 11
6.009999999999998
 21
14.829999999999998
 31
0.0
  0
ARC
  5
1FB
100
AcDbEntity
  8
0
  6
CONTINUOUS
 62
               4
100
AcDbCircle
 10
5.8367914725528749
 20
14.365811761000529
 30
0.0
 40
0.4954512238412967
100
AcDbArc
 50
339.21563788128094
 51
69.537299352066171
  0
ARC
  5
1FC
100
AcDbEntity
  8
0
  6
CONTINUOUS
 62
               4
100
AcDbCircle
 10
5.2688108308708621
 20
14.582665379082542
 30
0.0
 40
0.501229650876495
100
AcDbArc
 50
68.808311108505634
 51
159.28013543022863
  0
LINE
  5
1FD
100
AcDbEntity
  8
0
  6
CONTINUOUS
 62
               4
100
AcDbLine
 10
6.269999999999996
 20
10.230000000000004
 30
0.0
 11
7.4699999999999989
 21
10.670000000000002
 31
0.0
  0
LINE
  5
1FE
100
AcDbEntity
  8
0
  6
CONTINUOUS
 62
               4
100
AcDbLine
 10
6.1099999999999994
 20
11.510000000000005
 30
0.0
 11
6.269999999999996
 21
10.230000000000004
 31
0.0
  0
LINE
  5
1FF
100
AcDbEntity
  8
0
  6
CONTINUOUS
 62
               4
100
AcDbLine
 10
8.7800000000000011
 20
12.799999999999997
 30
0.0
 11
7.4699999999999989
 21
10.670000000000002
 31
0.0
  0
LINE
  5
200
100
AcDbEntity
  8
0
  6
CONTINUOUS
 62
               4
100
AcDbLine
 10
7.4099999999999966
 20
13.640000000000001
 30
0.0
 11
6.1099999999999994
 21
11.510000000000005
 31
0.0
  0
LINE
  5
201
100
AcDbEntity
  8
0
  6
CONTINUOUS
 62
               4
100
AcDbLine
 10
8.1000000000000014
 20
13.799999999999997
 30
0.0
 11
8.6099999999999994
 21
13.489999999999995
 31
0.0
  0
ARC
  5
202
100
AcDbEntity
  8
0
  6
CONTINUOUS
 62
               4
100
AcDbCircle
 10
8.3557482068940345
 20
13.061416224886926
 30
0.0
 40
0.4983252217054307
100
AcDbArc
 50
328.35938108246916
 51
59.322009900842041
  0
ARC
  5
203
100
AcDbEntity
  8
0
  6
CONTINUOUS
 62
               4
100
AcDbCircle
 10
7.8343262662788504
 20
13.377905476672453
 30
0.0
 40
0.4987447437441728
100
AcDbArc
 50
57.812965335474637
 51
148.29752911211747
  0
LINE
  5
204
100
AcDbEntity
  8
0
  6
CONTINUOUS
 62
               4
100
AcDbLine
 10
8.0300000000000011
 20
8.9200000000000017
 30
0.0
 11
9.2899999999999991
 21
9.1299999999999955
 31
0.0
  0
LINE
  5
205
100
AcDbEntity
  8
0
  6
CONTINUOUS
 62
               4
100
AcDbLine
 10
8.1000000000000014
 20
10.200000000000003
 30
0.0
 11
8.0300000000000011
 21
8.9200000000000017
 31
0.0
  0
LINE
  5
206
100
AcDbEntity
  8
0
  6
CONTINUOUS
 62
               4
100
AcDbLine
 10
10.960000000000001
 20
10.989999999999995
 30
0.0
 11
9.2899999999999991
 21
9.1299999999999955
 31
0.0
  0
LINE
  5
207
100
AcDbEntity
  8
0
  6
CONTINUOUS
 62
               4
100
AcDbLine
 10
9.769999999999996
 20
12.060000000000002
 30
0.0
 11
8.1000000000000014
 21
10.200000000000003
 31
0.0
  0
LINE
  5
208
100
AcDbEntity
  8
0
  6
CONTINUOUS
 62
               4
100
AcDbLine
 10
10.480000000000004
 20
12.090000000000003
 30
0.0
 11
10.920000000000002
 21
11.689999999999998
 31
0.0
  0
ARC
  5
209
100
AcDbEntity
  8
0
  6
CONTINUOUS
 62
               4
100
AcDbCircle
 10
10.594737775523761
 20
11.320270730029918
 30
0.0
 40
0.4924380648810938
100
AcDbArc
 50
317.88005920344523
 51
48.660916642922295
  0
ARC
  5
20A
100
AcDbEntity
  8
0
  6
CONTINUOUS
 62
               4
100
AcDbCircle
 10
10.139731754224584
 20
11.7263484833516
 30
0.0
 40
0.498020988155882
100
AcDbArc
 50
46.902589371092546
 51
137.93642906221987
  0
LINE
  5
20B
100
AcDbEntity
  8
0
  6
CONTINUOUS
 62
               4
100
AcDbLine
 10
9.519999999999996
 20
7.3100000000000023
 30
0.0
 11
10.799999999999997
 21
7.2900000000000063
 31
0.0
  0
LINE
  5
20C
100
AcDbEntity
  8
0
  6
CONTINUOUS
 62
               4
100
AcDbLine
 10
9.8299999999999983
 20
8.5499999999999972
 30
0.0
 11
9.519999999999996
 21
7.3100000000000023
 31
0.0
  0
LINE
  5
20D
100
AcDbEntity
  8
0
  6
CONTINUOUS
 62
               4
100
AcDbLine
 10
12.780000000000001
 20
8.7999999999999972
 30
0.0
 11
10.799999999999997
 21
7.2900000000000063
 31
0.0
  0
LINE
  5
20E
100
AcDbEntity
  8
0
  6
CONTINUOUS
 62
               4
100
AcDbLine
 10
11.810000000000002
 20
10.070000000000007
 30
0.0
 11
9.8299999999999983
 21
8.5499999999999972
 31
0.0
  0
LINE
  5
20F
100
AcDbEntity
  8
0
  6
CONTINUOUS
 62
               4
100
AcDbLine
 10
12.509999999999998
 20
9.980000000000004
 30
0.0
 11
12.869999999999997
 21
9.5
 31
0.0
  0
ARC
  5
210
100
AcDbEntity
  8
0
  6
CONTINUOUS
 62
               4
100
AcDbCircle
 10
12.47817244309546
 20
9.1945921144591409
 30
0.0
 40
0.4967925229915494
100
AcDbArc
 50
307.41274495274246
 51
37.934441726919651
  0
ARC
  5
211
100
AcDbEntity
  8
0
  6
CONTINUOUS
 62
               4
100
AcDbCircle
 10
12.115761846082464
 20
9.6809254695303082
 30
0.0
 40
0.4948426990266443
100
AcDbArc
 50
37.184458336297865
 51
128.16272834336203
  0
LINE
  5
212
100
AcDbEntity
  8
0
  6
CONTINUOUS
 62
               4
100
AcDbLine
 10
10.689999999999998
 20
5.4500000000000028
 30
0.0
 11
11.950000000000003
 21
5.1899999999999977
 31
0.0
  0
LINE
  5
213
100
AcDbEntity
  8
0
  6
CONTINUOUS
 62
               4
100
AcDbLine
 10
11.219999999999999
 20
6.6200000000000045
 30
0.0
 11
10.689999999999998
 21
5.4500000000000028
 31
0.0
  0
LINE
  5
214
100
AcDbEntity
  8
0
  6
CONTINUOUS
 62
               4
100
AcDbLine
 10
14.170000000000002
 20
6.3299999999999983
 30
0.0
 11
11.950000000000003
 21
5.1899999999999977
 31
0.0
  0
LINE
  5
215
100
AcDbEntity
  8
0
  6
CONTINUOUS
 62
               4
100
AcDbLine
 10
13.439999999999998
 20
7.75
 30
0.0
 11
11.219999999999999
 21
6.6200000000000045
 31
0.0
  0
LINE
  5
216
100
AcDbEntity
  8
0
  6
CONTINUOUS
 62
               4
100
AcDbLine
 10
14.119999999999997
 20
7.5300000000000011
 30
0.0
 11
14.390000000000001
 21
7.0
 31
0.0
  0
ARC
  5
217
100
AcDbEntity
  8
0
  6
CONTINUOUS
 62
               4
100
AcDbCircle
 10
13.946065122207301
 20
6.7746502583796939
 30
0.0
 40
0.4978560853993472
100
AcDbArc
 50
296.73075116171333
 51
26.913211241448785
  0
ARC
  5
218
100
AcDbEntity
  8
0
  6
CONTINUOUS
 62
               4
100
AcDbCircle
 10
13.673770317958002
 20
7.3116537100520134
 30
0.0
 40
0.4967856997432143
100
AcDbArc
 50
26.073135896037655
 51
118.07102457994749
  0
LINE
  5
219
100
AcDbEntity
  8
0
  6
CONTINUOUS
 62
               4
100
AcDbLine
 10
11.5
 20
3.4099999999999966
 30
0.0
 11
12.689999999999998
 21
2.9300000000000068
 31
0.0
  0
LINE
  5
21A
100
AcDbEntity
  8
0
  6
CONTINUOUS
 62
               4
100
AcDbLine
 10
12.240000000000002
 20
4.460000000000008
 30
0.0
 11
11.5
 21
3.4099999999999966
 31
0.0
  0
LINE
  5
21B
100
AcDbEntity
  8
0
  6
CONTINUOUS
 62
               4
100
AcDbLine
 10
15.079999999999998
 20
3.6400000000000006
 30
0.0
 11
12.689999999999998
 21
2.9300000000000068
 31
0.0
  0
LINE
  5
21C
100
AcDbEntity
  8
0
  6
CONTINUOUS
 62
               4
100
AcDbLine
 10
14.630000000000003
 20
5.1700000000000017
 30
0.0
 11
12.240000000000002
 21
4.460000000000008
 31
0.0
  0
LINE
  5
21D
100
AcDbEntity
  8
0
  6
CONTINUOUS
 62
               4
100
AcDbLine
 10
15.25
 20
4.8299999999999983
 30
0.0
 11
15.420000000000002
 21
4.2600000000000051
 31
0.0
  0
ARC
  5
21E
100
AcDbEntity
  8
0
  6
CONTINUOUS
 62
               4
100
AcDbCircle
 10
14.944491053651475
 20
4.1175371641266025
 30
0.0
 40
0.4963913956371221
100
AcDbArc
 50
285.84215415838372
 51
16.678255258240966
  0
ARC
  5
21F
100
AcDbEntity
  8
0
  6
CONTINUOUS
 62
               4
100
AcDbCircle
 10
14.774526164848361
 20
4.6982535947234823
 30
0.0
 40
0.4933887749200321
100
AcDbArc
 50
15.487225171807999
 51
107.03318424481549
  0
LINE
  5
220
100
AcDbEntity
  8
0
  6
CONTINUOUS
 62
               4
100
AcDbLine
 10
11.93
 20
1.2600000000000051
 30
0.0
 11
13.009999999999998
 21
0.5700000000000074
 31
0.0
  0
LINE
  5
221
100
AcDbEntity
  8
0
  6
CONTINUOUS
 62
               4
100
AcDbLine
 10
12.850000000000001
 20
2.1599999999999966
 30
0.0
 11
11.93
 21
1.2600000000000051
 31
0.0
  0
LINE
  5
222
100
AcDbEntity
  8
0
  6
CONTINUOUS
 62
               4
100
AcDbLine
 10
15.490000000000002
 20
0.8299999999999983
 30
0.0
 11
13.009999999999998
 21
0.5700000000000074
 31
0.0
  0
LINE
  5
223
100
AcDbEntity
  8
0
  6
CONTINUOUS
 62
               4
100
AcDbLine
 10
15.329999999999998
 20
2.4200000000000017
 30
0.0
 11
12.850000000000001
 21
2.1599999999999966
 31
0.0
  0
LINE
  5
224
100
AcDbEntity
  8
0
  6
CONTINUOUS
 62
               4
100
AcDbLine
 10
15.880000000000003
 20
1.9699999999999989
 30
0.0
 11
15.939999999999998
 21
1.3799999999999955
 31
0.0
  0
ARC
  5
225
100
AcDbEntity
  8
0
  6
CONTINUOUS
 62
               4
100
AcDbCircle
 10
15.444271633571141
 20
1.3265050270781558
 30
0.0
 40
0.4986063832424657
100
AcDbArc
 50
275.2621253793609
 51
6.1590608956374524
  0
ARC
  5
226
100
AcDbEntity
  8
0
  6
CONTINUOUS
 62
               4
100
AcDbCircle
 10
15.384357652607449
 20
1.9253260198535571
 30
0.0
 40
0.4976515859825286
100
AcDbArc
 50
5.1503520669815988
 51
96.270834208016169
  0
ARC
  5
227
100
AcDbEntity
  8
0
  6
CONTINUOUS
 62
               4
100
AcDbCircle
 10
0.0
 20
0.0073107910156267
 30
0.0
 40
3.491697743259353
100
AcDbArc
 50
339.9462100717883
 51
200.05378992821065
  0
ARC
  5
228
100
AcDbEntity
  8
0
  6
CONTINUOUS
 62
               4
100
AcDbCircle
 10
0.0
 20
0.0073107910156267
 30
0.0
 40
8.4931063831530977
100
AcDbArc
 50
339.98207039682046
 51
200.01792960317832
  0
LINE
  5
229
100
AcDbEntity
  8
0
  6
CONTINUOUS
 62
               4
100
AcDbLine
 10
-7.980000000000004
 20
-2.8999999999999915
 30
0.0
 11
-3.2800000000000011
 21
-1.1899999999999977
 31
0.0
  0
LINE
  5
22A
100
AcDbEntity
  8
0
  6
CONTINUOUS
 62
               4
100
AcDbLine
 10
3.2800000000000011
 20
-1.1899999999999977
 30
0.0
 11
7.980000000000004
 21
-2.8999999999999915
 31
0.0
  0
LINE
  5
22B
100
AcDbEntity
  8
0
  6
CONTINUOUS
 62
               4
100
AcDbLine
 10
8.9500000000000028
 20
0.9399999999999977
 30
0.0
 11
11.43
 21
1.2000000000000028
 31
0.0
  0
LINE
  5
22C
100
AcDbEntity
  8
0
  6
CONTINUOUS
 62
               4
100
AcDbLine
 10
8.009999999999998
 20
4.0900000000000034
 30
0.0
 11
10.240000000000002
 21
5.2199999999999989
 31
0.0
  0
LINE
  5
22D
100
AcDbEntity
  8
0
  6
CONTINUOUS
 62
               4
100
AcDbLine
 10
6.019999999999996
 20
6.6899999999999977
 30
0.0
 11
7.6899999999999977
 21
8.5499999999999972
 31
0.0
  0
LINE
  5
22E
100
AcDbEntity
  8
0
  6
CONTINUOUS
 62
               4
100
AcDbLine
 10
3.2199999999999989
 20
8.4099999999999966
 30
0.0
 11
4.1199999999999974
 21
10.739999999999995
 31
0.0
  0
LINE
  5
22F
100
AcDbEntity
  8
0
  6
CONTINUOUS
 62
               4
100
AcDbLine
 10
0.0
 20
9.0
 30
0.0
 11
0.0
 21
11.5
 31
0.0
  0
LINE
  5
230
100
AcDbEntity
  8
0
  6
CONTINUOUS
 62
               4
100
AcDbLine
 10
-3.2199999999999989
 20
8.4099999999999966
 30
0.0
 11
-4.1199999999999974
 21
10.739999999999995
 31
0.0
  0
LINE
  5
231
100
AcDbEntity
  8
0
  6
CONTINUOUS
 62
               4
100
AcDbLine
 10
-6.019999999999996
 20
6.6899999999999977
 30
0.0
 11
-7.6899999999999977
 21
8.5499999999999972
 31
0.0
  0
LINE
  5
232
100
AcDbEntity
  8
0
  6
CONTINUOUS
 62
               4
100
AcDbLine
 10
-8.009999999999998
 20
4.0900000000000034
 30
0.0
 11
-10.240000000000002
 21
5.2199999999999989
 31
0.0
  0
LINE
  5
233
100
AcDbEntity
  8
0
  6
CONTINUOUS
 62
               4
100
AcDbLine
 10
-8.9500000000000028
 20
0.9399999999999977
 30
0.0
 11
-11.43
 21
1.2000000000000028
 31
0.0
  0
LINE
  5
234
100
AcDbEntity
  8
0
  6
CONTINUOUS
 62
               4
100
AcDbLine
 10
-8.6899999999999977
 20
-2.3299999999999983
 30
0.0
 11
-11.100000000000001
 21
-2.9699999999999989
 31
0.0
  0
LINE
  5
235
100
AcDbEntity
  8
0
  6
CONTINUOUS
 62
               4
100
AcDbLine
 10
8.6199999999999974
 20
2.5600000000000023
 30
0.0
 11
10.060000000000002
 21
2.980000000000004
 31
0.0
  0
LINE
  5
236
100
AcDbEntity
  8
0
  6
CONTINUOUS
 62
               4
100
AcDbLine
 10
7.1400000000000006
 20
5.480000000000004
 30
0.0
 11
8.3299999999999983
 21
6.3900000000000006
 31
0.0
  0
LINE
  5
237
100
AcDbEntity
  8
0
  6
CONTINUOUS
 62
               4
100
AcDbLine
 10
4.7000000000000028
 20
7.6800000000000068
 30
0.0
 11
5.480000000000004
 21
8.960000000000008
 31
0.0
  0
LINE
  5
238
100
AcDbEntity
  8
0
  6
CONTINUOUS
 62
               4
100
AcDbLine
 10
1.6400000000000006
 20
8.8500000000000085
 30
0.0
 11
1.9099999999999966
 21
10.329999999999998
 31
0.0
  0
LINE
  5
239
100
AcDbEntity
  8
0
  6
CONTINUOUS
 62
               4
100
AcDbLine
 10
-1.6400000000000006
 20
8.8500000000000085
 30
0.0
 11
-1.9099999999999966
 21
10.329999999999998
 31
0.0
  0
LINE
  5
23A
100
AcDbEntity
  8
0
  6
CONTINUOUS
 62
               4
100
AcDbLine
 10
-4.7000000000000028
 20
7.6800000000000068
 30
0.0
 11
-5.480000000000004
 21
8.960000000000008
 31
0.0
  0
LINE
  5
23B
100
AcDbEntity
  8
0
  6
CONTINUOUS
 62
               4
100
AcDbLine
 10
-7.1400000000000006
 20
5.480000000000004
 30
0.0
 11
-8.3299999999999983
 21
6.3900000000000006
 31
0.0
  0
LINE
  5
23C
100
AcDbEntity
  8
0
  6
CONTINUOUS
 62
               4
100
AcDbLine
 10
-8.6199999999999974
 20
2.5600000000000023
 30
0.0
 11
-10.060000000000002
 21
2.980000000000004
 31
0.0
  0
LINE
  5
23D
100
AcDbEntity
  8
0
  6
CONTINUOUS
 62
               4
100
AcDbLine
 10
-8.9699999999999989
 20
-0.7000000000000028
 30
0.0
 11
-10.460000000000001
 21
-0.8199999999999932
 31
0.0
  0
LINE
  5
23E
100
AcDbEntity
  8
0
  6
CONTINUOUS
 62
               4
100
AcDbLine
 10
8.9699999999999989
 20
-0.7000000000000028
 30
0.0
 11
10.460000000000001
 21
-0.8199999999999932
 31
0.0
  0
LINE
  5
23F
100
AcDbEntity
  8
0
  6
CENTER
 62
             200
100
AcDbLine
 10
-23.0
 20
0.0
 30
0.0
 11
23.0
 21
0.0
 31
0.0
  0
CIRCLE
  5
240
100
AcDbEntity
  8
0
  6
CONTINUOUS
 62
               4
100
AcDbCircle
 10
0.0
 20
0.0073107910156267
 30
0.0
 40
2.3000001907348633
  0
LINE
  5
241
100
AcDbEntity
  8
0
  6
CONTINUOUS
 62
               4
100
AcDbLine
 10
-17.0
 20
-18.899999999999991
 30
0.0
 11
17.0
 21
-18.899999999999991
 31
0.0
  0
LINE
  5
242
100
AcDbEntity
  8
0
  6
CONTINUOUS
 62
               4
100
AcDbLine
 10
-17.0
 20
18.900000000000006
 30
0.0
 11
17.0
 21
18.900000000000006
 31
0.0
  0
LINE
  5
243
100
AcDbEntity
  8
0
  6
CONTINUOUS
 62
               4
100
AcDbLine
 10
18.900000000000006
 20
17.0
 30
0.0
 11
18.900000000000006
 21
-17.0
 31
0.0
  0
LINE
  5
244
100
AcDbEntity
  8
0
  6
CONTINUOUS
 62
               4
100
AcDbLine
 10
-18.899999999999999
 20
17.0
 30
0.0
 11
-18.899999999999999
 21
-17.0
 31
0.0
  0
ARC
  5
245
100
AcDbEntity
  8
0
  6
CONTINUOUS
 62
               4
100
AcDbCircle
 10
-17.00365187923359
 20
17.003651879233601
 30
0.0
 40
1.8963516370536948
100
AcDbArc
 50
89.889663186608686
 51
180.11033681339103
  0
ARC
  5
246
100
AcDbEntity
  8
0
  6
CONTINUOUS
 62
               4
100
AcDbCircle
 10
-16.996341088217918
 20
-16.996341088217918
 30
0.0
 40
1.903662428069318
100
AcDbArc
 50
180.11012474097765
 51
269.88987525902132
  0
ARC
  5
247
100
AcDbEntity
  8
0
  6
CONTINUOUS
 62
               4
100
AcDbCircle
 10
16.996341088217918
 20
-16.996341088217918
 30
0.0
 40
1.903662428069318
100
AcDbArc
 50
270.11012474097754
 51
359.88987525902115
  0
ARC
  5
248
100
AcDbEntity
  8
0
  6
CONTINUOUS
 62
               4
100
AcDbCircle
 10
17.003651879233587
 20
17.003651879233601
 30
0.0
 40
1.8963516370536948
100
AcDbArc
 50
359.88966318660778
 51
90.11033681339093
  0
LINE
  5
249
100
AcDbEntity
  8
0
  6
CONTINUOUS
 62
               4
100
AcDbLine
 10
-7.1000000000000014
 20
-15.0
 30
0.0
 11
-4.8999999999999986
 21
-15.0
 31
0.0
  0
LINE
  5
24A
100
AcDbEntity
  8
0
  6
CONTINUOUS
 62
               4
100
AcDbLine
 10
-7.1000000000000014
 20
-13.0
 30
0.0
 11
-4.8999999999999986
 21
-13.0
 31
0.0
  0
LINE
  5
24B
100
AcDbEntity
  8
0
  6
CONTINUOUS
 62
               4
100
AcDbLine
 10
-4.5
 20
-13.399999999999991
 30
0.0
 11
-4.5
 21
-14.600000000000009
 31
0.0
  0
LINE
  5
24C
100
AcDbEntity
  8
0
  6
CONTINUOUS
 62
               4
100
AcDbLine
 10
-7.5
 20
-13.399999999999991
 30
0.0
 11
-7.5
 21
-14.600000000000009
 31
0.0
  0
LINE
  5
24D
100
AcDbEntity
  8
0
  6
CONTINUOUS
 62
               4
100
AcDbLine
 10
4.5
 20
-13.399999999999991
 30
0.0
 11
4.5
 21
-14.600000000000009
 31
0.0
  0
LINE
  5
24E
100
AcDbEntity
  8
0
  6
CONTINUOUS
 62
               4
100
AcDbLine
 10
7.5
 20
-13.399999999999991
 30
0.0
 11
7.5
 21
-14.600000000000009
 31
0.0
  0
LINE
  5
24F
100
AcDbEntity
  8
0
  6
CONTINUOUS
 62
               4
100
AcDbLine
 10
4.8999999999999986
 20
-13.0
 30
0.0
 11
7.1000000000000014
 21
-13.0
 31
0.0
  0
LINE
  5
250
100
AcDbEntity
  8
0
  6
CONTINUOUS
 62
               4
100
AcDbLine
 10
4.8999999999999986
 20
-15.0
 30
0.0
 11
7.1000000000000014
 21
-15.0
 31
0.0
  0
ARC
  5
251
100
AcDbEntity
  8
0
  6
CONTINUOUS
 62
               4
100
AcDbCircle
 10
-7.1036390243600849
 20
-13.396360975639922
 30
0.0
 40
0.396377680386418
100
AcDbArc
 50
89.473977277911487
 51
180.52602272208739
  0
ARC
  5
252
100
AcDbEntity
  8
0
  6
CONTINUOUS
 62
               4
100
AcDbCircle
 10
-7.0963283378907747
 20
-14.596328337890768
 30
0.0
 40
0.403688359867691
100
AcDbArc
 50
180.52112883139532
 51
269.47887116860431
  0
ARC
  5
253
100
AcDbEntity
  8
0
  6
CONTINUOUS
 62
               4
100
AcDbCircle
 10
-4.9036659923173502
 20
-14.596334007682643
 30
0.0
 40
0.4036826387810386
100
AcDbArc
 50
270.5203314548769
 51
359.47966854512049
  0
ARC
  5
254
100
AcDbEntity
  8
0
  6
CONTINUOUS
 62
               4
100
AcDbCircle
 10
-4.8963552012575988
 20
-13.396355201257606
 30
0.0
 40
0.3963719593031551
100
AcDbArc
 50
359.47313495998566
 51
90.526865040013988
  0
ARC
  5
255
100
AcDbEntity
  8
0
  6
CONTINUOUS
 62
               4
100
AcDbCircle
 10
4.8963609756399151
 20
-13.396360975639922
 30
0.0
 40
0.396377680386418
100
AcDbArc
 50
89.473977277911487
 51
180.52602272208739
  0
ARC
  5
256
100
AcDbEntity
  8
0
  6
CONTINUOUS
 62
               4
100
AcDbCircle
 10
4.9036716621092253
 20
-14.596328337890768
 30
0.0
 40
0.403688359867691
100
AcDbArc
 50
180.52112883139532
 51
269.47887116860431
  0
ARC
  5
257
100
AcDbEntity
  8
0
  6
CONTINUOUS
 62
               4
100
AcDbCircle
 10
7.0963340076826498
 20
-14.596334007682643
 30
0.0
 40
0.4036826387810386
100
AcDbArc
 50
270.5203314548769
 51
359.47966854512049
  0
ARC
  5
258
100
AcDbEntity
  8
0
  6
CONTINUOUS
 62
               4
100
AcDbCircle
 10
7.1036447987424012
 20
-13.396355201257606
 30
0.0
 40
0.3963719593031551
100
AcDbArc
 50
359.47313495998566
 51
90.526865040013988
  0
LINE
  5
259
100
AcDbEntity
  8
0
  6
CENTER
 62
             200
100
AcDbLine
 10
0.0
 20
23.0
 30
0.0
 11
0.0
 21
-39.0
 31
0.0
  0
LINE
  5
25A
100
AcDbEntity
  8
0
  6
CONTINUOUS
 62
               4
100
AcDbLine
 10
0.5
 20
2.25
 30
0.0
 11
0.5
 21
-2.2399999999999949
 31
0.0
  0
LINE
  5
25B
100
AcDbEntity
  8
0
  6
CONTINUOUS
 62
               4
100
AcDbLine
 10
-0.5
 20
2.25
 30
0.0
 11
-0.5
 21
-2.2399999999999949
 31
0.0
  0
LINE
  5
25C
100
AcDbEntity
  8
0
  6
CONTINUOUS
 62
               4
100
AcDbLine
 10
1.0
 20
6.0
 30
0.0
 11
1.0
 21
3.3599999999999994
 31
0.0
  0
LINE
  5
25D
100
AcDbEntity
  8
0
  6
CONTINUOUS
 62
               4
100
AcDbLine
 10
-1.0
 20
6.0
 30
0.0
 11
-1.0
 21
3.3599999999999994
 31
0.0
  0
LINE
  5
25E
100
AcDbEntity
  8
0
  6
CONTINUOUS
 62
               4
100
AcDbLine
 10
1.0
 20
6.0
 30
0.0
 11
0.5600000000000023
 21
8.480000000000004
 31
0.0
  0
LINE
  5
25F
100
AcDbEntity
  8
0
  6
CONTINUOUS
 62
               4
100
AcDbLine
 10
-0.5600000000000023
 20
8.480000000000004
 30
0.0
 11
-1.0
 21
6.0
 31
0.0
  0
LINE
  5
260
100
AcDbEntity
  8
0
  6
CONTINUOUS
 62
               4
100
AcDbLine
 10
1.8500000000000014
 20
-25.5
 30
0.0
 11
1.8500000000000014
 21
-35.5
 31
0.0
  0
LINE
  5
261
100
AcDbEntity
  8
0
  6
CONTINUOUS
 62
               4
100
AcDbLine
 10
-1.8500000000000014
 20
-25.5
 30
0.0
 11
-1.8500000000000014
 21
-35.5
 31
0.0
  0
SPLINE
  5
262
100
AcDbEntity
  8
0
  6
CONTINUOUS
 62
               4
100
AcDbSpline
210
0.0
220
0.0
230
1.0
 70
               0
 71
               3
 72
               0
 73
               0
 74
              17
 44
0.000001
 12
0.6790420394353355
 22
-0.7340993861048382
 32
0.0
 13
0.6790420394353348
 23
-0.7340993861048388
 33
0.0
 11
-1.8500000000000014
 21
-35.5
 31
0.0
 11
-1.6492383276490274
 21
-35.689108871724919
 31
0.0
 11
-1.4199448111369153
 21
-35.847275565801091
 31
0.0
 11
-1.1766932830598655
 21
-35.958329028017182
 31
0.0
 11
-0.9200000000000017
 21
-36.0
 31
0.0
 11
-0.677324472483964
 21
-35.952392178478775
 31
0.0
 11
-0.4486966371086325
 21
-35.842576970189079
 31
0.0
 11
-0.2158573232385749
 21
-35.680282553228011
 31
0.0
 11
0.0
 21
-35.5
 31
0.0
 11
0.2163189155971036
 21
-35.319684459310224
 31
0.0
 11
0.4497227388697542
 21
-35.157416514617317
 31
0.0
 11
0.6779218395216323
 21
-35.047682916762803
 31
0.0
 11
0.9200000000000017
 21
-35.0
 31
0.0
 11
1.1760826219456546
 21
-35.041758382315798
 31
0.0
 11
1.4189100886741066
 21
-35.152731004129329
 31
0.0
 11
1.6487867445861757
 21
-35.310849265364247
 31
0.0
 11
1.8500000000000012
 21
-35.5
 31
0.0
  0
SPLINE
  5
263
100
AcDbEntity
  8
0
  6
CONTINUOUS
 62
               4
100
AcDbSpline
210
0.0
220
0.0
230
1.0
 70
               0
 71
               3
 72
               0
 73
               0
 74
               9
 44
0.000001
 12
-0.6790420394353354
 22
-0.7340993861048383
 32
0.0
 13
-0.6790420394353357
 23
0.7340993861048379
 33
0.0
 11
1.8500000000000014
 21
-35.5
 31
0.0
 11
1.6516674997865619
 21
-35.688724706298196
 31
0.0
 11
1.4256439786261139
 21
-35.84648699256968
 31
0.0
 11
1.1803132527472608
 21
-35.956969551980634
 31
0.0
 11
0.9200000000000017
 21
-36.0
 31
0.0
 11
0.6626329577330351
 21
-35.95649744654083
 31
0.0
 11
0.4204382259631174
 21
-35.84648699256968
 31
0.0
 11
0.1966350426412308
 21
-35.688396895152671
 31
0.0
 11
0.0000000000000002
 21
-35.5
 31
0.0
  0
ENDBLK
  5
264
100
AcDbEntity
  8
0
100
AcDbBlockEnd
  0
BLOCK
  5
265
100
AcDbEntity
  8
0
100
AcDbBlockBegin
  2
NVRA200-6
 70
               0
 10
0.0
 20
0.0
 30
0.0
  3
NVRA200-6
  1

  0
LINE
  5
266
100
AcDbEntity
  8
0
  6
CONTINUOUS
 62
               4
100
AcDbLine
 10
0.0
 20
-6.6045937813440219
 30
0.0
 11
-5.0
 21
-6.7399999999999949
 31
0.0
  0
LINE
  5
267
100
AcDbEntity
  8
0
  6
CONTINUOUS
 62
               4
100
AcDbLine
 10
0.0
 20
-5.7486440677966044
 30
0.0
 11
-3.0
 21
-5.8299999999999983
 31
0.0
  0
LINE
  5
268
100
AcDbEntity
  8
0
  6
CONTINUOUS
 62
               4
100
AcDbLine
 10
0.0
 20
5.7518573046432664
 30
0.0
 11
-3.0
 21
5.8299999999999983
 31
0.0
  0
LINE
  5
269
100
AcDbEntity
  8
0
  6
CONTINUOUS
 62
               4
100
AcDbLine
 10
0.0
 20
6.605000000000004
 30
0.0
 11
-5.0
 21
6.7399999999999949
 31
0.0
  0
LINE
  5
26A
100
AcDbEntity
  8
0
  6
CENTER
 62
             200
100
AcDbLine
 10
0.0
 20
-7.5
 30
0.0
 11
0.0
 21
7.5
 31
0.0
  0
LINE
  5
26B
100
AcDbEntity
  8
0
  6
CONTINUOUS
 62
               4
100
AcDbLine
 10
-48.0
 20
19.0
 30
0.0
 11
-48.0
 21
-19.0
 31
0.0
  0
LINE
  5
26C
100
AcDbEntity
  8
0
  6
CONTINUOUS
 62
               4
100
AcDbLine
 10
-47.0
 20
-20.0
 30
0.0
 11
-26.0
 21
-20.0
 31
0.0
  0
LINE
  5
26D
100
AcDbEntity
  8
0
  6
CONTINUOUS
 62
               4
100
AcDbLine
 10
-47.0
 20
20.0
 30
0.0
 11
-26.0
 21
20.0
 31
0.0
  0
ARC
  5
26E
100
AcDbEntity
  8
0
  6
CONTINUOUS
 62
               4
100
AcDbCircle
 10
-47.003648714683891
 20
19.003648714683891
 30
0.0
 40
0.9963579662299692
100
AcDbArc
 50
89.790179407015501
 51
180.20982059298387
  0
ARC
  5
26F
100
AcDbEntity
  8
0
  6
CONTINUOUS
 62
               4
100
AcDbCircle
 10
-46.99633792366761
 20
-18.99633792366761
 30
0.0
 40
1.0036687572455958
100
AcDbArc
 50
180.20905501157191
 51
269.7909449884275
  0
LINE
  5
270
100
AcDbEntity
  8
0
  6
CONTINUOUS
 62
               4
100
AcDbLine
 10
-26.0
 20
20.0
 30
0.0
 11
-26.0
 21
-20.0
 31
0.0
  0
LINE
  5
271
100
AcDbEntity
  8
0
  6
CONTINUOUS
 62
               4
100
AcDbLine
 10
-26.0
 20
20.0
 30
0.0
 11
-18.460000000000008
 21
19.340000000000003
 31
0.0
  0
LINE
  5
272
100
AcDbEntity
  8
0
  6
CONTINUOUS
 62
               4
100
AcDbLine
 10
-26.0
 20
-20.0
 30
0.0
 11
-18.460000000000008
 21
-19.339999999999989
 31
0.0
  0
LINE
  5
273
100
AcDbEntity
  8
0
  6
CONTINUOUS
 62
               4
100
AcDbLine
 10
-18.0
 20
18.840000000000003
 30
0.0
 11
-18.0
 21
-18.839999999999989
 31
0.0
  0
LINE
  5
274
100
AcDbEntity
  8
0
  6
CONTINUOUS
 62
               4
100
AcDbLine
 10
-35.0
 20
-20.0
 30
0.0
 11
-35.0
 21
-20.5
 31
0.0
  0
LINE
  5
275
100
AcDbEntity
  8
0
  6
CONTINUOUS
 62
               4
100
AcDbLine
 10
-20.5
 20
6.4000000000000057
 30
0.0
 11
-18.0
 21
6.4000000000000057
 31
0.0
  0
LINE
  5
276
100
AcDbEntity
  8
0
  6
CONTINUOUS
 62
               4
100
AcDbLine
 10
-20.5
 20
15.400000000000006
 30
0.0
 11
-18.0
 21
15.400000000000006
 31
0.0
  0
LINE
  5
277
100
AcDbEntity
  8
0
  6
CONTINUOUS
 62
               4
100
AcDbLine
 10
-20.5
 20
15.400000000000006
 30
0.0
 11
-20.5
 21
6.4000000000000057
 31
0.0
  0
LINE
  5
278
100
AcDbEntity
  8
0
  6
CONTINUOUS
 62
               4
100
AcDbLine
 10
-24.0
 20
-1.6000000000000085
 30
0.0
 11
-18.0
 21
-1.6000000000000085
 31
0.0
  0
LINE
  5
279
100
AcDbEntity
  8
0
  6
CONTINUOUS
 62
               4
100
AcDbLine
 10
-24.0
 20
1.6000000000000085
 30
0.0
 11
-18.0
 21
1.6000000000000085
 31
0.0
  0
LINE
  5
27A
100
AcDbEntity
  8
0
  6
CONTINUOUS
 62
               4
100
AcDbLine
 10
-24.0
 20
1.6000000000000085
 30
0.0
 11
-24.0
 21
-1.6000000000000085
 31
0.0
  0
LINE
  5
27B
100
AcDbEntity
  8
0
  6
CONTINUOUS
 62
               4
100
AcDbLine
 10
-23.0
 20
1.6000000000000085
 30
0.0
 11
-23.0
 21
-1.6000000000000085
 31
0.0
  0
LINE
  5
27C
100
AcDbEntity
  8
0
  6
CONTINUOUS
 62
               4
100
AcDbLine
 10
-20.5
 20
-6.3999999999999915
 30
0.0
 11
-18.0
 21
-6.3999999999999915
 31
0.0
  0
LINE
  5
27D
100
AcDbEntity
  8
0
  6
CONTINUOUS
 62
               4
100
AcDbLine
 10
-20.5
 20
-15.399999999999991
 30
0.0
 11
-18.0
 21
-15.399999999999991
 31
0.0
  0
LINE
  5
27E
100
AcDbEntity
  8
0
  6
CONTINUOUS
 62
               4
100
AcDbLine
 10
-20.5
 20
-15.399999999999991
 30
0.0
 11
-20.5
 21
-6.3999999999999915
 31
0.0
  0
LINE
  5
27F
100
AcDbEntity
  8
0
  6
CONTINUOUS
 62
               4
100
AcDbLine
 10
-18.0
 20
11.5
 30
0.0
 11
-15.0
 21
9.769999999999996
 31
0.0
  0
LINE
  5
280
100
AcDbEntity
  8
0
  6
CONTINUOUS
 62
               4
100
AcDbLine
 10
-15.0
 20
9.769999999999996
 30
0.0
 11
-15.0
 21
-9.769999999999996
 31
0.0
  0
LINE
  5
281
100
AcDbEntity
  8
0
  6
CONTINUOUS
 62
               4
100
AcDbLine
 10
-18.0
 20
-11.5
 30
0.0
 11
-15.0
 21
-9.769999999999996
 31
0.0
  0
LINE
  5
282
100
AcDbEntity
  8
0
  6
CONTINUOUS
 62
               4
100
AcDbLine
 10
-5.0
 20
7.0
 30
0.0
 11
-5.0
 21
-7.0
 31
0.0
  0
LINE
  5
283
100
AcDbEntity
  8
0
  6
CONTINUOUS
 62
               4
100
AcDbLine
 10
-15.0
 20
8.0900000000000034
 30
0.0
 11
-5.6299999999999955
 21
8.0900000000000034
 31
0.0
  0
LINE
  5
284
100
AcDbEntity
  8
0
  6
CONTINUOUS
 62
               4
100
AcDbLine
 10
-15.0
 20
4.0400000000000063
 30
0.0
 11
-5.0
 21
4.0400000000000063
 31
0.0
  0
LINE
  5
285
100
AcDbEntity
  8
0
  6
CONTINUOUS
 62
               4
100
AcDbLine
 10
-15.0
 20
-4.0400000000000063
 30
0.0
 11
-5.0
 21
-4.0400000000000063
 31
0.0
  0
LINE
  5
286
100
AcDbEntity
  8
0
  6
CONTINUOUS
 62
               4
100
AcDbLine
 10
-15.0
 20
-8.0799999999999983
 30
0.0
 11
-5.6299999999999955
 21
-8.0799999999999983
 31
0.0
  0
LINE
  5
287
100
AcDbEntity
  8
0
  6
CONTINUOUS
 62
               4
100
AcDbLine
 10
-38.599999999999994
 20
-20.0
 30
0.0
 11
-38.599999999999994
 21
-20.5
 31
0.0
  0
LINE
  5
288
100
AcDbEntity
  8
0
  6
CONTINUOUS
 62
               4
100
AcDbLine
 10
-31.400000000000006
 20
-20.0
 30
0.0
 11
-31.400000000000006
 21
-25.5
 31
0.0
  0
LINE
  5
289
100
AcDbEntity
  8
0
  6
CONTINUOUS
 62
               4
100
AcDbLine
 10
-38.900000000000006
 20
-20.5
 30
0.0
 11
-31.400000000000006
 21
-20.5
 31
0.0
  0
LINE
  5
28A
100
AcDbEntity
  8
0
  6
CONTINUOUS
 62
               4
100
AcDbLine
 10
-38.900000000000006
 20
-24.5
 30
0.0
 11
-31.400000000000006
 21
-24.5
 31
0.0
  0
LINE
  5
28B
100
AcDbEntity
  8
0
  6
CONTINUOUS
 62
               4
100
AcDbLine
 10
-38.599999999999994
 20
-25.5
 30
0.0
 11
-31.400000000000006
 21
-25.5
 31
0.0
  0
LINE
  5
28C
100
AcDbEntity
  8
0
  6
CONTINUOUS
 62
               4
100
AcDbLine
 10
-38.900000000000006
 20
-20.5
 30
0.0
 11
-38.900000000000006
 21
-24.5
 31
0.0
  0
LINE
  5
28D
100
AcDbEntity
  8
0
  6
CONTINUOUS
 62
               4
100
AcDbLine
 10
-38.299999999999983
 20
-20.0
 30
0.0
 11
-38.299999999999983
 21
-20.5
 31
0.0
  0
LINE
  5
28E
100
AcDbEntity
  8
0
  6
CONTINUOUS
 62
               4
100
AcDbLine
 10
-38.299999999999983
 20
-24.5
 30
0.0
 11
-38.299999999999983
 21
-25.5
 31
0.0
  0
LINE
  5
28F
100
AcDbEntity
  8
0
  6
CONTINUOUS
 62
               4
100
AcDbLine
 10
-38.599999999999994
 20
-24.5
 30
0.0
 11
-38.599999999999994
 21
-25.5
 31
0.0
  0
LINE
  5
290
100
AcDbEntity
  8
0
  6
CONTINUOUS
 62
               4
100
AcDbLine
 10
-32.900000000000006
 20
-20.0
 30
0.0
 11
-32.900000000000006
 21
-20.5
 31
0.0
  0
LINE
  5
291
100
AcDbEntity
  8
0
  6
CENTER
 62
             200
100
AcDbLine
 10
-35.0
 20
-17.0
 30
0.0
 11
-35.0
 21
-39.0
 31
0.0
  0
LINE
  5
292
100
AcDbEntity
  8
0
  6
CONTINUOUS
 62
               4
100
AcDbLine
 10
-35.0
 20
-24.5
 30
0.0
 11
-35.0
 21
-25.5
 31
0.0
  0
LINE
  5
293
100
AcDbEntity
  8
0
  6
CONTINUOUS
 62
               4
100
AcDbLine
 10
-32.900000000000006
 20
-24.5
 30
0.0
 11
-32.900000000000006
 21
-25.5
 31
0.0
  0
LINE
  5
294
100
AcDbEntity
  8
0
  6
CONTINUOUS
 62
               4
100
AcDbLine
 10
-32.400000000000006
 20
-21.0
 30
0.0
 11
-32.400000000000006
 21
-24.0
 31
0.0
  0
ARC
  5
295
100
AcDbEntity
  8
0
  6
CONTINUOUS
 62
               4
100
AcDbCircle
 10
-32.89636257645779
 20
-20.996362576457798
 30
0.0
 40
0.4963759040866567
100
AcDbArc
 50
359.58013497265682
 51
90.419865027342155
  0
ARC
  5
296
100
AcDbEntity
  8
0
  6
CONTINUOUS
 62
               4
100
AcDbCircle
 10
-32.903673300547979
 20
-23.996326699452013
 30
0.0
 40
0.5036866951010575
100
AcDbArc
 50
270.4178519821541
 51
359.58214801784368
  0
LINE
  5
297
100
AcDbEntity
  8
0
  6
CONTINUOUS
 62
               4
100
AcDbLine
 10
-33.400000000000006
 20
-21.5
 30
0.0
 11
-33.400000000000006
 21
-23.5
 31
0.0
  0
LINE
  5
298
100
AcDbEntity
  8
0
  6
CONTINUOUS
 62
               4
100
AcDbLine
 10
-34.900000000000006
 20
-21.5
 30
0.0
 11
-34.900000000000006
 21
-23.5
 31
0.0
  0
LINE
  5
299
100
AcDbEntity
  8
0
  6
CONTINUOUS
 62
               4
100
AcDbLine
 10
-34.900000000000006
 20
-23.5
 30
0.0
 11
-33.400000000000006
 21
-23.5
 31
0.0
  0
LINE
  5
29A
100
AcDbEntity
  8
0
  6
CONTINUOUS
 62
               4
100
AcDbLine
 10
-34.900000000000006
 20
-21.5
 30
0.0
 11
-33.400000000000006
 21
-21.5
 31
0.0
  0
LINE
  5
29B
100
AcDbEntity
  8
0
  6
CONTINUOUS
 62
               4
100
AcDbLine
 10
5.8300000000000125
 20
5.6000000000000085
 30
0.0
 11
0.0
 21
5.7518573046432664
 31
0.0
  0
LINE
  5
29C
100
AcDbEntity
  8
0
  6
CONTINUOUS
 62
               4
100
AcDbLine
 10
5.0
 20
6.4699999999999989
 30
0.0
 11
0.0
 21
6.605000000000004
 31
0.0
  0
LINE
  5
29D
100
AcDbEntity
  8
0
  6
CONTINUOUS
 62
               4
100
AcDbLine
 10
5.8499999999999943
 20
-5.5899999999999892
 30
0.0
 11
0.0
 21
-5.7486440677966044
 31
0.0
  0
LINE
  5
29E
100
AcDbEntity
  8
0
  6
CONTINUOUS
 62
               4
100
AcDbLine
 10
4.9699999999999989
 20
-6.4699999999999989
 30
0.0
 11
0.0
 21
-6.6045937813440219
 31
0.0
  0
LINE
  5
29F
100
AcDbEntity
  8
0
  6
CONTINUOUS
 62
               4
100
AcDbLine
 10
-3.0
 20
6.6899999999999977
 30
0.0
 11
-3.0
 21
-6.6799999999999926
 31
0.0
  0
LINE
  5
2A0
100
AcDbEntity
  8
0
  6
CONTINUOUS
 62
               4
100
AcDbLine
 10
-3.0
 20
5.8299999999999983
 30
0.0
 11
-4.5600000000000023
 21
6.730000000000004
 31
0.0
  0
LINE
  5
2A1
100
AcDbEntity
  8
0
  6
CONTINUOUS
 62
               4
100
AcDbLine
 10
-3.0
 20
-5.8299999999999983
 30
0.0
 11
-4.5600000000000023
 21
-6.7199999999999989
 31
0.0
  0
LINE
  5
2A2
100
AcDbEntity
  8
0
  6
CONTINUOUS
 62
               4
100
AcDbLine
 10
-5.6299999999999955
 20
8.0900000000000034
 30
0.0
 11
-5.0
 21
7.0
 31
0.0
  0
LINE
  5
2A3
100
AcDbEntity
  8
0
  6
CONTINUOUS
 62
               4
100
AcDbLine
 10
6.0
 20
5.4200000000000017
 30
0.0
 11
6.0
 21
-5.4399999999999977
 31
0.0
  0
LINE
  5
2A4
100
AcDbEntity
  8
0
  6
CONTINUOUS
 62
               4
100
AcDbLine
 10
-5.6299999999999955
 20
-8.0799999999999983
 30
0.0
 11
-5.0
 21
-7.0
 31
0.0
  0
LINE
  5
2A5
100
AcDbEntity
  8
0
  6
CONTINUOUS
 62
               4
100
AcDbLine
 10
5.0
 20
6.4699999999999989
 30
0.0
 11
6.0
 21
5.4200000000000017
 31
0.0
  0
LINE
  5
2A6
100
AcDbEntity
  8
0
  6
CONTINUOUS
 62
               4
100
AcDbLine
 10
6.0
 20
-5.4399999999999977
 30
0.0
 11
4.9699999999999989
 21
-6.4699999999999989
 31
0.0
  0
LINE
  5
2A7
100
AcDbEntity
  8
0
  6
CONTINUOUS
 62
               4
100
AcDbLine
 10
5.0
 20
6.4699999999999989
 30
0.0
 11
5.0
 21
-6.4699999999999989
 31
0.0
  0
ARC
  5
2A8
100
AcDbEntity
  8
0
  6
CONTINUOUS
 62
               4
100
AcDbCircle
 10
-18.496207862413627
 20
18.845088766579451
 30
0.0
 40
0.496233955172784
100
AcDbArc
 50
359.41243448718024
 51
85.815677452040774
  0
ARC
  5
2A9
100
AcDbEntity
  8
0
  6
CONTINUOUS
 62
               4
100
AcDbCircle
 10
-18.503498087411145
 20
-18.838381759581736
 30
0.0
 40
0.5035006879128708
100
AcDbArc
 50
274.9560357850109
 51
359.81585227576613
  0
LINE
  5
2AA
100
AcDbEntity
  8
0
  6
CENTER
 62
             200
100
AcDbLine
 10
-51.0
 20
0.0
 30
0.0
 11
9.0
 21
0.0
 31
0.0
  0
LINE
  5
2AB
100
AcDbEntity
  8
0
  6
CONTINUOUS
 62
               4
100
AcDbLine
 10
-36.849999999999994
 20
-25.5
 30
0.0
 11
-36.849999999999994
 21
-35.5
 31
0.0
  0
LINE
  5
2AC
100
AcDbEntity
  8
0
  6
CONTINUOUS
 62
               4
100
AcDbLine
 10
-33.150000000000006
 20
-25.5
 30
0.0
 11
-33.150000000000006
 21
-35.5
 31
0.0
  0
SPLINE
  5
2AD
100
AcDbEntity
  8
0
  6
CONTINUOUS
 62
               4
100
AcDbSpline
210
0.0
220
0.0
230
1.0
 70
               0
 71
               3
 72
               0
 73
               0
 74
              17
 44
0.000001
 12
-0.6790420394353354
 22
-0.7340993861048383
 32
0.0
 13
-0.6790420394353357
 23
-0.7340993861048379
 33
0.0
 11
-33.150000000000006
 21
-35.5
 31
0.0
 11
-33.350760412689617
 21
-35.689105981285728
 31
0.0
 11
-33.580055188863099
 21
-35.847275565801091
 31
0.0
 11
-33.823312543927671
 21
-35.958342398716304
 31
0.0
 11
-34.080000000000013
 21
-36.0
 31
0.0
 11
-34.32318860373065
 21
-35.952129285068587
 31
0.0
 11
-34.552235291651478
 21
-35.841799157887522
 31
0.0
 11
-34.784466145001133
 21
-35.679697821323529
 31
0.0
 11
-35.0
 21
-35.5
 31
0.0
 11
-35.217719122982054
 21
-35.319546539957578
 31
0.0
 11
-35.452661914645823
 21
-35.157429599741342
 31
0.0
 11
-35.684345878705749
 21
-35.04709310499625
 31
0.0
 11
-35.930000000000007
 21
-35.0
 31
0.0
 11
-36.183802047332449
 21
-35.042206244299145
 31
0.0
 11
-36.423910088674106
 21
-35.152731004129329
 31
0.0
 11
-36.650950594077436
 21
-35.31121634416585
 31
0.0
 11
-36.849999999999994
 21
-35.5
 31
0.0
  0
SPLINE
  5
2AE
100
AcDbEntity
  8
0
  6
CONTINUOUS
 62
               4
100
AcDbSpline
210
0.0
220
0.0
230
1.0
 70
               0
 71
               3
 72
               0
 73
               0
 74
               9
 44
0.000001
 12
0.6790420394353356
 22
-0.7340993861048381
 32
0.0
 13
0.6790420394353359
 23
0.7340993861048378
 33
0.0
 11
-36.849999999999994
 21
-35.5
 31
0.0
 11
-36.652897256317381
 21
-35.688446978728102
 31
0.0
 11
-36.428488585742613
 21
-35.84648699256968
 31
0.0
 11
-36.1867292665411
 21
-35.956405596598238
 31
0.0
 11
-35.930000000000007
 21
-36.0
 31
0.0
 11
-35.670329638037678
 21
-35.956877988969225
 31
0.0
 11
-35.42543822596312
 21
-35.84648699256968
 31
0.0
 11
-35.198804053681847
 21
-35.68877568862596
 31
0.0
 11
-35.0
 21
-35.5
 31
0.0
  0
ENDBLK
  5
2AF
100
AcDbEntity
  8
0
100
AcDbBlockEnd
  0
ENDSEC
  0
SECTION
  2
ENTITIES
  0
INSERT
  5
2B0
100
AcDbEntity
  8
0
  6
ByBlock
100
AcDbBlockReference
  2
NVRA200-3
 10
-145.10493276014287
 20
-76.84930366581689
 30
0.0
  0
INSERT
  5
2B1
100
AcDbEntity
  8
0
  6
ByBlock
100
AcDbBlockReference
  2
NVRA200-4
 10
-41.814932760142881
 20
-76.84930366581689
 30
0.0
  0
INSERT
  5
2B2
100
AcDbEntity
  8
0
  6
ByBlock
100
AcDbBlockReference
  2
NVRA200-5
 10
46.610260662091179
 20
-76.84930366581689
 30
0.0
  0
INSERT
  5
2B3
100
AcDbEntity
  8
0
  6
ByBlock
100
AcDbBlockReference
  2
NVRA200-6
 10
154.61026066209118
 20
-76.84930366581689
 30
0.0
  0
INSERT
  5
2B4
100
AcDbEntity
  8
0
  6
ByBlock
100
AcDbBlockReference
  2
NVRA200-1
 10
-75.564663016001418
 20
81.561959852505311
 30
0.0
  0
INSERT
  5
2B5
100
AcDbEntity
  8
0
  6
ByBlock
100
AcDbBlockReference
  2
NVRA200-2
 10
88.507720232111581
 20
81.561959852505311
 30
0.0
  0
MTEXT
  5
2B6
100
AcDbEntity
  8
0
  6
CONTINUOUS
 62
               7
100
AcDbMText
 10
115.52672595002113
 20
-126.0
 30
0.0
 40
6.3000001907348633
 41
0.0
 71
               4
 72
               1
  1
\W1.121;\A1;KOGANEI CORP.
  0
MTEXT
  5
2B7
100
AcDbEntity
  8
0
  6
CONTINUOUS
 62
               7
100
AcDbMText
 10
135.28361320185996
 20
125.10000610351562
 30
0.0
 40
4.5
 41
0.0
 71
               4
 72
               1
  1
\W1.311;\A1;Ver. 1.0
  0
LINE
  5
2B8
100
AcDbEntity
  8
0
  6
CONTINUOUS
 62
               7
100
AcDbLine
 10
-194.25
 20
117.60000610351562
 30
0.0
 11
-90.75
 21
117.60000610351562
 31
0.0
  0
LINE
  5
2B9
100
AcDbEntity
  8
0
  6
CONTINUOUS
 62
               7
100
AcDbLine
 10
109.80000305175781
 20
117.60000610351562
 30
0.0
 11
194.80000305175781
 21
117.60000610351562
 31
0.0
  0
LINE
  5
2BA
100
AcDbEntity
  8
0
  6
CONTINUOUS
 62
               7
100
AcDbLine
 10
109.80000305175781
 20
132.60000610351562
 30
0.0
 11
109.80000305175781
 21
117.60000610351562
 31
0.0
  0
LINE
  5
2BB
100
AcDbEntity
  8
0
  6
CONTINUOUS
 62
               7
100
AcDbLine
 10
109.80000305175781
 20
-118.5
 30
0.0
 11
194.80000305175781
 21
-118.5
 31
0.0
  0
LINE
  5
2BC
100
AcDbEntity
  8
0
  6
CONTINUOUS
 62
               7
100
AcDbLine
 10
109.80000305175781
 20
-118.5
 30
0.0
 11
109.80000305175781
 21
-133.5
 31
0.0
  0
LINE
  5
2BD
100
AcDbEntity
  8
0
  6
CONTINUOUS
 62
               7
100
AcDbLine
 10
-194.25
 20
-133.5
 30
0.0
 11
194.80000305175781
 21
-133.5
 31
0.0
  0
LINE
  5
2BE
100
AcDbEntity
  8
0
  6
CONTINUOUS
 62
               7
100
AcDbLine
 10
-194.25
 20
132.60000610351562
 30
0.0
 11
-194.25
 21
-133.5
 31
0.0
  0
LINE
  5
2BF
100
AcDbEntity
  8
0
  6
CONTINUOUS
 62
               7
100
AcDbLine
 10
194.80000305175781
 20
132.60000610351562
 30
0.0
 11
194.80000305175781
 21
-133.5
 31
0.0
  0
LINE
  5
2C0
100
AcDbEntity
  8
0
  6
CONTINUOUS
 62
               7
100
AcDbLine
 10
-194.25
 20
132.60000610351562
 30
0.0
 11
194.80000305175781
 21
132.60000610351562
 31
0.0
  0
MTEXT
  5
2C1
100
AcDbEntity
  8
0
  6
CONTINUOUS
 62
               7
100
AcDbMText
 10
-185.71359224425174
 20
107.60000610351562
 30
0.0
 40
4.5
 41
0.0
 71
               4
 72
               1
  1
\W1.049;\A1;MODEL:NVRA200-02-B
  0
LINE
  5
2C2
100
AcDbEntity
  8
0
  6
CONTINUOUS
 62
               7
100
AcDbLine
 10
-90.75
 20
117.60000610351562
 30
0.0
 11
-90.75
 21
132.60000610351562
 31
0.0
  0
LINE
  5
2C3
100
AcDbEntity
  8
0
  6
CONTINUOUS
 62
               7
100
AcDbLine
 10
-194.25
 20
-27.05999755859375
 30
0.0
 11
194.80000305175781
 21
-27.05999755859375
 31
0.0
  0
LINE
  5
2C4
100
AcDbEntity
  8
0
  6
CONTINUOUS
 62
               7
100
AcDbLine
 10
0.2750015258789063
 20
-27.05999755859375
 30
0.0
 11
0.2750015258789063
 21
-133.5
 31
0.0
  0
MTEXT
  5
2C5
100
AcDbEntity
  8
0
  6
CONTINUOUS
 62
               7
100
AcDbMText
 10
-185.71428567759116
 20
-37.05999755859375
 30
0.0
 40
4.5
 41
0.0
 71
               4
 72
               1
  1
\W1.048;\A1;MODEL:GV-40
  0
MTEXT
  5
2C6
100
AcDbEntity
  8
0
  6
CONTINUOUS
 62
               7
100
AcDbMText
 10
8.8934225856099598
 20
-37.05999755859375
 30
0.0
 40
4.5
 41
0.0
 71
               4
 72
               1
  1
\W1.158;\A1;MODEL:EG110
  0
MTEXT
  5
2C7
100
AcDbEntity
  8
0
  6
CONTINUOUS
 62
               1
100
AcDbMText
 10
-191.22168779867101
 20
125.10000610351562
 30
0.0
 40
4.5
 41
0.0
 71
               4
 72
               1
  1
\W1.038;\A1;PILOT VACUUM REGULATOR
  0
ENDSEC
  0
SECTION
  2
OBJECTS
  0
DICTIONARY
  5
19
100
AcDbDictionary
  3
ACAD_GROUP
350
1A
  3
ACAD_MLINESTYLE
350
1B
  0
DICTIONARY
  5
1A
102
{ACAD_REACTORS
330
19
102
}
100
AcDbDictionary
  0
DICTIONARY
  5
1B
102
{ACAD_REACTORS
330
19
102
}
100
AcDbDictionary
  3
STANDARD
350
1C
  0
MLINESTYLE
  5
1C
102
{ACAD_REACTORS
330
1B
102
}
100
AcDbMlineStyle
  2
Standard
 70
               0
  3

 62
               0
 51
90.0
 52
90.0
 71
               2
 49
0.5
 62
             256
  6
ByLayer
 49
-0.5
 62
             256
  6
ByLayer
  0
ENDSEC
  0
EOF
