  0
SECTION
  2
HEADER
  9
$ACADVER
  1
AC1002
  9
$INSBASE
 10
0.0
 20
0.0
  9
$EXTMIN
 10
-185.4368
 20
-127.2792
  9
$EXTMAX
 10
185.4368
 20
127.2792
  9
$LIMMIN
 10
0.0
 20
0.0
  9
$LIMMAX
 10
12.0
 20
9.0
  9
$VIEWCTR
 10
14.30458208
 20
0.0
  9
$VIEWSIZE
 40
254.5584
  9
$SNAPMODE
 70
     0
  9
$SNAPUNIT
 10
1.0
 20
1.0
  9
$SNAPBASE
 10
0.0
 20
0.0
  9
$SNAPANG
 50
0.0
  9
$SNAPSTYLE
 70
     0
  9
$SNAPISOPAIR
 70
     0
  9
$GRIDMODE
 70
     0
  9
$GRIDUNIT
 10
0.0
 20
0.0
  9
$ORTHOMODE
 70
     0
  9
$REGENMODE
 70
     1
  9
$FILLMODE
 70
     1
  9
$QTEXTMODE
 70
     0
  9
$DRAGMODE
 70
     2
  9
$LTSCALE
 40
1.0
  9
$OSMODE
 70
     0
  9
$ATTMODE
 70
     1
  9
$TEXTSIZE
 40
0.2
  9
$TRACEWID
 40
0.05
  9
$TEXTSTYLE
  7
AAA
  9
$CLAYER
  8
0
  9
$CELTYPE
  6
BYLAYER
  9
$CECOLOR
 62
   256
  9
$DIMSCALE
 40
1.0
  9
$DIMASZ
 40
0.18
  9
$DIMEXO
 40
0.0625
  9
$DIMDLI
 40
0.38
  9
$DIMRND
 40
0.0
  9
$DIMDLE
 40
0.0
  9
$DIMEXE
 40
0.18
  9
$DIMTP
 40
0.0
  9
$DIMTM
 40
0.0
  9
$DIMTXT
 40
0.18
  9
$DIMCEN
 40
0.09
  9
$DIMTSZ
 40
0.0
  9
$DIMTOL
 70
     0
  9
$DIMLIM
 70
     0
  9
$DIMTIH
 70
     1
  9
$DIMTOH
 70
     1
  9
$DIMSE1
 70
     0
  9
$DIMSE2
 70
     0
  9
$DIMTAD
 70
     0
  9
$DIMZIN
 70
     0
  9
$DIMBLK
  1

  9
$LUNITS
 70
     2
  9
$LUPREC
 70
     4
  9
$AXISMODE
 70
     0
  9
$AXISUNIT
 10
0.0
 20
0.0
  9
$SKETCHINC
 40
0.1
  9
$FILLETRAD
 40
0.0
  9
$AUNITS
 70
     0
  9
$AUPREC
 70
     0
  9
$MENU
  1
ACAD
  9
$ELEVATION
 40
0.0
  9
$THICKNESS
 40
0.0
  9
$VIEWDIR
 10
0.0
 20
0.0
 30
1.0
  9
$LIMCHECK
 70
     0
  9
$BLIPMODE
 70
     1
  9
$CHAMFERA
 40
0.0
  9
$CHAMFERB
 40
0.0
  9
$FASTZOOM
 70
     1
  9
$SKPOLY
 70
     0
  9
$TDCREATE
 40
2447854.4016898644
  9
$TDUPDATE
 40
2447854.4016898644
  9
$TDINDWG
 40
0.0055671296
  9
$TDUSRTIMER
 40
0.0055671296
  9
$USRTIMER
 70
     1
  9
$ANGBASE
 50
0.0
  9
$ANGDIR
 70
     0
  9
$PDMODE
 70
     0
  9
$PDSIZE
 40
0.0
  9
$PLINEWID
 40
0.0
  9
$COORDS
 70
     0
  9
$USERI1
 70
     0
  9
$USERI2
 70
     0
  9
$USERI3
 70
     0
  9
$USERI4
 70
     0
  9
$USERI5
 70
     0
  9
$USERR1
 40
0.0
  9
$USERR2
 40
0.0
  9
$USERR3
 40
0.0
  9
$USERR4
 40
0.0
  9
$USERR5
 40
0.0
  0
ENDSEC
  0
SECTION
  2
TABLES
  0
TABLE
  2
LTYPE
 70
     2
  0
LTYPE
  2
CONTINUOUS
 70
    64
  3
SOLID
 72
    65
 73
     0
 40
0.0
  0
LTYPE
  2
CENTER
 70
    64
  3
CENTER
 72
    65
 73
     4
 40
2.0
 49
1.25
 49
-0.25
 49
0.25
 49
-0.25
  0
ENDTAB
  0
TABLE
  2
LAYER
 70
     1
  0
LAYER
  2
0
 70
    64
 62
     7
  6
CONTINUOUS
  0
ENDTAB
  0
TABLE
  2
STYLE
 70
     2
  0
STYLE
  2
AAA
 70
     0
 40
0.0
 41
1.0
 50
0.0
 71
     0
 42
0.2
  3
TXT
  4

  0
STYLE
  2
STANDARD
 70
    64
 40
0.0
 41
1.0
 50
0.0
 71
     0
 42
0.2
  3
TXT
  4
BIGFONT
  0
ENDTAB
  0
TABLE
  2
VIEW
 70
     0
  0
ENDTAB
  0
ENDSEC
  0
SECTION
  2
BLOCKS
  0
ENDSEC
  0
SECTION
  2
ENTITIES
  0
POINT
  8
0
  6
CONTINUOUS
 62
     7
 10
-59.99998
 20
79.99999
  0
POINT
  8
0
  6
CONTINUOUS
 62
     7
 10
-50.99998
 20
79.99999
  0
POINT
  8
0
  6
CONTINUOUS
 62
     7
 10
-60.0
 20
29.99998
  0
POINT
  8
0
  6
CONTINUOUS
 62
     7
 10
-51.0
 20
29.99998
  0
POINT
  8
0
  6
CONTINUOUS
 62
     7
 10
-135.4368
 20
29.99999
  0
POINT
  8
0
  6
CONTINUOUS
 62
     7
 10
-124.4368
 20
29.99999
  0
POINT
  8
0
  6
CONTINUOUS
 62
     7
 10
-135.4368
 20
-97.27925
  0
POINT
  8
0
  6
CONTINUOUS
 62
     7
 10
-120.4368
 20
-97.27925
  0
POINT
  8
0
  6
CONTINUOUS
 62
     7
 10
-59.99999
 20
-47.27925
  0
POINT
  8
0
  6
CONTINUOUS
 62
     7
 10
-50.99999
 20
-47.27925
  0
POINT
  8
0
  6
CONTINUOUS
 62
     7
 10
-60.0
 20
-97.27925
  0
POINT
  8
0
  6
CONTINUOUS
 62
     7
 10
-51.0
 20
-97.27925
  0
POINT
  8
0
  6
CONTINUOUS
 62
     7
 10
60.00001
 20
-57.27925
  0
POINT
  8
0
  6
CONTINUOUS
 62
     7
 10
81.00001
 20
-57.27925
  0
POINT
  8
0
  6
CONTINUOUS
 62
     7
 10
130.4368
 20
-57.27924
  0
POINT
  8
0
  6
CONTINUOUS
 62
     7
 10
142.4368
 20
-57.27924
  0
POINT
  8
0
  6
CONTINUOUS
 62
     7
 10
130.4368
 20
47.27922
  0
POINT
  8
0
  6
CONTINUOUS
 62
     7
 10
142.4368
 20
47.27922
  0
LINE
  8
0
  6
CONTINUOUS
 62
     7
 10
-185.4368
 20
-127.2792
 11
-185.4368
 21
127.2792
  0
LINE
  8
0
  6
CONTINUOUS
 62
     7
 10
185.4368
 20
127.2792
 11
185.4368
 21
-127.2792
  0
LINE
  8
0
  6
CONTINUOUS
 62
     7
 10
-185.4368
 20
-127.2792
 11
185.4368
 21
-127.2792
  0
LINE
  8
0
  6
CONTINUOUS
 62
     7
 10
-185.4368
 20
127.2792
 11
185.4368
 21
127.2792
  0
LINE
  8
0
  6
CONTINUOUS
 62
     7
 10
-185.4368
 20
112.9782
 11
-109.1646
 21
112.9782
  0
LINE
  8
0
  6
CONTINUOUS
 62
     7
 10
-109.1646
 20
112.9782
 11
-109.1646
 21
127.2792
  0
LINE
  8
0
  6
CONTINUOUS
 62
     7
 10
109.1646
 20
-112.9782
 11
185.4368
 21
-112.9782
  0
LINE
  8
0
  6
CONTINUOUS
 62
     7
 10
129.1908
 20
-116.4169
 11
136.5177
 21
-116.4169
  0
LINE
  8
0
  6
CONTINUOUS
 62
     7
 10
129.1908
 20
-122.9143
 11
135.4118
 21
-122.9143
  0
LINE
  8
0
  6
CONTINUOUS
 62
     7
 10
129.1908
 20
-124.5732
 11
137.6237
 21
-124.5732
  0
LINE
  8
0
  6
CONTINUOUS
 62
     7
 10
129.1908
 20
-118.0758
 11
135.4118
 21
-118.0758
  0
LINE
  8
0
  6
CONTINUOUS
 62
     7
 10
129.1908
 20
-116.4169
 11
129.1908
 21
-118.0758
  0
LINE
  8
0
  6
CONTINUOUS
 62
     7
 10
137.6237
 20
-117.5228
 11
137.6237
 21
-124.5732
  0
LINE
  8
0
  6
CONTINUOUS
 62
     7
 10
135.4118
 20
-118.0758
 11
135.4118
 21
-122.9143
  0
LINE
  8
0
  6
CONTINUOUS
 62
     7
 10
138.8678
 20
-116.4169
 11
138.8678
 21
-118.0758
  0
LINE
  8
0
  6
CONTINUOUS
 62
     7
 10
146.7477
 20
-118.0758
 11
146.7477
 21
-123.4673
  0
LINE
  8
0
  6
CONTINUOUS
 62
     7
 10
144.5358
 20
-118.0758
 11
144.5358
 21
-122.9143
  0
LINE
  8
0
  6
CONTINUOUS
 62
     7
 10
129.1908
 20
-122.9143
 11
129.1908
 21
-124.5732
  0
LINE
  8
0
  6
CONTINUOUS
 62
     7
 10
138.8678
 20
-116.4169
 11
141.0533
 21
-116.4169
  0
LINE
  8
0
  6
CONTINUOUS
 62
     7
 10
138.8678
 20
-124.5732
 11
140.5853
 21
-124.5732
  0
LINE
  8
0
  6
CONTINUOUS
 62
     7
 10
138.8677
 20
-124.5732
 11
140.6088
 21
-118.0757
  0
LINE
  8
0
  6
CONTINUOUS
 62
     7
 10
138.8678
 20
-118.0758
 11
140.6088
 21
-118.0758
  0
LINE
  8
0
  6
CONTINUOUS
 62
     7
 10
140.5854
 20
-124.5734
 11
142.3264
 21
-118.0759
  0
LINE
  8
0
  6
CONTINUOUS
 62
     7
 10
142.8769
 20
-122.9143
 11
144.5358
 21
-122.9143
  0
LINE
  8
0
  6
CONTINUOUS
 62
     7
 10
142.8769
 20
-122.9143
 11
143.3214
 21
-124.5732
  0
LINE
  8
0
  6
CONTINUOUS
 62
     7
 10
143.3214
 20
-124.5732
 11
145.6418
 21
-124.5732
  0
LINE
  8
0
  6
CONTINUOUS
 62
     7
 10
142.3263
 20
-118.0758
 11
144.5358
 21
-118.0758
  0
LINE
  8
0
  6
CONTINUOUS
 62
     7
 10
142.7708
 20
-116.4169
 11
145.0888
 21
-116.4169
  0
LINE
  8
0
  6
CONTINUOUS
 62
     7
 10
141.0534
 20
-116.4169
 11
141.3831
 21
-115.1866
  0
LINE
  8
0
  6
CONTINUOUS
 62
     7
 10
142.7707
 20
-116.4168
 11
143.1003
 21
-115.1864
  0
LINE
  8
0
  6
CONTINUOUS
 62
     7
 10
148.1301
 20
-116.4169
 11
150.7568
 21
-116.4169
  0
LINE
  8
0
  6
CONTINUOUS
 62
     7
 10
148.1301
 20
-118.0758
 11
154.581
 21
-118.0758
  0
LINE
  8
0
  6
CONTINUOUS
 62
     7
 10
150.7568
 20
-124.5732
 11
152.9686
 21
-124.5732
  0
LINE
  8
0
  6
CONTINUOUS
 62
     7
 10
148.1301
 20
-116.4169
 11
148.1301
 21
-118.0758
  0
LINE
  8
0
  6
CONTINUOUS
 62
     7
 10
156.2865
 20
-121.0839
 11
156.2865
 21
-122.9143
  0
LINE
  8
0
  6
CONTINUOUS
 62
     7
 10
148.13
 20
-122.9142
 11
150.7567
 21
-121.6894
  0
LINE
  8
0
  6
CONTINUOUS
 62
     7
 10
148.1303
 20
-121.0841
 11
154.5812
 21
-118.0759
  0
LINE
  8
0
  6
CONTINUOUS
 62
     7
 10
148.1301
 20
-121.0839
 11
148.1301
 21
-122.9143
  0
LINE
  8
0
  6
CONTINUOUS
 62
     7
 10
152.9686
 20
-121.3672
 11
156.2865
 21
-122.9143
  0
LINE
  8
0
  6
CONTINUOUS
 62
     7
 10
154.1712
 20
-120.0975
 11
156.2867
 21
-121.084
  0
LINE
  8
0
  6
CONTINUOUS
 62
     7
 10
156.2865
 20
-117.5228
 11
156.2865
 21
-118.4064
  0
LINE
  8
0
  6
CONTINUOUS
 62
     7
 10
150.7568
 20
-115.1865
 11
150.7568
 21
-116.4169
  0
LINE
  8
0
  6
CONTINUOUS
 62
     7
 10
152.9686
 20
-115.1865
 11
152.9686
 21
-116.4169
  0
LINE
  8
0
  6
CONTINUOUS
 62
     7
 10
152.9686
 20
-116.4169
 11
155.1806
 21
-116.4169
  0
LINE
  8
0
  6
CONTINUOUS
 62
     7
 10
150.7568
 20
-121.6895
 11
150.7568
 21
-124.5732
  0
LINE
  8
0
  6
CONTINUOUS
 62
     7
 10
152.9686
 20
-121.3672
 11
152.9686
 21
-124.5732
  0
LINE
  8
0
  6
CONTINUOUS
 62
     7
 10
154.1712
 20
-120.0976
 11
155.6482
 21
-119.4089
  0
LINE
  8
0
  6
CONTINUOUS
 62
     7
 10
163.7517
 20
-115.6842
 11
165.4106
 21
-115.6842
  0
LINE
  8
0
  6
CONTINUOUS
 62
     7
 10
156.9777
 20
-119.1109
 11
156.9777
 21
-120.8962
  0
LINE
  8
0
  6
CONTINUOUS
 62
     7
 10
165.4106
 20
-115.6842
 11
165.4106
 21
-116.4169
  0
LINE
  8
0
  6
CONTINUOUS
 62
     7
 10
163.7517
 20
-115.6842
 11
163.7517
 21
-116.0417
  0
LINE
  8
0
  6
CONTINUOUS
 62
     7
 10
161.5397
 20
-119.0819
 11
161.5397
 21
-124.5732
  0
LINE
  8
0
  6
CONTINUOUS
 62
     7
 10
156.9778
 20
-119.111
 11
163.4031
 21
-116.5556
  0
LINE
  8
0
  6
CONTINUOUS
 62
     7
 10
156.9778
 20
-120.8963
 11
161.5398
 21
-119.0819
  0
LINE
  8
0
  6
CONTINUOUS
 62
     7
 10
161.5397
 20
-124.5732
 11
163.7517
 21
-124.5732
  0
LINE
  8
0
  6
CONTINUOUS
 62
     7
 10
163.7517
 20
-118.2022
 11
163.7517
 21
-124.5732
  0
LINE
  8
0
  6
CONTINUOUS
 62
     7
 10
163.7518
 20
-118.2023
 11
164.3649
 21
-117.9584
  0
LINE
  8
0
  6
CONTINUOUS
 62
     7
 10
141.2497
 20
-115.1865
 11
143.1004
 21
-115.1865
  0
LINE
  8
0
  6
CONTINUOUS
 62
     7
 10
145.8491
 20
-115.1865
 11
146.5541
 21
-115.1865
  0
LINE
  8
0
  6
CONTINUOUS
 62
     7
 10
150.7568
 20
-115.1865
 11
152.9686
 21
-115.1865
  0
LINE
  8
0
  6
CONTINUOUS
 62
     7
 10
145.8491
 20
-116.2925
 11
146.5541
 21
-116.2925
  0
LINE
  8
0
  6
CONTINUOUS
 62
     7
 10
145.8491
 20
-115.1865
 11
145.8491
 21
-116.2925
  0
LINE
  8
0
  6
CONTINUOUS
 62
     7
 10
146.5541
 20
-115.1865
 11
146.5541
 21
-116.2925
  0
LINE
  8
0
  6
CONTINUOUS
 62
     7
 10
146.9689
 20
-115.1865
 11
146.9689
 21
-116.2925
  0
LINE
  8
0
  6
CONTINUOUS
 62
     7
 10
147.7569
 20
-115.1865
 11
147.7569
 21
-116.2925
  0
LINE
  8
0
  6
CONTINUOUS
 62
     7
 10
146.9689
 20
-115.1865
 11
147.7569
 21
-115.1865
  0
LINE
  8
0
  6
CONTINUOUS
 62
     7
 10
146.9689
 20
-116.2925
 11
147.7569
 21
-116.2925
  0
LINE
  8
0
  6
CONTINUOUS
 62
     7
 10
109.1646
 20
112.9782
 11
185.4368
 21
112.9782
  0
LINE
  8
0
  6
CONTINUOUS
 62
     7
 10
109.1646
 20
127.2792
 11
109.1646
 21
112.9782
  0
LINE
  8
0
  6
CONTINUOUS
 62
     7
 10
109.1646
 20
-112.9782
 11
109.1646
 21
-127.2792
  0
LINE
  8
0
  6
CONTINUOUS
 62
     7
 10
0.0
 20
127.2792
 11
0.0
 21
-127.2792
  0
LINE
  8
0
  6
CONTINUOUS
 62
     7
 10
-185.4368
 20
0.0
 11
0.0
 21
0.0
  0
LINE
  8
0
  6
CENTER
 62
     2
 10
-148.4034
 20
36.99999
 11
-122.2701
 21
36.99999
  0
LINE
  8
0
  6
CENTER
 62
     2
 10
-135.4368
 20
27.04999
 11
-135.4368
 21
45.71666
  0
LINE
  8
0
  6
CONTINUOUS
 62
     7
 10
-146.4368
 20
29.99999
 11
-146.4368
 21
43.99998
  0
LINE
  8
0
  6
CONTINUOUS
 62
     7
 10
-146.4368
 20
43.99999
 11
-124.4368
 21
43.99999
  0
LINE
  8
0
  6
CONTINUOUS
 62
     7
 10
-124.4368
 20
43.99999
 11
-124.4368
 21
29.99999
  0
LINE
  8
0
  6
CONTINUOUS
 62
     7
 10
-124.4368
 20
29.99999
 11
-146.4368
 21
29.99999
  0
LINE
  8
0
  6
CONTINUOUS
 62
     7
 10
-59.99998
 20
68.99999
 11
-59.99998
 21
90.99999
  0
LINE
  8
0
  6
CENTER
 62
     2
 10
-61.61503
 20
79.99999
 11
-49.37314
 21
79.99999
  0
LINE
  8
0
  6
CONTINUOUS
 62
     7
 10
-59.99998
 20
68.99999
 11
-50.99998
 21
68.99999
  0
LINE
  8
0
  6
CONTINUOUS
 62
     7
 10
-50.99998
 20
68.99999
 11
-50.99998
 21
90.99999
  0
LINE
  8
0
  6
CONTINUOUS
 62
     7
 10
-50.99998
 20
90.99999
 11
-59.99998
 21
90.99999
  0
LINE
  8
0
  6
CENTER
 62
     2
 10
-55.49998
 20
92.05161
 11
-55.49998
 21
67.86282
  0
LINE
  8
0
  6
CENTER
 62
     2
 10
-59.29432
 20
72.99999
 11
-51.56631
 21
72.99999
  0
LINE
  8
0
  6
CENTER
 62
     2
 10
-59.58832
 20
86.99999
 11
-51.52432
 21
86.99999
  0
LINE
  8
0
  6
CONTINUOUS
 62
     7
 10
-60.0
 20
43.99998
 11
-60.0
 21
29.99998
  0
LINE
  8
0
  6
CONTINUOUS
 62
     7
 10
-51.0
 20
43.99998
 11
-51.0
 21
29.99998
  0
LINE
  8
0
  6
CONTINUOUS
 62
     7
 10
-60.00001
 20
43.99998
 11
-51.00001
 21
43.99998
  0
LINE
  8
0
  6
CONTINUOUS
 62
     7
 10
-60.0
 20
29.99998
 11
-51.0
 21
29.99998
  0
LINE
  8
0
  6
CENTER
 62
     2
 10
-55.5
 20
45.69468
 11
-55.5
 21
27.54939
  0
LINE
  8
0
  6
CENTER
 62
     2
 10
-62.47235
 20
36.99998
 11
-48.93695
 21
36.99998
  0
LINE
  8
0
  6
CONTINUOUS
 62
     7
 10
-50.99999
 20
-32.27925
 11
-50.99999
 21
-62.27925
  0
LINE
  8
0
  6
CENTER
 62
     2
 10
-61.86282
 20
-47.27925
 11
-49.03097
 21
-47.27925
  0
LINE
  8
0
  6
CONTINUOUS
 62
     7
 10
-59.99999
 20
-32.27925
 11
-59.99999
 21
-62.27925
  0
LINE
  8
0
  6
CONTINUOUS
 62
     7
 10
-59.99999
 20
-32.27925
 11
-50.99999
 21
-32.27925
  0
LINE
  8
0
  6
CONTINUOUS
 62
     7
 10
-59.99999
 20
-62.27925
 11
-50.99999
 21
-62.27925
  0
LINE
  8
0
  6
CENTER
 62
     2
 10
-55.49999
 20
-63.72125
 11
-55.49999
 21
-30.97789
  0
LINE
  8
0
  6
CENTER
 62
     2
 10
-60.62099
 20
-37.27925
 11
-49.95667
 21
-37.27925
  0
LINE
  8
0
  6
CENTER
 62
     2
 10
-60.96687
 20
-57.27925
 11
-49.84138
 21
-57.27925
  0
LINE
  8
0
  6
CONTINUOUS
 62
     7
 10
-59.99998
 20
-77.27924
 11
-50.99998
 21
-77.27924
  0
LINE
  8
0
  6
CONTINUOUS
 62
     7
 10
-60.0
 20
-97.27924
 11
-51.0
 21
-97.27924
  0
LINE
  8
0
  6
CONTINUOUS
 62
     7
 10
-60.0
 20
-77.27924
 11
-60.0
 21
-97.27924
  0
LINE
  8
0
  6
CONTINUOUS
 62
     7
 10
-51.0
 20
-77.27925
 11
-51.0
 21
-97.27925
  0
LINE
  8
0
  6
CENTER
 62
     2
 10
-61.77285
 20
-87.27925
 11
-48.86724
 21
-87.27925
  0
LINE
  8
0
  6
CENTER
 62
     2
 10
-55.5
 20
-75.43954
 11
-55.5
 21
-99.18585
  0
LINE
  8
0
  6
CENTER
 62
     2
 10
-153.3968
 20
-87.27924
 11
-117.5568
 21
-87.27924
  0
LINE
  8
0
  6
CENTER
 62
     2
 10
-135.4368
 20
-98.78288
 11
-135.4368
 21
-76.1413
  0
LINE
  8
0
  6
CONTINUOUS
 62
     7
 10
-150.4368
 20
-97.27924
 11
-120.4368
 21
-97.27924
  0
LINE
  8
0
  6
CONTINUOUS
 62
     7
 10
-150.4368
 20
-77.27924
 11
-120.4368
 21
-77.27924
  0
LINE
  8
0
  6
CONTINUOUS
 62
     7
 10
-120.4368
 20
-97.27926
 11
-120.4368
 21
-77.27926
  0
LINE
  8
0
  6
CONTINUOUS
 62
     7
 10
-150.4368
 20
-97.27924
 11
-150.4368
 21
-77.27924
  0
LINE
  8
0
  6
CENTER
 62
     2
 10
34.01903089
 20
-41.27924
 11
85.92001
 21
-41.27924
  0
LINE
  8
0
  6
CENTER
 62
     2
 10
60.0
 20
-60.09823
 11
60.0
 21
-23.30452
  0
LINE
  8
0
  6
CONTINUOUS
 62
     7
 10
39.00001
 20
-57.27924
 11
81.00001
 21
-57.27924
  0
LINE
  8
0
  6
CONTINUOUS
 62
     7
 10
39.00002
 20
-25.27924
 11
81.00002
 21
-25.27924
  0
LINE
  8
0
  6
CONTINUOUS
 62
     7
 10
39.0
 20
-57.27924
 11
39.0
 21
-25.27924
  0
LINE
  8
0
  6
CONTINUOUS
 62
     7
 10
81.00001
 20
-57.27925
 11
81.00001
 21
-25.27925
  0
LINE
  8
0
  6
CONTINUOUS
 62
     7
 10
130.4368
 20
-25.27925
 11
130.4368
 21
-57.27924
  0
LINE
  8
0
  6
CONTINUOUS
 62
     7
 10
142.4368
 20
-25.27925
 11
142.4368
 21
-57.27924
  0
LINE
  8
0
  6
CONTINUOUS
 62
     7
 10
130.4368
 20
-25.27925
 11
142.4368
 21
-25.27925
  0
LINE
  8
0
  6
CONTINUOUS
 62
     7
 10
130.4368
 20
-57.27924
 11
142.4368
 21
-57.27924
  0
LINE
  8
0
  6
CENTER
 62
     2
 10
136.4368
 20
-22.93365
 11
136.4368
 21
-60.18143
  0
LINE
  8
0
  6
CENTER
 62
     2
 10
127.1062
 20
-41.27924
 11
145.323
 21
-41.27924
  0
LINE
  8
0
  6
CONTINUOUS
 62
     7
 10
142.4368
 20
68.27922
 11
142.4368
 21
26.27922
  0
LINE
  8
0
  6
CENTER
 62
     2
 10
127.6626
 20
47.27922
 11
145.0653
 21
47.27922
  0
LINE
  8
0
  6
CONTINUOUS
 62
     7
 10
130.4368
 20
68.27922
 11
130.4368
 21
26.27922
  0
LINE
  8
0
  6
CONTINUOUS
 62
     7
 10
130.4368
 20
26.27922
 11
142.4368
 21
26.27922
  0
LINE
  8
0
  6
CONTINUOUS
 62
     7
 10
130.4368
 20
68.27922
 11
142.4368
 21
68.27922
  0
LINE
  8
0
  6
CENTER
 62
     2
 10
129.2977
 20
62.27922
 11
144.1526
 21
62.27922
  0
LINE
  8
0
  6
CENTER
 62
     2
 10
129.3728
 20
32.27922
 11
143.7775
 21
32.27922
  0
LINE
  8
0
  6
CENTER
 62
     2
 10
136.4368
 20
70.17477
 11
136.4368
 21
24.22565
  0
ARC
  8
0
  6
CONTINUOUS
 62
     7
 10
136.5177
 20
-117.5228
 40
1.10594
 50
0.0
 51
89.99999
  0
ARC
  8
0
  6
CONTINUOUS
 62
     7
 10
145.6418
 20
-123.4673
 40
1.10595
 50
270.0
 51
0.0
  0
ARC
  8
0
  6
CONTINUOUS
 62
     7
 10
145.0888
 20
-118.0758
 40
1.65892
 50
0.0
 51
89.99999
  0
ARC
  8
0
  6
CONTINUOUS
 62
     7
 10
155.1806
 20
-117.5228
 40
1.10594
 50
0.0
 51
89.99999
  0
ARC
  8
0
  6
CONTINUOUS
 62
     7
 10
155.1806
 20
-118.4064
 40
1.10595
 50
295.0
 51
0.0
  0
ARC
  8
0
  6
CONTINUOUS
 62
     7
 10
163.7517
 20
-116.4169
 40
1.65892
 50
291.6884
 51
0.0
  0
ARC
  8
0
  6
CONTINUOUS
 62
     7
 10
163.1987
 20
-116.0417
 40
0.55297
 50
291.689
 51
0.0
  0
CIRCLE
  8
0
  6
CONTINUOUS
 62
     7
 10
-55.49998
 20
86.99999
 40
1.7
  0
CIRCLE
  8
0
  6
CONTINUOUS
 62
     7
 10
-55.49998
 20
72.99999
 40
1.7
  0
CIRCLE
  8
0
  6
CONTINUOUS
 62
     7
 10
-55.49998
 20
72.99999
 40
3.1
  0
CIRCLE
  8
0
  6
CONTINUOUS
 62
     7
 10
-55.49998
 20
86.99999
 40
3.1
  0
ARC
  8
0
  6
CONTINUOUS
 62
     7
 10
-66.49977
 20
-38.6962
 40
15.5
 50
359.693
 51
0.0
  0
CIRCLE
  8
0
  6
CONTINUOUS
 62
     7
 10
-55.49999
 20
-57.27925
 40
2.25
  0
CIRCLE
  8
0
  6
CONTINUOUS
 62
     7
 10
-55.49999
 20
-37.27925
 40
2.25
  0
CIRCLE
  8
0
  6
CONTINUOUS
 62
     7
 10
-55.49999
 20
-37.27925
 40
3.9
  0
CIRCLE
  8
0
  6
CONTINUOUS
 62
     7
 10
-55.49999
 20
-57.27925
 40
3.9
  0
CIRCLE
  8
0
  6
CONTINUOUS
 62
     7
 10
136.4368
 20
62.27922
 40
2.75
  0
CIRCLE
  8
0
  6
CONTINUOUS
 62
     7
 10
136.4368
 20
32.27922
 40
2.75
  0
CIRCLE
  8
0
  6
CONTINUOUS
 62
     7
 10
136.4368
 20
32.27922
 40
4.75
  0
CIRCLE
  8
0
  6
CONTINUOUS
 62
     7
 10
136.4368
 20
62.27922
 40
4.75
  0
CIRCLE
  8
0
  6
CONTINUOUS
 62
     7
 10
-135.4368
 20
36.99999
 40
5.0
  0
CIRCLE
  8
0
  6
CONTINUOUS
 62
     7
 10
-135.4368
 20
36.99999
 40
4.5
  0
CIRCLE
  8
0
  6
CONTINUOUS
 62
     7
 10
-135.4368
 20
-87.27924
 40
7.0
  0
CIRCLE
  8
0
  6
CONTINUOUS
 62
     7
 10
-135.4368
 20
-87.27924
 40
6.4
  0
CIRCLE
  8
0
  6
CONTINUOUS
 62
     7
 10
60.0
 20
-41.27924
 40
11.0
  0
CIRCLE
  8
0
  6
CONTINUOUS
 62
     7
 10
60.0
 20
-41.27924
 40
10.4
  0
TEXT
  8
0
  6
CONTINUOUS
 62
     7
 10
114.5353
 20
118.1347
 40
4.24264
  1
DATE : OCT ,1989
 41
0.8
  7
STANDARD
  0
TEXT
  8
0
  6
CONTINUOUS
 62
     7
 10
-173.965
 20
117.7787
 40
5.0
  1
NSA FOOT,-1
 41
0.8
  7
STANDARD
  0
TEXT
  8
0
  6
CONTINUOUS
 62
     7
 10
-178.9146
 20
103.0236
 40
5.0
  1
MODEL : NSA  6
 41
0.8
  7
STANDARD
  0
TEXT
  8
0
  6
CONTINUOUS
 62
     7
 10
-178.9146
 20
-9.35
 40
5.0
  1
MODEL : NSA 10
 41
0.8
  7
STANDARD
  0
TEXT
  8
0
  6
CONTINUOUS
 62
     7
 10
6.46428
 20
103.0236
 40
5.0
  1
MODEL : NSA 16
 41
0.8
  7
STANDARD
  0
ENDSEC
  0
EOF
