  0
SECTION
  2
HEADER
  9
$ACADVER
  1
AC1012
  9
$DWGCODEPAGE
  3
dos932
  9
$INSBASE
 10
0.0
 20
0.0
 30
0.0
  9
$EXTMIN
 10
-194.25
 20
-133.5
 30
0.0
  9
$EXTMAX
 10
196.25001049041748
 20
132.60000610351562
 30
0.0
  9
$LIMMIN
 10
-210.0
 20
-148.5
  9
$LIMMAX
 10
210.0
 20
148.5
  9
$ORTHOMODE
 70
               0
  9
$REGENMODE
 70
               1
  9
$FILLMODE
 70
               1
  9
$QTEXTMODE
 70
               0
  9
$MIRRTEXT
 70
               1
  9
$DRAGMODE
 70
               2
  9
$LTSCALE
 40
1.0
  9
$OSMODE
 70
               0
  9
$ATTMODE
 70
               1
  9
$TEXTSIZE
 40
3.2000000476837158
  9
$TRACEWID
 40
0.05
  9
$TEXTSTYLE
  7
MX_NOTE_STANDARD
  9
$CLAYER
  8
0
  9
$CELTYPE
  6
CONTINUOUS
  9
$CECOLOR
 62
             256
  9
$CELTSCALE
 40
1.0
  9
$DELOBJ
 70
               1
  9
$DISPSILH
 70
               0
  9
$DIMSCALE
 40
1.0
  9
$DIMASZ
 40
2.5
  9
$DIMEXO
 40
1.5
  9
$DIMDLI
 40
3.75
  9
$DIMRND
 40
0.0
  9
$DIMDLE
 40
0.0
  9
$DIMEXE
 40
1.5
  9
$DIMTP
 40
0.0
  9
$DIMTM
 40
0.0
  9
$DIMTXT
 40
3.2000000476837158
  9
$DIMCEN
 40
2.5
  9
$DIMTSZ
 40
0.0
  9
$DIMTOL
 70
               0
  9
$DIMLIM
 70
               0
  9
$DIMTIH
 70
               0
  9
$DIMTOH
 70
               0
  9
$DIMSE1
 70
               0
  9
$DIMSE2
 70
               0
  9
$DIMTAD
 70
               1
  9
$DIMZIN
 70
               8
  9
$DIMBLK
  1

  9
$DIMASO
 70
               1
  9
$DIMSHO
 70
               1
  9
$DIMPOST
  1

  9
$DIMAPOST
  1

  9
$DIMALT
 70
               0
  9
$DIMALTD
 70
               4
  9
$DIMALTF
 40
0.03937007874016
  9
$DIMLFAC
 40
1.0
  9
$DIMTOFL
 70
               1
  9
$DIMTVP
 40
0.0
  9
$DIMTIX
 70
               0
  9
$DIMSOXD
 70
               0
  9
$DIMSAH
 70
               1
  9
$DIMBLK1
  1
_OPEN30
  9
$DIMBLK2
  1
_OPEN30
  9
$DIMSTYLE
  2
MXDIMSTYLE
  9
$DIMCLRD
 70
               0
  9
$DIMCLRE
 70
               0
  9
$DIMCLRT
 70
               0
  9
$DIMTFAC
 40
1.0
  9
$DIMGAP
 40
1.0
  9
$DIMJUST
 70
               0
  9
$DIMSD1
 70
               0
  9
$DIMSD2
 70
               0
  9
$DIMTOLJ
 70
               0
  9
$DIMTZIN
 70
               0
  9
$DIMALTZ
 70
               0
  9
$DIMALTTZ
 70
               0
  9
$DIMFIT
 70
               3
  9
$DIMUPT
 70
               1
  9
$DIMUNIT
 70
               2
  9
$DIMDEC
 70
               2
  9
$DIMTDEC
 70
               2
  9
$DIMALTU
 70
               2
  9
$DIMALTTD
 70
               4
  9
$DIMTXSTY
  7
MX_NOTE_STANDARD
  9
$DIMAUNIT
 70
               0
  9
$LUNITS
 70
               2
  9
$LUPREC
 70
               4
  9
$SKETCHINC
 40
0.1
  9
$FILLETRAD
 40
0.0
  9
$AUNITS
 70
               0
  9
$AUPREC
 70
               0
  9
$MENU
  1
acad
  9
$ELEVATION
 40
0.0
  9
$PELEVATION
 40
0.0
  9
$THICKNESS
 40
0.0
  9
$LIMCHECK
 70
               0
  9
$BLIPMODE
 70
               1
  9
$CHAMFERA
 40
0.0
  9
$CHAMFERB
 40
0.0
  9
$CHAMFERC
 40
0.0
  9
$CHAMFERD
 40
0.0
  9
$SKPOLY
 70
               0
  9
$TDCREATE
 40
2453882.358090278
  9
$TDUPDATE
 40
2453882.358090278
  9
$TDINDWG
 40
0.0000000000
  9
$TDUSRTIMER
 40
0.0000000000
  9
$USRTIMER
 70
               1
  9
$ANGBASE
 50
0.0
  9
$ANGDIR
 70
               0
  9
$PDMODE
 70
               0
  9
$PDSIZE
 40
0.0
  9
$PLINEWID
 40
0.0
  9
$COORDS
 70
               1
  9
$SPLFRAME
 70
               0
  9
$SPLINETYPE
 70
               6
  9
$SPLINESEGS
 70
               8
  9
$ATTDIA
 70
               0
  9
$ATTREQ
 70
               1
  9
$HANDLING
 70
               1
  9
$HANDSEED
  5
217
  9
$SURFTAB1
 70
               6
  9
$SURFTAB2
 70
               6
  9
$SURFTYPE
 70
               6
  9
$SURFU
 70
               6
  9
$SURFV
 70
               6
  9
$UCSNAME
  2

  9
$UCSORG
 10
0.0
 20
0.0
 30
0.0
  9
$UCSXDIR
 10
1.0
 20
0.0
 30
0.0
  9
$UCSYDIR
 10
0.0
 20
1.0
 30
0.0
  9
$PUCSNAME
  2

  9
$PUCSORG
 10
0.0
 20
0.0
 30
0.0
  9
$PUCSXDIR
 10
1.0
 20
0.0
 30
0.0
  9
$PUCSYDIR
 10
0.0
 20
1.0
 30
0.0
  9
$USERI1
 70
               0
  9
$USERI2
 70
               0
  9
$USERI3
 70
               0
  9
$USERI4
 70
               0
  9
$USERI5
 70
               0
  9
$USERR1
 40
0.0
  9
$USERR2
 40
0.0
  9
$USERR3
 40
0.0
  9
$USERR4
 40
0.0
  9
$USERR5
 40
0.0
  9
$WORLDVIEW
 70
               1
  9
$SHADEDGE
 70
               3
  9
$SHADEDIF
 70
              70
  9
$TILEMODE
 70
               1
  9
$MAXACTVP
 70
              16
  9
$PINSBASE
 10
0.0
 20
0.0
 30
0.0
  9
$PLIMCHECK
 70
               0
  9
$PEXTMIN
 10
1.0000000000000000E+20
 20
1.0000000000000000E+20
 30
1.0000000000000000E+20
  9
$PEXTMAX
 10
-1.0000000000000000E+20
 20
-1.0000000000000000E+20
 30
-1.0000000000000000E+20
  9
$PLIMMIN
 10
0.0
 20
0.0
  9
$PLIMMAX
 10
12.0
 20
9.0
  9
$UNITMODE
 70
               0
  9
$VISRETAIN
 70
               0
  9
$PLINEGEN
 70
               1
  9
$PSLTSCALE
 70
               0
  9
$TREEDEPTH
 70
            3020
  9
$PICKSTYLE
 70
               1
  9
$CMLSTYLE
  2
Standard
  9
$CMLJUST
 70
               0
  9
$CMLSCALE
 40
1.0
  9
$SAVEIMAGES
 70
               0
  0
ENDSEC
  0
SECTION
  2
CLASSES
  0
CLASS
  1
LWPOLYLINE
  2
AcDbPolyline
  3
"AutoCAD"
 90
    32768
280
               0
281
               1
  0
CLASS
  1
IMAGE
  2
AcDbRasterImage
  3
ISM
 90
    32895
280
               0
281
               1
  0
CLASS
  1
OLE2FRAME
  2
AcDbOle2Frame
  3
""
 90
    32768
280
               0
281
               1
  0
CLASS
  1
HATCH
  2
AcDbHatch
  3
"ACAD_SEDONA"
 90
    32768
280
               0
281
               1
  0
CLASS
  1
DICTIONARYVAR
  2
AcDbDictionaryVar
  3
"AutoCAD"
 90
    32768
280
               0
281
               0
  0
CLASS
  1
RASTERVARIABLES
  2
AcDbRasterVariables
  3
ISM
 90
    32768
280
               0
281
               0
  0
CLASS
  1
IMAGEDEF
  2
AcDbRasterImageDef
  3
ISM
 90
    32768
280
               0
281
               0
  0
CLASS
  1
IMAGEDEF_REACTOR
  2
AcDbRasterImageDefReactor
  3
ISM
 90
    32769
280
               0
281
               0
  0
CLASS
  1
IDBUFFER
  2
AcDbIdBuffer
  3
"Acad"
 90
    32768
280
               0
281
               0
  0
CLASS
  1
SPATIAL_FILTER
  2
AcDbSpatialFilter
  3
"Acad"
 90
    32768
280
               0
281
               0
  0
CLASS
  1
XRECORD
  2
AcDbXrecord
  3
"<Built In>"
 90
    32768
280
               0
281
               0
  0
CLASS
  1
SORTENTSTABLE
  2
AcDbSortentsTable
  3
"AutoCAD"
 90
    32768
280
               0
281
               0
  0
CLASS
  1
LAYER_INDEX
  2
AcDbLayerIndex
  3
"Acad"
 90
    32768
280
               0
281
               0
  0
CLASS
  1
SPATIAL_INDEX
  2
AcDbSpatialIndex
  3
"Acad"
 90
    32768
280
               0
281
               0
  0
CLASS
  1
OBJECT_PTR
  2
CAseDLPNTableRecord
  3
"ASE-LPNTableRecord"
 90
    32769
280
               0
281
               0
  0
CLASS
  1
LAYOUT
  2
AcDbLayout
  3
"AutoCAD 2000"
 90
    32768
280
               0
281
               0
  0
CLASS
  1
PLOTSETTINGS
  2
AcDbPlotSettings
  3
"AutoCAD 2000"
 90
    32768
280
               0
281
               0
  0
CLASS
  1
ACDBDICTIONARYWDFLT
  2
AcDbDictionaryWithDefault
  3
"AutoCAD 2000"
 90
    32768
280
               0
281
               0
  0
CLASS
  1
ACDBPLACEHOLDER
  2
AcDbPlaceHolder
  3
"AutoCAD 2000"
 90
    32768
280
               0
281
               0
  0
ENDSEC
  0
SECTION
  2
TABLES
  0
TABLE
  2
VPORT
  5
7
100
AcDbSymbolTable
 70
               1
  0
VPORT
  5
15
100
AcDbSymbolTableRecord
100
AcDbViewportTableRecord
  2
*ACTIVE
 70
               0
 10
0.0
 20
0.0
 11
1.0
 21
1.0
 12
0.0
 22
0.0
 13
0.0
 23
0.0
 14
1.0
 24
1.0
 15
0.0
 25
0.0
 16
0.0
 26
0.0
 36
1.0
 17
0.0
 27
0.0
 37
0.0
 40
299.97000000000003
 41
1.7320508075688772
 42
50.0
 43
0.0
 44
0.0
 50
0.0
 51
0.0
 71
               0
 72
             100
 73
               1
 74
               1
 75
               0
 76
               0
 77
               0
 78
               0
  0
ENDTAB
  0
TABLE
  2
LTYPE
  5
4
100
AcDbSymbolTable
 70
               4
  0
LTYPE
  5
11
100
AcDbSymbolTableRecord
100
AcDbLinetypeTableRecord
  2
BYBLOCK
 70
              64
  3

 72
              65
 73
               0
 40
0.0
  0
LTYPE
  5
12
100
AcDbSymbolTableRecord
100
AcDbLinetypeTableRecord
  2
BYLAYER
 70
              64
  3

 72
              65
 73
               0
 40
0.0
  0
LTYPE
  5
13
100
AcDbSymbolTableRecord
100
AcDbLinetypeTableRecord
  2
CONTINUOUS
 70
              64
  3
Solid line
 72
              65
 73
               0
 40
0.0
  0
LTYPE
  5
2F
100
AcDbSymbolTableRecord
100
AcDbLinetypeTableRecord
  2
CENTER
 70
              64
  3
Center ____ _ ____ _ ____ _ ____ _ ____ _ ____
 72
              65
 73
               4
 40
50.800000000000004
 49
31.75
 74
               0
 49
-6.3499999999999996
 74
               0
 49
6.3499999999999996
 74
               0
 49
-6.3499999999999996
 74
               0
  0
ENDTAB
  0
TABLE
  2
LAYER
  5
2
100
AcDbSymbolTable
 70
               2
  0
LAYER
  5
14
100
AcDbSymbolTableRecord
100
AcDbLayerTableRecord
  2
0
 70
               0
 62
               7
  6
CONTINUOUS
  0
LAYER
  5
1D
100
AcDbSymbolTableRecord
100
AcDbLayerTableRecord
  2
DEFPOINTS
 70
               0
 62
               7
  6
CONTINUOUS
  0
ENDTAB
  0
TABLE
  2
STYLE
  5
3
100
AcDbSymbolTable
 70
               1
  0
STYLE
  5
17
100
AcDbSymbolTableRecord
100
AcDbTextStyleTableRecord
  2
MX_NOTE_STANDARD
 70
               0
 40
0.0
 41
1.0
 50
0.0
 71
               0
 42
3.2000000476837158
  3
txt.shx
  4
extfont.shx
  0
ENDTAB
  0
TABLE
  2
VIEW
  5
5
100
AcDbSymbolTable
 70
               0
  0
ENDTAB
  0
TABLE
  2
UCS
  5
6
100
AcDbSymbolTable
 70
               0
  0
ENDTAB
  0
TABLE
  2
APPID
  5
8
100
AcDbSymbolTable
 70
               1
  0
APPID
  5
16
100
AcDbSymbolTableRecord
100
AcDbRegAppTableRecord
  2
ACAD
 70
               0
  0
ENDTAB
  0
TABLE
  2
DIMSTYLE
  5
9
100
AcDbSymbolTable
 70
               1
  0
DIMSTYLE
105
18
100
AcDbSymbolTableRecord
100
AcDbDimStyleTableRecord
  2
MXDIMSTYLE
 70
               0
  3

  4

  5

  6
_OPEN30
  7
_OPEN30
 40
1.0
 41
2.5
 42
1.5
 43
3.75
 44
1.5
 45
0.0
 46
0.0
 47
0.0
 48
0.0
 71
               0
 72
               0
 73
               0
 74
               0
 75
               0
 76
               0
 77
               1
 78
               8
140
3.2000000476837158
141
2.5
142
0.0
143
0.03937007874016
144
1.0
145
0.0
146
1.0
147
1.0
170
               0
171
               4
172
               1
173
               1
174
               0
175
               0
176
               0
177
               0
178
               0
270
               2
271
               2
272
               2
273
               2
274
               4
275
               0
280
               0
281
               0
282
               0
283
               0
284
               0
285
               0
286
               0
287
               3
288
               1
340
17
  0
ENDTAB
  0
TABLE
  2
BLOCK_RECORD
  5
1
100
AcDbSymbolTable
 70
               5
  0
BLOCK_RECORD
  5
A
100
AcDbSymbolTableRecord
100
AcDbBlockTableRecord
  2
*MODEL_SPACE
  0
BLOCK_RECORD
  5
B
100
AcDbSymbolTableRecord
100
AcDbBlockTableRecord
  2
*PAPER_SPACE
  0
BLOCK_RECORD
  5
1E
100
AcDbSymbolTableRecord
100
AcDbBlockTableRecord
  2
NHE2-20-1
  0
BLOCK_RECORD
  5
1F
100
AcDbSymbolTableRecord
100
AcDbBlockTableRecord
  2
NHE2-20-2
  0
BLOCK_RECORD
  5
20
100
AcDbSymbolTableRecord
100
AcDbBlockTableRecord
  2
NHE2-20-3
  0
BLOCK_RECORD
  5
21
100
AcDbSymbolTableRecord
100
AcDbBlockTableRecord
  2
NHE2-20-4
  0
BLOCK_RECORD
  5
22
100
AcDbSymbolTableRecord
100
AcDbBlockTableRecord
  2
_OPEN30
  0
ENDTAB
  0
ENDSEC
  0
SECTION
  2
BLOCKS
  0
BLOCK
  5
D
100
AcDbEntity
  8
0
100
AcDbBlockBegin
  2
*MODEL_SPACE
 70
               0
 10
0.0
 20
0.0
 30
0.0
  3
*MODEL_SPACE
  1

  0
ENDBLK
  5
E
100
AcDbEntity
  8
0
100
AcDbBlockEnd
  0
BLOCK
  5
F
100
AcDbEntity
 67
               1
  8
0
100
AcDbBlockBegin
  2
*PAPER_SPACE
 70
               0
 10
0.0
 20
0.0
 30
0.0
  3
*PAPER_SPACE
  1

  0
ENDBLK
  5
10
100
AcDbEntity
 67
               1
  8
0
100
AcDbBlockEnd
  0
BLOCK
  5
28
100
AcDbEntity
  8
0
100
AcDbBlockBegin
  2
NHE2-20-1
 70
               0
 10
0.0
 20
0.0
 30
0.0
  3
NHE2-20-1
  1

  0
ARC
  5
29
100
AcDbEntity
  8
0
  6
CONTINUOUS
 62
               7
100
AcDbCircle
 10
4.0999908447265625
 20
4.5
 30
0.0
 40
1.0
100
AcDbArc
 50
0.0000025044781673
 51
180.00000068324533
  0
ARC
  5
2A
100
AcDbEntity
  8
0
  6
CONTINUOUS
 62
               7
100
AcDbCircle
 10
4.099761962890625
 20
4.858245849609375
 30
0.0
 40
1.1000000238418579
100
AcDbArc
 50
343.72663284462675
 51
196.27336351290759
  0
ARC
  5
2B
100
AcDbEntity
  8
0
  6
CONTINUOUS
 62
               7
100
AcDbCircle
 10
4.0999908447265625
 20
-4.5
 30
0.0
 40
1.0
100
AcDbArc
 50
179.99999749552182
 51
0.0000025044781673
  0
ARC
  5
2C
100
AcDbEntity
  8
0
  6
CONTINUOUS
 62
               7
100
AcDbCircle
 10
4.099761962890625
 20
-4.858245849609375
 30
0.0
 40
1.1000000238418579
100
AcDbArc
 50
163.7266278356704
 51
16.273372164329597
  0
CIRCLE
  5
2D
100
AcDbEntity
  8
0
  6
CONTINUOUS
 62
               7
100
AcDbCircle
 10
4.0999908447265625
 20
2.25
 30
0.0
 40
1.0
  0
CIRCLE
  5
2E
100
AcDbEntity
  8
0
  6
CONTINUOUS
 62
               7
100
AcDbCircle
 10
4.0999908447265625
 20
-2.25
 30
0.0
 40
1.0
  0
LINE
  5
30
100
AcDbEntity
  8
0
  6
CENTER
 62
               2
100
AcDbLine
 10
-4.0
 20
0.0
 30
0.0
 11
102.19999694824219
 21
0.0
 31
0.0
  0
LINE
  5
31
100
AcDbEntity
  8
0
  6
CONTINUOUS
 62
               7
100
AcDbLine
 10
38.999996185302734
 20
23.999992370605469
 30
0.0
 11
38.999996185302734
 21
-24.0
 31
0.0
  0
LINE
  5
32
100
AcDbEntity
  8
0
  6
CONTINUOUS
 62
               7
100
AcDbLine
 10
44.999996185302734
 20
14.5
 30
0.0
 11
46.999996185302734
 21
14.5
 31
0.0
  0
LINE
  5
33
100
AcDbEntity
  8
0
  6
CONTINUOUS
 62
               7
100
AcDbLine
 10
46.999996185302734
 20
15.0
 30
0.0
 11
46.999996185302734
 21
-15.0
 31
0.0
  0
LINE
  5
34
100
AcDbEntity
  8
0
  6
CONTINUOUS
 62
               7
100
AcDbLine
 10
44.999996185302734
 20
-14.5
 30
0.0
 11
46.999996185302734
 21
-14.5
 31
0.0
  0
LINE
  5
35
100
AcDbEntity
  8
0
  6
CONTINUOUS
 62
               7
100
AcDbLine
 10
99.699996948242188
 20
12.950000762939453
 30
0.0
 11
99.699996948242188
 21
6.4468994140625
 31
0.0
  0
LINE
  5
36
100
AcDbEntity
  8
0
  6
CONTINUOUS
 62
               7
100
AcDbLine
 10
99.699996948242188
 20
-6.4468977086248014
 30
0.0
 11
99.699996948242188
 21
-12.950000762939453
 31
0.0
  0
LINE
  5
37
100
AcDbEntity
  8
0
  6
CONTINUOUS
 62
               7
100
AcDbLine
 10
94.999996185302734
 20
12.950000762939453
 30
0.0
 11
99.699996948242188
 21
12.950000762939453
 31
0.0
  0
LINE
  5
38
100
AcDbEntity
  8
0
  6
CONTINUOUS
 62
               7
100
AcDbLine
 10
43.999996185302734
 20
23.999992370605469
 30
0.0
 11
43.999996185302734
 21
4.0
 31
0.0
  0
LINE
  5
39
100
AcDbEntity
  8
0
  6
CONTINUOUS
 62
               7
100
AcDbLine
 10
44.999996185302734
 20
22.999992454899161
 30
0.0
 11
44.999996185302734
 21
-23.000000084293696
 31
0.0
  0
LINE
  5
3A
100
AcDbEntity
  8
0
  6
CONTINUOUS
 62
               7
100
AcDbLine
 10
100.19999694824219
 20
12.450000762939453
 30
0.0
 11
100.19999694824219
 21
-12.450000805086301
 31
0.0
  0
LINE
  5
3B
100
AcDbEntity
  8
0
  6
CONTINUOUS
 62
               7
100
AcDbLine
 10
46.999996185302734
 20
15.0
 30
0.0
 11
94.499996185302734
 21
15.0
 31
0.0
  0
LINE
  5
3C
100
AcDbEntity
  8
0
  6
CONTINUOUS
 62
               7
100
AcDbLine
 10
94.999996185302734
 20
-12.950000762939453
 30
0.0
 11
99.699996948242188
 21
-12.950000762939453
 31
0.0
  0
LINE
  5
3D
100
AcDbEntity
  8
0
  6
CONTINUOUS
 62
               7
100
AcDbLine
 10
94.999996185302734
 20
-14.500000042146839
 30
0.0
 11
94.499996185302734
 21
-15.0
 31
0.0
  0
LINE
  5
3E
100
AcDbEntity
  8
0
  6
CONTINUOUS
 62
               7
100
AcDbLine
 10
95.199996948242188
 20
6.4468994140625
 30
0.0
 11
95.199996948242188
 21
-6.4469084847840286
 31
0.0
  0
LINE
  5
3F
100
AcDbEntity
  8
0
  6
CONTINUOUS
 62
               7
100
AcDbLine
 10
94.499996185302734
 20
15.0
 30
0.0
 11
94.499996185302734
 21
-15.0
 31
0.0
  0
LINE
  5
40
100
AcDbEntity
  8
0
  6
CONTINUOUS
 62
               7
100
AcDbLine
 10
94.999994341525735
 20
14.500008451642998
 30
0.0
 11
94.499993768584091
 21
15.000008982437748
 31
0.0
  0
LINE
  5
41
100
AcDbEntity
  8
0
  6
CONTINUOUS
 62
               7
100
AcDbLine
 10
44.999996005301938
 20
-23.000000264294478
 30
0.0
 11
43.999996185302734
 21
-24.0
 31
0.0
  0
LINE
  5
42
100
AcDbEntity
  8
0
  6
CONTINUOUS
 62
               7
100
AcDbLine
 10
46.999996185302734
 20
-15.0
 30
0.0
 11
94.499996185302734
 21
-15.0
 31
0.0
  0
LINE
  5
43
100
AcDbEntity
  8
0
  6
CONTINUOUS
 62
               7
100
AcDbLine
 10
94.999996185302734
 20
14.5
 30
0.0
 11
94.999996185302734
 21
-14.500000042146841
 31
0.0
  0
LINE
  5
44
100
AcDbEntity
  8
0
  6
CONTINUOUS
 62
               7
100
AcDbLine
 10
44.999996185302734
 20
22.999992454899161
 30
0.0
 11
43.999996185302734
 21
23.999992370605469
 31
0.0
  0
LINE
  5
45
100
AcDbEntity
  8
0
  6
CONTINUOUS
 62
               7
100
AcDbLine
 10
100.19999694824219
 20
-12.450000805086299
 30
0.0
 11
99.699996948242188
 21
-12.950000762939453
 31
0.0
  0
LINE
  5
46
100
AcDbEntity
  8
0
  6
CONTINUOUS
 62
               7
100
AcDbLine
 10
100.19999694824219
 20
12.450000805086299
 30
0.0
 11
99.699996948242188
 21
12.950000762939453
 31
0.0
  0
LINE
  5
47
100
AcDbEntity
  8
0
  6
CONTINUOUS
 62
               7
100
AcDbLine
 10
100.19999694824219
 20
6.4468994140625
 30
0.0
 11
95.199996948242188
 21
6.4468994140625
 31
0.0
  0
LINE
  5
48
100
AcDbEntity
  8
0
  6
CONTINUOUS
 62
               7
100
AcDbLine
 10
95.199996948242188
 20
-6.4469084847840277
 30
0.0
 11
100.19999694824219
 21
-6.4468965112737759
 31
0.0
  0
LINE
  5
49
100
AcDbEntity
  8
0
  6
CONTINUOUS
 62
               7
100
AcDbLine
 10
17.0
 20
-24.0
 30
0.0
 11
43.999996185302734
 21
-24.0
 31
0.0
  0
LINE
  5
4A
100
AcDbEntity
  8
0
  6
CONTINUOUS
 62
               7
100
AcDbLine
 10
17.0
 20
23.999992370605469
 30
0.0
 11
43.999996185302734
 21
23.999992370605469
 31
0.0
  0
LINE
  5
4B
100
AcDbEntity
  8
0
  6
CONTINUOUS
 62
               7
100
AcDbLine
 10
44.999996185302734
 20
4.0
 30
0.0
 11
40.499996185302734
 21
4.0
 31
0.0
  0
LINE
  5
4C
100
AcDbEntity
  8
0
  6
CONTINUOUS
 62
               7
100
AcDbLine
 10
44.999996185302734
 20
-4.0
 30
0.0
 11
40.499996185302734
 21
-4.0
 31
0.0
  0
LINE
  5
4D
100
AcDbEntity
  8
0
  6
CONTINUOUS
 62
               7
100
AcDbLine
 10
40.499996185302734
 20
4.0
 30
0.0
 11
40.499996185302734
 21
-4.0
 31
0.0
  0
LINE
  5
4E
100
AcDbEntity
  8
0
  6
CONTINUOUS
 62
               7
100
AcDbLine
 10
43.999996185302734
 20
-4.0
 30
0.0
 11
43.999996185302734
 21
-24.0
 31
0.0
  0
LINE
  5
4F
100
AcDbEntity
  8
0
  6
CONTINUOUS
 62
               7
100
AcDbLine
 10
40.499996185302734
 20
-3.75
 30
0.0
 11
44.099998474121094
 21
-3.75
 31
0.0
  0
LINE
  5
50
100
AcDbEntity
  8
0
  6
CONTINUOUS
 62
               7
100
AcDbLine
 10
40.499996185302734
 20
3.75
 30
0.0
 11
44.099998474121094
 21
3.75
 31
0.0
  0
LINE
  5
51
100
AcDbEntity
  8
0
  6
CONTINUOUS
 62
               7
100
AcDbLine
 10
44.499996185302734
 20
3.3499984741210937
 30
0.0
 11
44.499996185302734
 21
-3.3499984741210937
 31
0.0
  0
LINE
  5
52
100
AcDbEntity
  8
0
  6
CONTINUOUS
 62
               7
100
AcDbLine
 10
44.499997826961021
 20
3.3499975891717213
 30
0.0
 11
44.099995244406614
 21
3.7500001717261284
 31
0.0
  0
LINE
  5
53
100
AcDbEntity
  8
0
  6
CONTINUOUS
 62
               7
100
AcDbLine
 10
44.499996478261892
 20
-3.3500011615433323
 30
0.0
 11
44.099996593105743
 21
-3.7500010466994809
 31
0.0
  0
LINE
  5
54
100
AcDbEntity
  8
0
  6
CONTINUOUS
 62
               7
100
AcDbLine
 10
44.099998474121165
 20
3.7500000000000426
 30
0.0
 11
44.099998474121165
 21
-3.7499999999999574
 31
0.0
  0
LINE
  5
55
100
AcDbEntity
  8
0
  6
CONTINUOUS
 62
               2
100
AcDbLine
 10
95.199996948242188
 20
-6.4469084847840277
 30
0.0
 11
100.19999665019141
 21
6.4468994140625027
 31
0.0
  0
LINE
  5
56
100
AcDbEntity
  8
0
  6
CONTINUOUS
 62
               7
100
AcDbLine
 10
24.0
 20
12.500030517578125
 30
0.0
 11
7.9999847412109375
 21
12.500030517578125
 31
0.0
  0
LINE
  5
57
100
AcDbEntity
  8
0
  6
CONTINUOUS
 62
               7
100
AcDbLine
 10
24.0
 20
-12.500030517578125
 30
0.0
 11
7.9999847412109375
 21
-12.500030517578125
 31
0.0
  0
LINE
  5
58
100
AcDbEntity
  8
0
  6
CONTINUOUS
 62
               7
100
AcDbLine
 10
1.9999999482421842
 20
-10.0
 30
0.0
 11
10.0
 21
-10.0
 31
0.0
  0
LINE
  5
59
100
AcDbEntity
  8
0
  6
CONTINUOUS
 62
               7
100
AcDbLine
 10
1.9999999482421842
 20
10.0
 30
0.0
 11
10.0
 21
10.0
 31
0.0
  0
LINE
  5
5A
100
AcDbEntity
  8
0
  6
CONTINUOUS
 62
               7
100
AcDbLine
 10
1.9999999482421842
 20
4.5
 30
0.0
 11
1.9999999482421842
 21
30.980758666992188
 31
0.0
  0
LINE
  5
5B
100
AcDbEntity
  8
0
  6
CONTINUOUS
 62
               7
100
AcDbLine
 10
6.0
 20
-4.5
 30
0.0
 11
6.0
 21
4.5
 31
0.0
  0
LINE
  5
5C
100
AcDbEntity
  8
0
  6
CONTINUOUS
 62
               2
100
AcDbLine
 10
4.0999908447265625
 20
-3.75
 30
0.0
 11
4.0999908447265625
 21
-0.75
 31
0.0
  0
LINE
  5
5D
100
AcDbEntity
  8
0
  6
CONTINUOUS
 62
               7
100
AcDbLine
 10
6.5
 20
-4.5500030517578125
 30
0.0
 11
6.5
 21
4.5500030517578125
 31
0.0
  0
LINE
  5
5E
100
AcDbEntity
  8
0
  6
CONTINUOUS
 62
               7
100
AcDbLine
 10
1.9999999482421842
 20
-4.5500030517578125
 30
0.0
 11
3.0438385009765625
 21
-4.5500030517578125
 31
0.0
  0
LINE
  5
5F
100
AcDbEntity
  8
0
  6
CONTINUOUS
 62
               7
100
AcDbLine
 10
1.9999999482421842
 20
4.5500030517578125
 30
0.0
 11
3.0438385009765625
 21
4.5500030517578125
 31
0.0
  0
LINE
  5
60
100
AcDbEntity
  8
0
  6
CONTINUOUS
 62
               7
100
AcDbLine
 10
5.0999908447265625
 20
-4.5
 30
0.0
 11
5.9988555908203125
 21
-4.5
 31
0.0
  0
LINE
  5
61
100
AcDbEntity
  8
0
  6
CONTINUOUS
 62
               7
100
AcDbLine
 10
5.15570068359375
 20
-4.5500030517578125
 30
0.0
 11
6.5
 21
-4.5500030517578125
 31
0.0
  0
LINE
  5
62
100
AcDbEntity
  8
0
  6
CONTINUOUS
 62
               7
100
AcDbLine
 10
5.15570068359375
 20
4.5500030517578125
 30
0.0
 11
6.5
 21
4.5500030517578125
 31
0.0
  0
LINE
  5
63
100
AcDbEntity
  8
0
  6
CONTINUOUS
 62
               7
100
AcDbLine
 10
5.0999908447265625
 20
4.5
 30
0.0
 11
6.0
 21
4.5
 31
0.0
  0
LINE
  5
64
100
AcDbEntity
  8
0
  6
CONTINUOUS
 62
               2
100
AcDbLine
 10
2.5999908447265625
 20
-2.25
 30
0.0
 11
5.5999908447265625
 21
-2.25
 31
0.0
  0
LINE
  5
65
100
AcDbEntity
  8
0
  6
CONTINUOUS
 62
               2
100
AcDbLine
 10
2.6485443115234375
 20
2.25
 30
0.0
 11
5.5999908447265625
 21
2.25
 31
0.0
  0
LINE
  5
66
100
AcDbEntity
  8
0
  6
CONTINUOUS
 62
               7
100
AcDbLine
 10
1.5
 20
-4.5
 30
0.0
 11
1.5
 21
4.5
 31
0.0
  0
LINE
  5
67
100
AcDbEntity
  8
0
  6
CONTINUOUS
 62
               2
100
AcDbLine
 10
4.0999908447265625
 20
0.75
 30
0.0
 11
4.0999908447265625
 21
3.75
 31
0.0
  0
LINE
  5
68
100
AcDbEntity
  8
0
  6
CONTINUOUS
 62
               7
100
AcDbLine
 10
10.0
 20
-10.0
 30
0.0
 11
10.0
 21
10.0
 31
0.0
  0
LINE
  5
69
100
AcDbEntity
  8
0
  6
CONTINUOUS
 62
               7
100
AcDbLine
 10
0.0
 20
4.5
 30
0.0
 11
0.0
 21
-4.5
 31
0.0
  0
LINE
  5
6A
100
AcDbEntity
  8
0
  6
CONTINUOUS
 62
               7
100
AcDbLine
 10
3.0999908447265625
 20
4.5
 30
0.0
 11
0.0
 21
4.5
 31
0.0
  0
LINE
  5
6B
100
AcDbEntity
  8
0
  6
CONTINUOUS
 62
               7
100
AcDbLine
 10
3.0999908447265625
 20
-4.5
 30
0.0
 11
0.0
 21
-4.5
 31
0.0
  0
LINE
  5
6C
100
AcDbEntity
  8
0
  6
CONTINUOUS
 62
               7
100
AcDbLine
 10
7.9999847412109375
 20
31.761032104492187
 30
0.0
 11
7.9999847412109375
 21
10.0
 31
0.0
  0
LINE
  5
6D
100
AcDbEntity
  8
0
  6
CONTINUOUS
 62
               7
100
AcDbLine
 10
7.9999847412109375
 20
-10.0
 30
0.0
 11
7.9999847412109375
 21
-31.761030197143555
 31
0.0
  0
LINE
  5
6E
100
AcDbEntity
  8
0
  6
CONTINUOUS
 62
               7
100
AcDbLine
 10
17.0
 20
30.7610298267698
 30
0.0
 11
17.0
 21
23.999992370605469
 31
0.0
  0
LINE
  5
6F
100
AcDbEntity
  8
0
  6
CONTINUOUS
 62
               7
100
AcDbLine
 10
24.0
 20
23.999992370605469
 30
0.0
 11
24.0
 21
-24.0
 31
0.0
  0
LINE
  5
70
100
AcDbEntity
  8
0
  6
CONTINUOUS
 62
               7
100
AcDbLine
 10
16.000001853298727
 20
-31.761030197143555
 30
0.0
 11
7.9999847412109375
 21
-31.761030197143555
 31
0.0
  0
LINE
  5
71
100
AcDbEntity
  8
0
  6
CONTINUOUS
 62
               7
100
AcDbLine
 10
15.999997722277612
 20
31.761032104492187
 30
0.0
 11
7.9999847412109375
 21
31.761032104492187
 31
0.0
  0
LINE
  5
72
100
AcDbEntity
  8
0
  6
CONTINUOUS
 62
               7
100
AcDbLine
 10
7.9999847412109375
 20
-30.980758666992188
 30
0.0
 11
1.9999999482421842
 21
-30.980758666992188
 31
0.0
  0
LINE
  5
73
100
AcDbEntity
  8
0
  6
CONTINUOUS
 62
               7
100
AcDbLine
 10
7.9999847412109375
 20
30.980758666992188
 30
0.0
 11
1.9999999482421842
 21
30.980758666992188
 31
0.0
  0
LINE
  5
74
100
AcDbEntity
  8
0
  6
CONTINUOUS
 62
               7
100
AcDbLine
 10
17.0
 20
12.500030517578125
 30
0.0
 11
17.0
 21
-12.500030517578125
 31
0.0
  0
LINE
  5
75
100
AcDbEntity
  8
0
  6
CONTINUOUS
 62
               7
100
AcDbLine
 10
17.0
 20
-24.0
 30
0.0
 11
17.0
 21
-30.761032050442282
 31
0.0
  0
LINE
  5
76
100
AcDbEntity
  8
0
  6
CONTINUOUS
 62
               7
100
AcDbLine
 10
17.0
 20
-30.761032050442282
 30
0.0
 11
16.000001853298727
 21
-31.761030197143555
 31
0.0
  0
LINE
  5
77
100
AcDbEntity
  8
0
  6
CONTINUOUS
 62
               7
100
AcDbLine
 10
17.0
 20
30.7610298267698
 30
0.0
 11
15.999997722277612
 21
31.761032104492187
 31
0.0
  0
LINE
  5
78
100
AcDbEntity
  8
0
  6
CONTINUOUS
 62
               7
100
AcDbLine
 10
16.0
 20
12.500030517578125
 30
0.0
 11
16.0
 21
-12.500030517578125
 31
0.0
  0
LINE
  5
79
100
AcDbEntity
  8
0
  6
CONTINUOUS
 62
               7
100
AcDbLine
 10
23.0
 20
12.500030517578125
 30
0.0
 11
23.0
 21
-12.500030517578125
 31
0.0
  0
LINE
  5
7A
100
AcDbEntity
  8
0
  6
CONTINUOUS
 62
               7
100
AcDbLine
 10
2.4999847412109375
 20
-10.107350164403215
 30
0.0
 11
2.4999847412109375
 21
-15.007339477539063
 31
0.0
  0
LINE
  5
7B
100
AcDbEntity
  8
0
  6
CONTINUOUS
 62
               7
100
AcDbLine
 10
2.79998779296875
 20
-15.307342529296875
 30
0.0
 11
5.4999847412109375
 21
-15.307342529296875
 31
0.0
  0
LINE
  5
7C
100
AcDbEntity
  8
0
  6
CONTINUOUS
 62
               7
100
AcDbLine
 10
2.79998779296875
 20
-10.0
 30
0.0
 11
2.79998779296875
 21
-15.307342529296875
 31
0.0
  0
LINE
  5
7D
100
AcDbEntity
  8
0
  6
CONTINUOUS
 62
               7
100
AcDbLine
 10
5.4999847412109375
 20
-10.0
 30
0.0
 11
5.4999847412109375
 21
-15.381107330322266
 31
0.0
  0
LINE
  5
7E
100
AcDbEntity
  8
0
  6
CONTINUOUS
 62
               7
100
AcDbLine
 10
2.6073349056141524
 20
-10.0
 30
0.0
 11
2.4999847412109375
 21
-10.107350164403215
 31
0.0
  0
LINE
  5
7F
100
AcDbEntity
  8
0
  6
CONTINUOUS
 62
               7
100
AcDbLine
 10
2.4999847412109375
 20
-15.007339477539063
 30
0.0
 11
2.79998779296875
 21
-15.307342529296875
 31
0.0
  0
LINE
  5
80
100
AcDbEntity
  8
0
  6
CONTINUOUS
 62
               7
100
AcDbLine
 10
1.9999999482421842
 20
-30.980758666992188
 30
0.0
 11
1.9999999482421842
 21
-4.5
 31
0.0
  0
LINE
  5
81
100
AcDbEntity
  8
0
  6
CONTINUOUS
 62
               7
100
AcDbLine
 10
7.9999847412109375
 20
-15.381107330322266
 30
0.0
 11
5.4999847412109375
 21
-15.381107330322266
 31
0.0
  0
LINE
  5
82
100
AcDbEntity
  8
0
  6
CONTINUOUS
 62
               7
100
AcDbLine
 10
2.4999847412109375
 20
10.107342545934216
 30
0.0
 11
2.4999847412109375
 21
15.007339477539063
 31
0.0
  0
LINE
  5
83
100
AcDbEntity
  8
0
  6
CONTINUOUS
 62
               7
100
AcDbLine
 10
7.9999847412109375
 20
15.381111145019531
 30
0.0
 11
5.4999847412109375
 21
15.381111145019531
 31
0.0
  0
LINE
  5
84
100
AcDbEntity
  8
0
  6
CONTINUOUS
 62
               7
100
AcDbLine
 10
2.79998779296875
 20
15.307342529296875
 30
0.0
 11
5.4999847412109375
 21
15.307342529296875
 31
0.0
  0
LINE
  5
85
100
AcDbEntity
  8
0
  6
CONTINUOUS
 62
               7
100
AcDbLine
 10
5.4999847412109375
 20
10.0
 30
0.0
 11
5.4999847412109375
 21
15.381111145019531
 31
0.0
  0
LINE
  5
86
100
AcDbEntity
  8
0
  6
CONTINUOUS
 62
               7
100
AcDbLine
 10
2.79998779296875
 20
10.0
 30
0.0
 11
2.79998779296875
 21
15.307342529296875
 31
0.0
  0
LINE
  5
87
100
AcDbEntity
  8
0
  6
CONTINUOUS
 62
               7
100
AcDbLine
 10
2.6073272871451536
 20
10.0
 30
0.0
 11
2.4999847412109375
 21
10.107342545934216
 31
0.0
  0
LINE
  5
88
100
AcDbEntity
  8
0
  6
CONTINUOUS
 62
               7
100
AcDbLine
 10
2.4999847412109375
 20
15.007339477539063
 30
0.0
 11
2.79998779296875
 21
15.307342529296875
 31
0.0
  0
LINE
  5
89
100
AcDbEntity
  8
0
  6
CONTINUOUS
 62
               7
100
AcDbLine
 10
1.9999999482421842
 20
-23.467639923095703
 30
0.0
 11
0.0
 21
-23.467639923095703
 31
0.0
  0
LINE
  5
8A
100
AcDbEntity
  8
0
  6
CONTINUOUS
 62
               7
100
AcDbLine
 10
1.9999999482421842
 20
-7.8791770935058594
 30
0.0
 11
0.0
 21
-7.8791770935058594
 31
0.0
  0
LINE
  5
8B
100
AcDbEntity
  8
0
  6
CONTINUOUS
 62
               7
100
AcDbLine
 10
1.9999999482421842
 20
-7.0131492614746094
 30
0.0
 11
1.5
 21
-7.0131492614746094
 31
0.0
  0
LINE
  5
8C
100
AcDbEntity
  8
0
  6
CONTINUOUS
 62
               7
100
AcDbLine
 10
1.9999999482421842
 20
-24.33366584777832
 30
0.0
 11
1.5
 21
-24.33366584777832
 31
0.0
  0
LINE
  5
8D
100
AcDbEntity
  8
0
  6
CONTINUOUS
 62
               7
100
AcDbLine
 10
0.0
 20
-4.5
 30
0.0
 11
0.0
 21
-23.467639923095703
 31
0.0
  0
LINE
  5
8E
100
AcDbEntity
  8
0
  6
CONTINUOUS
 62
               7
100
AcDbLine
 10
1.5
 20
-4.5
 30
0.0
 11
1.5
 21
-7.8791770935058594
 31
0.0
  0
LINE
  5
8F
100
AcDbEntity
  8
0
  6
CONTINUOUS
 62
               7
100
AcDbLine
 10
1.5
 20
-23.467639923095703
 30
0.0
 11
1.5
 21
-24.33366584777832
 31
0.0
  0
LINE
  5
90
100
AcDbEntity
  8
0
  6
CONTINUOUS
 62
               7
100
AcDbLine
 10
1.5
 20
23.467643737792969
 30
0.0
 11
1.5
 21
24.333663940429688
 31
0.0
  0
LINE
  5
91
100
AcDbEntity
  8
0
  6
CONTINUOUS
 62
               7
100
AcDbLine
 10
0.0
 20
4.5
 30
0.0
 11
0.0
 21
23.467643737792969
 31
0.0
  0
LINE
  5
92
100
AcDbEntity
  8
0
  6
CONTINUOUS
 62
               7
100
AcDbLine
 10
1.9999999482421842
 20
24.333663940429688
 30
0.0
 11
1.5
 21
24.333663940429688
 31
0.0
  0
LINE
  5
93
100
AcDbEntity
  8
0
  6
CONTINUOUS
 62
               7
100
AcDbLine
 10
1.9999999482421842
 20
7.0131492614746094
 30
0.0
 11
1.5
 21
7.0131492614746094
 31
0.0
  0
LINE
  5
94
100
AcDbEntity
  8
0
  6
CONTINUOUS
 62
               7
100
AcDbLine
 10
1.5
 20
4.5
 30
0.0
 11
1.5
 21
7.8791770935058594
 31
0.0
  0
LINE
  5
95
100
AcDbEntity
  8
0
  6
CONTINUOUS
 62
               7
100
AcDbLine
 10
1.9999999482421842
 20
23.467643737792969
 30
0.0
 11
0.0
 21
23.467643737792969
 31
0.0
  0
LINE
  5
96
100
AcDbEntity
  8
0
  6
CONTINUOUS
 62
               7
100
AcDbLine
 10
1.9999999482421842
 20
7.8791770935058594
 30
0.0
 11
0.0
 21
7.8791770935058594
 31
0.0
  0
LINE
  5
97
100
AcDbEntity
  8
0
  6
CONTINUOUS
 62
               7
100
AcDbLine
 10
0.0
 20
1.9999923706054687
 30
0.0
 11
-2.6999969482421875
 21
1.9999923706054687
 31
0.0
  0
LINE
  5
98
100
AcDbEntity
  8
0
  6
CONTINUOUS
 62
               7
100
AcDbLine
 10
0.0
 20
-2.0000076293945313
 30
0.0
 11
-2.6999969482421875
 21
-2.0000076293945313
 31
0.0
  0
LINE
  5
99
100
AcDbEntity
  8
0
  6
CONTINUOUS
 62
               7
100
AcDbLine
 10
-3.0
 20
1.6999893188476562
 30
0.0
 11
-3.0
 21
-1.7000045776367187
 31
0.0
  0
LINE
  5
9A
100
AcDbEntity
  8
0
  6
CONTINUOUS
 62
               7
100
AcDbLine
 10
-2.6999969482421875
 20
1.9999923706054687
 30
0.0
 11
-2.9999961877597343
 21
1.6999931310879219
 31
0.0
  0
LINE
  5
9B
100
AcDbEntity
  8
0
  6
CONTINUOUS
 62
               7
100
AcDbLine
 10
-2.6999969482421875
 20
-2.0000076293945313
 30
0.0
 11
-3.0
 21
-1.7000045776367187
 31
0.0
  0
LINE
  5
9C
100
AcDbEntity
  8
0
  6
CONTINUOUS
 62
               7
100
AcDbLine
 10
-2.6999969482421875
 20
1.9999923706054687
 30
0.0
 11
-2.6999969482421875
 21
-2.0000076293945313
 31
0.0
  0
LINE
  5
9D
100
AcDbEntity
  8
0
  6
CONTINUOUS
 62
               2
100
AcDbLine
 10
2.1999969482421875
 20
9.95928955078125
 30
0.0
 11
-4.0
 21
9.95928955078125
 31
0.0
  0
LINE
  5
9E
100
AcDbEntity
  8
0
  6
CONTINUOUS
 62
               7
100
AcDbLine
 10
-3.0
 20
11.659275054931641
 30
0.0
 11
-3.0
 21
8.2592811584472656
 31
0.0
  0
LINE
  5
9F
100
AcDbEntity
  8
0
  6
CONTINUOUS
 62
               7
100
AcDbLine
 10
0.0
 20
7.9592781066894531
 30
0.0
 11
-2.6999969482421875
 21
7.9592781066894531
 31
0.0
  0
LINE
  5
A0
100
AcDbEntity
  8
0
  6
CONTINUOUS
 62
               7
100
AcDbLine
 10
0.0
 20
11.959278106689453
 30
0.0
 11
-2.6999969482421875
 21
11.959278106689453
 31
0.0
  0
LINE
  5
A1
100
AcDbEntity
  8
0
  6
CONTINUOUS
 62
               7
100
AcDbLine
 10
-2.6999969482421875
 20
11.959278106689453
 30
0.0
 11
-2.6999969482421875
 21
7.9592781066894531
 31
0.0
  0
LINE
  5
A2
100
AcDbEntity
  8
0
  6
CONTINUOUS
 62
               7
100
AcDbLine
 10
-2.6999969482421875
 20
11.959278106689453
 30
0.0
 11
-3.0
 21
11.659275054931641
 31
0.0
  0
LINE
  5
A3
100
AcDbEntity
  8
0
  6
CONTINUOUS
 62
               7
100
AcDbLine
 10
-2.6999969482421875
 20
7.9592781066894531
 30
0.0
 11
-3.0
 21
8.2592811584472656
 31
0.0
  0
LINE
  5
A4
100
AcDbEntity
  8
0
  6
CONTINUOUS
 62
               2
100
AcDbLine
 10
2.1999969482421875
 20
-9.95928955078125
 30
0.0
 11
-4.0
 21
-9.95928955078125
 31
0.0
  0
LINE
  5
A5
100
AcDbEntity
  8
0
  6
CONTINUOUS
 62
               7
100
AcDbLine
 10
-3.0
 20
-11.659275054931641
 30
0.0
 11
-3.0
 21
-8.2592811584472656
 31
0.0
  0
LINE
  5
A6
100
AcDbEntity
  8
0
  6
CONTINUOUS
 62
               7
100
AcDbLine
 10
0.0
 20
-7.9592781066894531
 30
0.0
 11
-2.6999969482421875
 21
-7.9592781066894531
 31
0.0
  0
LINE
  5
A7
100
AcDbEntity
  8
0
  6
CONTINUOUS
 62
               7
100
AcDbLine
 10
0.0
 20
-11.959278106689453
 30
0.0
 11
-2.6999969482421875
 21
-11.959278106689453
 31
0.0
  0
LINE
  5
A8
100
AcDbEntity
  8
0
  6
CONTINUOUS
 62
               7
100
AcDbLine
 10
-2.6999969482421875
 20
-11.959278106689453
 30
0.0
 11
-2.6999969482421875
 21
-7.9592781066894531
 31
0.0
  0
LINE
  5
A9
100
AcDbEntity
  8
0
  6
CONTINUOUS
 62
               7
100
AcDbLine
 10
-2.6999969482421875
 20
-11.959278106689453
 30
0.0
 11
-3.0
 21
-11.659275054931641
 31
0.0
  0
LINE
  5
AA
100
AcDbEntity
  8
0
  6
CONTINUOUS
 62
               7
100
AcDbLine
 10
-2.6999969482421875
 20
-7.9592781066894531
 30
0.0
 11
-3.0
 21
-8.2592811584472656
 31
0.0
  0
LINE
  5
AB
100
AcDbEntity
  8
0
  6
CONTINUOUS
 62
               2
100
AcDbLine
 10
100.19999694824219
 20
-6.4468965112737759
 30
0.0
 11
95.199996948242188
 21
6.4468994140625
 31
0.0
  0
ENDBLK
  5
AC
100
AcDbEntity
  8
0
100
AcDbBlockEnd
  0
BLOCK
  5
AD
100
AcDbEntity
  8
0
100
AcDbBlockBegin
  2
NHE2-20-2
 70
               0
 10
0.0
 20
0.0
 30
0.0
  3
NHE2-20-2
  1

  0
LINE
  5
AE
100
AcDbEntity
  8
0
  6
CENTER
 62
               2
100
AcDbLine
 10
-26.000002422865037
 20
0.0
 30
0.0
 11
34.999993762437697
 21
0.0
 31
0.0
  0
CIRCLE
  5
AF
100
AcDbEntity
  8
0
  6
CONTINUOUS
 62
               7
100
AcDbCircle
 10
7.250012319683492
 20
12.557389467809131
 30
0.0
 40
2.75
  0
CIRCLE
  5
B0
100
AcDbEntity
  8
0
  6
CONTINUOUS
 62
               7
100
AcDbCircle
 10
7.2500123196834778
 20
-12.557389467809131
 30
0.0
 40
2.75
  0
ARC
  5
B1
100
AcDbEntity
  8
0
  6
CONTINUOUS
 62
               7
100
AcDbCircle
 10
0.0
 20
0.0
 30
0.0
 40
32.0
100
AcDbArc
 50
217.0065283044633
 51
262.99340531472791
  0
ARC
  5
B2
100
AcDbEntity
  8
0
  6
CONTINUOUS
 62
               7
100
AcDbCircle
 10
0.0
 20
0.0
 30
0.0
 40
32.0
100
AcDbArc
 50
97.006597183668376
 51
142.99348717838862
  0
CIRCLE
  5
B3
100
AcDbEntity
  8
0
  6
CONTINUOUS
 62
               7
100
AcDbCircle
 10
-14.500024444179587
 20
0.0
 30
0.0
 40
2.75
  0
CIRCLE
  5
B4
100
AcDbEntity
  8
0
  6
CONTINUOUS
 62
               7
100
AcDbCircle
 10
0.0
 20
0.0
 30
0.0
 40
3.0
  0
ARC
  5
B5
100
AcDbEntity
  8
0
  6
CONTINUOUS
 62
               7
100
AcDbCircle
 10
0.0
 20
0.0
 30
0.0
 40
32.0
100
AcDbArc
 50
337.00654632821852
 51
22.993468511156479
  0
ARC
  5
B6
100
AcDbEntity
  8
0
  6
CONTINUOUS
 62
               7
100
AcDbCircle
 10
-0.0000024228650375
 20
0.0
 30
0.0
 40
24.0
100
AcDbArc
 50
151.38829392253467
 51
208.61172833890174
  0
ARC
  5
B7
100
AcDbEntity
  8
0
  6
CONTINUOUS
 62
               7
100
AcDbCircle
 10
-0.0000024228650375
 20
0.0
 30
0.0
 40
24.0
100
AcDbArc
 50
271.38818834380942
 51
328.61174819075762
  0
ARC
  5
B8
100
AcDbEntity
  8
0
  6
CONTINUOUS
 62
               7
100
AcDbCircle
 10
-0.0000024228650375
 20
0.0
 30
0.0
 40
24.0
100
AcDbArc
 50
31.388273145477932
 51
88.611815248414047
  0
CIRCLE
  5
B9
100
AcDbEntity
  8
0
  6
CONTINUOUS
 62
               7
100
AcDbCircle
 10
7.2500123196834778
 20
-12.557389467809131
 30
0.0
 40
1.7320507764816284
  0
CIRCLE
  5
BA
100
AcDbEntity
  8
0
  6
CONTINUOUS
 62
               7
100
AcDbCircle
 10
7.250012319683492
 20
12.557389467809131
 30
0.0
 40
1.7320507764816284
  0
CIRCLE
  5
BB
100
AcDbEntity
  8
0
  6
CONTINUOUS
 62
               7
100
AcDbCircle
 10
-14.500024444179587
 20
0.0
 30
0.0
 40
1.7320507764816284
  0
CIRCLE
  5
BC
100
AcDbEntity
  8
0
  6
CONTINUOUS
 62
               7
100
AcDbCircle
 10
11.499989947740431
 20
0.0
 30
0.0
 40
2.0
  0
CIRCLE
  5
BD
100
AcDbEntity
  8
0
  6
CONTINUOUS
 62
               2
100
AcDbCircle
 10
19.499993762437697
 20
0.0
 30
0.0
 40
2.0
  0
CIRCLE
  5
BE
100
AcDbEntity
  8
0
  6
CONTINUOUS
 62
               7
100
AcDbCircle
 10
19.499993762437697
 20
0.0
 30
0.0
 40
1.5
  0
CIRCLE
  5
BF
100
AcDbEntity
  8
0
  6
CONTINUOUS
 62
               7
100
AcDbCircle
 10
-5.7499935002545328
 20
9.959280706880179
 30
0.0
 40
2.0
  0
CIRCLE
  5
C0
100
AcDbEntity
  8
0
  6
CONTINUOUS
 62
               2
100
AcDbCircle
 10
-9.7500049443463297
 20
16.887503634554804
 30
0.0
 40
2.0
  0
CIRCLE
  5
C1
100
AcDbEntity
  8
0
  6
CONTINUOUS
 62
               7
100
AcDbCircle
 10
-9.7500049443463297
 20
16.887503634554804
 30
0.0
 40
1.5
  0
CIRCLE
  5
C2
100
AcDbEntity
  8
0
  6
CONTINUOUS
 62
               7
100
AcDbCircle
 10
-5.74999505384082
 20
-9.959283397770534
 30
0.0
 40
2.0
  0
CIRCLE
  5
C3
100
AcDbEntity
  8
0
  6
CONTINUOUS
 62
               2
100
AcDbCircle
 10
-9.74999505384082
 20
-16.887486503697033
 30
0.0
 40
2.0
  0
CIRCLE
  5
C4
100
AcDbEntity
  8
0
  6
CONTINUOUS
 62
               7
100
AcDbCircle
 10
-9.74999505384082
 20
-16.887486503697033
 30
0.0
 40
1.5
  0
CIRCLE
  5
C5
100
AcDbEntity
  8
0
  6
CONTINUOUS
 62
               7
100
AcDbCircle
 10
-14.500024444179587
 20
0.0
 30
0.0
 40
3.0
  0
ARC
  5
C6
100
AcDbEntity
  8
0
  6
CONTINUOUS
 62
               7
100
AcDbCircle
 10
-20.80648855262578
 20
3.0378036499023509
 30
0.0
 40
4.0
100
AcDbArc
 50
334.28013971304063
 51
30.000003339304222
  0
ARC
  5
C7
100
AcDbEntity
  8
0
  6
CONTINUOUS
 62
               7
100
AcDbCircle
 10
-20.806484737928514
 20
-3.037811279296875
 30
0.0
 40
4.0
100
AcDbArc
 50
330.00000166965214
 51
25.719960918564112
  0
ARC
  5
C8
100
AcDbEntity
  8
0
  6
CONTINUOUS
 62
               7
100
AcDbCircle
 10
-8.1465173154431625
 20
-3.9568328857421875
 30
0.0
 40
2.0
100
AcDbArc
 50
57.803599496018826
 51
100.00000301050196
  0
ARC
  5
C9
100
AcDbEntity
  8
0
  6
CONTINUOUS
 62
               7
100
AcDbCircle
 10
-8.1464944272595687
 20
3.9568786621093821
 30
0.0
 40
2.0
100
AcDbArc
 50
259.99969720126268
 51
302.19560402409525
  0
ARC
  5
CA
100
AcDbEntity
  8
0
  6
CONTINUOUS
 62
               7
100
AcDbCircle
 10
0.6464937878991464
 20
-9.0334811933873347
 30
0.0
 40
2.0
100
AcDbArc
 50
19.999697979245944
 51
62.195824024661498
  0
ARC
  5
CB
100
AcDbEntity
  8
0
  6
CONTINUOUS
 62
               7
100
AcDbCircle
 10
7.4999632448595719
 20
-5.07666015625
 30
0.0
 40
2.0
100
AcDbArc
 50
179.99999749552182
 51
219.9999997469881
  0
ARC
  5
CC
100
AcDbEntity
  8
0
  6
CONTINUOUS
 62
               7
100
AcDbCircle
 10
13.034051379625197
 20
-16.500030517578125
 30
0.0
 40
4.0
100
AcDbArc
 50
90.000005008956336
 51
145.71996425786833
  0
CIRCLE
  5
CD
100
AcDbEntity
  8
0
  6
CONTINUOUS
 62
               7
100
AcDbCircle
 10
7.2499779874080872
 20
-12.557404726598193
 30
0.0
 40
3.0
  0
ARC
  5
CE
100
AcDbEntity
  8
0
  6
CONTINUOUS
 62
               7
100
AcDbCircle
 10
7.7724203676623063
 20
-19.537841796875
 30
0.0
 40
4.0
100
AcDbArc
 50
94.280133034432154
 51
149.99999666069579
  0
ARC
  5
CF
100
AcDbEntity
  8
0
  6
CONTINUOUS
 62
               7
100
AcDbCircle
 10
7.4999937624376969
 20
5.0766220092773437
 30
0.0
 40
2.0
100
AcDbArc
 50
139.99969813082666
 51
179.99969696719836
  0
ARC
  5
D0
100
AcDbEntity
  8
0
  6
CONTINUOUS
 62
               7
100
AcDbCircle
 10
0.64652772850215
 20
9.0335006713867187
 30
0.0
 40
2.0
100
AcDbArc
 50
297.80348205875634
 51
339.99999967119771
  0
ARC
  5
D1
100
AcDbEntity
  8
0
  6
CONTINUOUS
 62
               7
100
AcDbCircle
 10
13.034043750230666
 20
16.500038146972656
 30
0.0
 40
4.0
100
AcDbArc
 50
214.28013978883095
 51
270.00000044529207
  0
CIRCLE
  5
D2
100
AcDbEntity
  8
0
  6
CONTINUOUS
 62
               7
100
AcDbCircle
 10
7.2500237637752889
 20
12.557343691441943
 30
0.0
 40
3.0
  0
ARC
  5
D3
100
AcDbEntity
  8
0
  6
CONTINUOUS
 62
               7
100
AcDbCircle
 10
7.7724089235705094
 20
19.537841796875
 30
0.0
 40
4.0
100
AcDbArc
 50
209.99999833034789
 51
265.71995715237307
  0
CIRCLE
  5
D4
100
AcDbEntity
  8
0
  6
CONTINUOUS
 62
               7
100
AcDbCircle
 10
-20.999999999999972
 20
0.0
 30
0.0
 40
1.6000000238418579
  0
CIRCLE
  5
D5
100
AcDbEntity
  8
0
  6
CONTINUOUS
 62
               7
100
AcDbCircle
 10
10.500000141342326
 20
-18.186533397869184
 30
0.0
 40
1.6000000238418579
  0
CIRCLE
  5
D6
100
AcDbEntity
  8
0
  6
CONTINUOUS
 62
               7
100
AcDbCircle
 10
10.50000014134234
 20
18.186533397869184
 30
0.0
 40
1.6000000238418579
  0
ARC
  5
D7
100
AcDbEntity
  8
0
  6
CONTINUOUS
 62
               2
100
AcDbCircle
 10
0.0000000000000142
 20
0.0
 30
0.0
 40
21.0
100
AcDbArc
 50
166.32571607806969
 51
193.67428528842098
  0
ARC
  5
D8
100
AcDbEntity
  8
0
  6
CONTINUOUS
 62
               2
100
AcDbCircle
 10
0.0000000000000142
 20
0.0
 30
0.0
 40
21.0
100
AcDbArc
 50
286.32571793719768
 51
313.67428202490714
  0
ARC
  5
D9
100
AcDbEntity
  8
0
  6
CONTINUOUS
 62
               2
100
AcDbCircle
 10
0.0000000000000142
 20
0.0
 30
0.0
 40
21.0
100
AcDbArc
 50
46.325712738765461
 51
73.674281949116761
  0
LINE
  5
DA
100
AcDbEntity
  8
0
  6
CONTINUOUS
 62
               7
100
AcDbLine
 10
29.999993762437697
 20
-10.0
 30
0.0
 11
29.999993762437697
 21
10.000007629394531
 31
0.0
  0
LINE
  5
DB
100
AcDbEntity
  8
0
  6
CONTINUOUS
 62
               7
100
AcDbLine
 10
4.3082877296009201
 20
17.537835756322664
 30
0.0
 11
-3.9034760613792798
 21
31.761027606773666
 31
0.0
  0
LINE
  5
DC
100
AcDbEntity
  8
0
  6
CONTINUOUS
 62
               7
100
AcDbLine
 10
13.034043750230666
 20
12.500038146972656
 30
0.0
 11
29.457580456042692
 21
12.500038146972656
 31
0.0
  0
LINE
  5
DD
100
AcDbEntity
  8
0
  6
CONTINUOUS
 62
               7
100
AcDbLine
 10
5.4999899477404313
 20
-4.5
 30
0.0
 11
25.500001391832228
 21
-4.5
 31
0.0
  0
LINE
  5
DE
100
AcDbEntity
  8
0
  6
CONTINUOUS
 62
               7
100
AcDbLine
 10
5.4999899477404313
 20
4.500030517578125
 30
0.0
 11
25.500001391832228
 21
4.500030517578125
 31
0.0
  0
LINE
  5
DF
100
AcDbEntity
  8
0
  6
CONTINUOUS
 62
               7
100
AcDbLine
 10
5.4999899477404313
 20
-5.087310791015625
 30
0.0
 11
5.4999899477404313
 21
5.0766220092773437
 31
0.0
  0
LINE
  5
E0
100
AcDbEntity
  8
0
  6
CONTINUOUS
 62
               7
100
AcDbLine
 10
24.500001391832228
 20
-4.5
 30
0.0
 11
24.500001391832228
 21
4.500030517578125
 31
0.0
  0
LINE
  5
E1
100
AcDbEntity
  8
0
  6
CONTINUOUS
 62
               7
100
AcDbLine
 10
6.4999899477404313
 20
-4.5
 30
0.0
 11
6.4999899477404313
 21
4.500030517578125
 31
0.0
  0
LINE
  5
E2
100
AcDbEntity
  8
0
  6
CONTINUOUS
 62
               7
100
AcDbLine
 10
25.500001391832228
 20
-4.5
 30
0.0
 11
25.500001391832228
 21
4.500030517578125
 31
0.0
  0
LINE
  5
E3
100
AcDbEntity
  8
0
  6
CONTINUOUS
 62
               7
100
AcDbLine
 10
5.4999899477404313
 20
5.000030517578125
 30
0.0
 11
29.999993762437697
 21
5.000030517578125
 31
0.0
  0
LINE
  5
E4
100
AcDbEntity
  8
0
  6
CONTINUOUS
 62
               7
100
AcDbLine
 10
5.4999899477404313
 20
-5.0
 30
0.0
 11
29.999993762437697
 21
-5.0
 31
0.0
  0
LINE
  5
E5
100
AcDbEntity
  8
0
  6
CONTINUOUS
 62
               7
100
AcDbLine
 10
-6.6478451776688132
 20
-2.5143872323879117
 30
0.0
 11
-16.647121088175538
 21
-19.833640837435127
 31
0.0
  0
LINE
  5
E6
100
AcDbEntity
  8
0
  6
CONTINUOUS
 62
               7
100
AcDbLine
 10
-23.660270123301245
 20
-20.980740847875175
 30
0.0
 11
-6.3397623584849327
 21
-30.980740847875175
 31
0.0
  0
LINE
  5
E7
100
AcDbEntity
  8
0
  6
CONTINUOUS
 62
               7
100
AcDbLine
 10
-6.3397469324071807
 20
30.980772595269116
 30
0.0
 11
-23.660253871317309
 21
20.980773072106274
 31
0.0
  0
LINE
  5
E8
100
AcDbEntity
  8
0
  6
CONTINUOUS
 62
               7
100
AcDbLine
 10
1.5793960106193339
 20
-7.2643872323881649
 30
0.0
 11
-10.669876085190168
 21
-28.480748477269778
 31
0.0
  0
LINE
  5
E9
100
AcDbEntity
  8
0
  6
CONTINUOUS
 62
               7
100
AcDbLine
 10
-7.0808710862876723
 20
-2.2643796029935341
 30
0.0
 11
-19.330143182097203
 21
-23.480740847875154
 31
0.0
  0
LINE
  5
EA
100
AcDbEntity
  8
0
  6
CONTINUOUS
 62
               7
100
AcDbLine
 10
4.1506720462196824
 20
-12.810775791576999
 30
0.0
 11
-6.5384557090912097
 21
-31.324887820074515
 31
0.0
  0
LINE
  5
EB
100
AcDbEntity
  8
0
  6
CONTINUOUS
 62
               7
100
AcDbLine
 10
-13.170443920908639
 20
-2.8118292288636937
 30
0.0
 11
-23.858955425611896
 21
-21.32487388001779
 31
0.0
  0
LINE
  5
EC
100
AcDbEntity
  8
0
  6
CONTINUOUS
 62
               7
100
AcDbLine
 10
4.150087613902528
 20
12.81184652416961
 30
0.0
 11
-6.53842558402593
 21
31.324894108075696
 31
0.0
  0
LINE
  5
ED
100
AcDbEntity
  8
0
  6
CONTINUOUS
 62
               7
100
AcDbLine
 10
-13.170456375251177
 20
2.8119111739098859
 30
0.0
 11
-23.858934248482967
 21
21.324897573647718
 31
0.0
  0
LINE
  5
EE
100
AcDbEntity
  8
0
  6
CONTINUOUS
 62
               7
100
AcDbLine
 10
1.5794085254285761
 20
7.264395412018045
 30
0.0
 11
-10.669873047705067
 21
28.480773072106274
 31
0.0
  0
LINE
  5
EF
100
AcDbEntity
  8
0
  6
CONTINUOUS
 62
               7
100
AcDbLine
 10
-7.08085857147843
 20
2.2643877826234013
 30
0.0
 11
-19.330140144612074
 21
23.480765442711672
 31
0.0
  0
LINE
  5
F0
100
AcDbEntity
  8
0
  6
CONTINUOUS
 62
               7
100
AcDbLine
 10
9.0204159643605095
 20
10.000007629394531
 30
0.0
 11
30.397365797253741
 21
10.000007629394531
 31
0.0
  0
LINE
  5
F1
100
AcDbEntity
  8
0
  6
CONTINUOUS
 62
               7
100
AcDbLine
 10
9.0203173076647118
 20
-10.0
 30
0.0
 11
30.397368307141335
 21
-10.0
 31
0.0
  0
LINE
  5
F2
100
AcDbEntity
  8
0
  6
CONTINUOUS
 62
               7
100
AcDbLine
 10
-17.342383246390227
 20
-5.0378095940328009
 30
0.0
 11
-25.554141882060151
 21
-19.260992515224622
 31
0.0
  0
LINE
  5
F3
100
AcDbEntity
  8
0
  6
CONTINUOUS
 62
               7
100
AcDbLine
 10
0.6471147692470254
 20
7.8791679338492884
 30
0.0
 11
-7.1471401539177464
 21
3.3791526750602401
 31
0.0
  0
LINE
  5
F4
100
AcDbEntity
  8
0
  6
CONTINUOUS
 62
               7
100
AcDbLine
 10
-17.342388586561356
 20
5.0378029230296875
 30
0.0
 11
-25.554147086894517
 21
19.260985609811371
 31
0.0
  0
LINE
  5
F5
100
AcDbEntity
  8
0
  6
CONTINUOUS
 62
               7
100
AcDbLine
 10
4.3082949178235879
 20
-17.53782587496702
 30
0.0
 11
-3.9034746764319976
 21
-31.761027776985649
 31
0.0
  0
LINE
  5
F6
100
AcDbEntity
  8
0
  6
CONTINUOUS
 62
               7
100
AcDbLine
 10
13.034051379625197
 20
-12.500030517578125
 30
0.0
 11
29.457583693500993
 21
-12.500030517578125
 31
0.0
  0
LINE
  5
F7
100
AcDbEntity
  8
0
  6
CONTINUOUS
 62
               7
100
AcDbLine
 10
1.5794018694198542
 20
7.2643915691695442
 30
0.0
 11
-7.08085857147843
 21
2.2643877826233991
 31
0.0
  0
LINE
  5
F8
100
AcDbEntity
  8
0
  6
CONTINUOUS
 62
               7
100
AcDbLine
 10
1.1471376496866128
 20
-7.0131417241585865
 30
0.0
 11
-8.8528661650106528
 21
-24.333656096224225
 31
0.0
  0
LINE
  5
F9
100
AcDbEntity
  8
0
  6
CONTINUOUS
 62
               7
100
AcDbLine
 10
-6.647862395481269
 20
2.5143782458803288
 30
0.0
 11
-16.647147783312221
 21
19.833648266134304
 31
0.0
  0
LINE
  5
FA
100
AcDbEntity
  8
0
  6
CONTINUOUS
 62
               7
100
AcDbLine
 10
1.1463925276834885
 20
7.0143935046694104
 30
0.0
 11
-8.852892860147449
 21
24.333663524923423
 31
0.0
  0
LINE
  5
FB
100
AcDbEntity
  8
0
  6
CONTINUOUS
 62
               7
100
AcDbLine
 10
-7.0808710862876723
 20
-2.2643796029935355
 30
0.0
 11
1.5793960106193339
 21
-7.2643872323881666
 31
0.0
  0
LINE
  5
FC
100
AcDbEntity
  8
0
  6
CONTINUOUS
 62
               7
100
AcDbLine
 10
-7.1471172734780737
 20
-3.379151853610459
 30
0.0
 11
0.6471376496867265
 21
-7.8791671123995357
 31
0.0
  0
LINE
  5
FD
100
AcDbEntity
  8
0
  6
CONTINUOUS
 62
               2
100
AcDbLine
 10
19.499993762437697
 20
-4.0
 30
0.0
 11
19.499993762437697
 21
4.0
 31
0.0
  0
LINE
  5
FE
100
AcDbEntity
  8
0
  6
CONTINUOUS
 62
               7
100
AcDbLine
 10
-8.8528928601475627
 20
24.33366352492348
 30
0.0
 11
-16.647147783312334
 21
19.833648266134418
 31
0.0
  0
LINE
  5
FF
100
AcDbEntity
  8
0
  6
CONTINUOUS
 62
               7
100
AcDbLine
 10
-8.3528928601475627
 20
23.467638136682638
 30
0.0
 11
-16.147147783312334
 21
18.967622877893575
 31
0.0
  0
LINE
  5
100
100
AcDbEntity
  8
0
  6
CONTINUOUS
 62
               2
100
AcDbLine
 10
-6.2859017395705905
 20
18.887504588229206
 30
0.0
 11
-13.214104845497133
 21
14.887504588229177
 31
0.0
  0
LINE
  5
101
100
AcDbEntity
  8
0
  6
CONTINUOUS
 62
               7
100
AcDbLine
 10
-16.647121088175368
 20
-19.833640837435318
 30
0.0
 11
-8.8528661650105676
 21
-24.333656096224395
 31
0.0
  0
LINE
  5
102
100
AcDbEntity
  8
0
  6
CONTINUOUS
 62
               2
100
AcDbLine
 10
-13.214104579357638
 20
-14.887481900741015
 30
0.0
 11
-6.2859014734311529
 21
-18.887481900741001
 31
0.0
  0
LINE
  5
103
100
AcDbEntity
  8
0
  6
CONTINUOUS
 62
               7
100
AcDbLine
 10
-16.147121088175368
 20
-18.967615449194476
 30
0.0
 11
-8.3528661650105676
 21
-23.467630707983552
 31
0.0
  0
LINE
  5
104
100
AcDbEntity
  8
0
  6
CONTINUOUS
 62
               2
100
AcDbLine
 10
11.499989947740431
 20
4.0
 30
0.0
 11
11.499989947740431
 21
-4.0
 31
0.0
  0
LINE
  5
105
100
AcDbEntity
  8
0
  6
CONTINUOUS
 62
               2
100
AcDbLine
 10
-9.2140917495929671
 20
7.9592826142288686
 30
0.0
 11
-2.2858886436664818
 21
11.959282614228869
 31
0.0
  0
LINE
  5
106
100
AcDbEntity
  8
0
  6
CONTINUOUS
 62
               2
100
AcDbLine
 10
-2.2858948661817919
 20
-11.959282609511753
 30
0.0
 11
-9.2140979721083056
 21
-7.959282609511753
 31
0.0
  0
LINE
  5
107
100
AcDbEntity
  8
0
  6
CONTINUOUS
 62
               7
100
AcDbLine
 10
-8.4938143786287696
 20
-1.9872131891175187
 30
0.0
 11
-13.979066342547469
 21
-2.9544111342864738
 31
0.0
  0
LINE
  5
108
100
AcDbEntity
  8
0
  6
CONTINUOUS
 62
               7
100
AcDbLine
 10
-8.493800309102113
 20
1.9872650612972294
 30
0.0
 11
-13.97905011072308
 21
2.9544924694356283
 31
0.0
  0
LINE
  5
109
100
AcDbEntity
  8
0
  6
CONTINUOUS
 62
               7
100
AcDbLine
 10
5.9678722803496953
 20
-6.3622378424595141
 30
0.0
 11
9.548125651747398
 21
-10.629017460873662
 31
0.0
  0
LINE
  5
10A
100
AcDbEntity
  8
0
  6
CONTINUOUS
 62
               7
100
AcDbLine
 10
5.967905559843075
 20
6.3622066306948
 30
0.0
 11
9.5481741504638649
 21
10.628958558976137
 31
0.0
  0
LINE
  5
10B
100
AcDbEntity
  8
0
  6
CONTINUOUS
 62
               7
100
AcDbLine
 10
2.5259109928897772
 20
8.3494580925217292
 30
0.0
 11
4.4309187863759973
 21
13.583423801590527
 31
0.0
  0
LINE
  5
10C
100
AcDbEntity
  8
0
  6
CONTINUOUS
 62
               7
100
AcDbLine
 10
5.7010349454216964
 20
-5.0000000000000027
 30
0.0
 11
9.2020726668483803
 21
-10.0
 31
0.0
  0
LINE
  5
10D
100
AcDbEntity
  8
0
  6
CONTINUOUS
 62
               7
100
AcDbLine
 10
5.7010591496474348
 20
5.0000305175781277
 30
0.0
 11
9.2020808445953435
 21
10.000007629394531
 31
0.0
  0
LINE
  5
10E
100
AcDbEntity
  8
0
  6
CONTINUOUS
 62
               7
100
AcDbLine
 10
-7.1806545747199664
 20
2.4372395275276726
 30
0.0
 11
-13.261281832801018
 21
2.9692254781833869
 31
0.0
  0
LINE
  5
10F
100
AcDbEntity
  8
0
  6
CONTINUOUS
 62
               7
100
AcDbLine
 10
1.4796147986059651
 20
7.4372432140491389
 30
0.0
 11
4.0592224124396949
 21
12.969229666918451
 31
0.0
  0
LINE
  5
110
100
AcDbEntity
  8
0
  6
CONTINUOUS
 62
               7
100
AcDbLine
 10
1.4796061988769651
 20
-7.437228253301484
 30
0.0
 11
4.0592064323926564
 21
-12.969198879027473
 31
0.0
  0
LINE
  5
111
100
AcDbEntity
  8
0
  6
CONTINUOUS
 62
               7
100
AcDbLine
 10
-7.1806787244215116
 20
-2.4372515001220396
 30
0.0
 11
-13.26128657431471
 21
-2.9692357527813371
 31
0.0
  0
LINE
  5
112
100
AcDbEntity
  8
0
  6
CENTER
 62
               2
100
AcDbLine
 10
12.999998870350936
 20
-22.516658137651632
 30
0.0
 11
-17.500001129649064
 21
30.310890545038035
 31
0.0
  0
LINE
  5
113
100
AcDbEntity
  8
0
  6
CENTER
 62
               2
100
AcDbLine
 10
12.99999967921471
 20
22.516659538644717
 30
0.0
 11
-17.499998413436685
 21
-30.310885840420262
 31
0.0
  0
LINE
  5
114
100
AcDbEntity
  8
0
  6
CONTINUOUS
 62
               7
100
AcDbLine
 10
7.2500557718727379
 20
12.557414554942284
 30
0.0
 11
7.250012319683492
 21
12.557439642075451
 31
0.0
  0
LINE
  5
115
100
AcDbEntity
  8
0
  6
CONTINUOUS
 62
               7
100
AcDbLine
 10
5.5179615432018636
 20
12.557389467809131
 30
0.0
 11
6.3839869314426778
 21
11.057389494731481
 31
0.0
  0
LINE
  5
116
100
AcDbEntity
  8
0
  6
CONTINUOUS
 62
               7
100
AcDbLine
 10
6.3839869314426778
 20
11.057389494731481
 30
0.0
 11
8.1160377079243062
 21
11.057389494731481
 31
0.0
  0
LINE
  5
117
100
AcDbEntity
  8
0
  6
CONTINUOUS
 62
               7
100
AcDbLine
 10
8.1160377079243062
 20
11.057389494731481
 30
0.0
 11
8.9820630961651204
 21
12.557389467809131
 31
0.0
  0
LINE
  5
118
100
AcDbEntity
  8
0
  6
CONTINUOUS
 62
               7
100
AcDbLine
 10
8.9820630961651204
 20
12.557389467809131
 30
0.0
 11
8.1160377079243062
 21
14.05738944088678
 31
0.0
  0
LINE
  5
119
100
AcDbEntity
  8
0
  6
CONTINUOUS
 62
               7
100
AcDbLine
 10
8.1160377079243062
 20
14.05738944088678
 30
0.0
 11
6.3839869314426778
 21
14.05738944088678
 31
0.0
  0
LINE
  5
11A
100
AcDbEntity
  8
0
  6
CONTINUOUS
 62
               7
100
AcDbLine
 10
6.3839869314426778
 20
14.05738944088678
 30
0.0
 11
5.5179615432018636
 21
12.557389467809131
 31
0.0
  0
LINE
  5
11B
100
AcDbEntity
  8
0
  6
CONTINUOUS
 62
               7
100
AcDbLine
 10
-15.366049832420401
 20
1.4999999730776494
 30
0.0
 11
-16.232075220661216
 21
0.0
 31
0.0
  0
LINE
  5
11C
100
AcDbEntity
  8
0
  6
CONTINUOUS
 62
               7
100
AcDbLine
 10
-13.633999055938773
 20
1.4999999730776494
 30
0.0
 11
-15.366049832420401
 21
1.4999999730776494
 31
0.0
  0
LINE
  5
11D
100
AcDbEntity
  8
0
  6
CONTINUOUS
 62
               7
100
AcDbLine
 10
-12.767973667697959
 20
0.0
 30
0.0
 11
-13.633999055938773
 21
1.4999999730776494
 31
0.0
  0
LINE
  5
11E
100
AcDbEntity
  8
0
  6
CONTINUOUS
 62
               7
100
AcDbLine
 10
-13.633999055938773
 20
-1.4999999730776494
 30
0.0
 11
-12.767973667697959
 21
0.0
 31
0.0
  0
LINE
  5
11F
100
AcDbEntity
  8
0
  6
CONTINUOUS
 62
               7
100
AcDbLine
 10
-16.232075220661216
 20
0.0
 30
0.0
 11
-15.366049832420401
 21
-1.4999999730776494
 31
0.0
  0
LINE
  5
120
100
AcDbEntity
  8
0
  6
CONTINUOUS
 62
               7
100
AcDbLine
 10
-15.366049832420401
 20
-1.4999999730776494
 30
0.0
 11
-13.633999055938773
 21
-1.4999999730776494
 31
0.0
  0
LINE
  5
121
100
AcDbEntity
  8
0
  6
CONTINUOUS
 62
               7
100
AcDbLine
 10
6.3839869314426636
 20
-11.057389494731481
 30
0.0
 11
5.5179615432018494
 21
-12.557389467809131
 31
0.0
  0
LINE
  5
122
100
AcDbEntity
  8
0
  6
CONTINUOUS
 62
               7
100
AcDbLine
 10
8.116037707924292
 20
-11.057389494731481
 30
0.0
 11
6.3839869314426636
 21
-11.057389494731481
 31
0.0
  0
LINE
  5
123
100
AcDbEntity
  8
0
  6
CONTINUOUS
 62
               7
100
AcDbLine
 10
8.9820630961651062
 20
-12.557389467809131
 30
0.0
 11
8.116037707924292
 21
-11.057389494731481
 31
0.0
  0
LINE
  5
124
100
AcDbEntity
  8
0
  6
CONTINUOUS
 62
               7
100
AcDbLine
 10
8.116037707924292
 20
-14.05738944088678
 30
0.0
 11
8.9820630961651062
 21
-12.557389467809131
 31
0.0
  0
LINE
  5
125
100
AcDbEntity
  8
0
  6
CONTINUOUS
 62
               7
100
AcDbLine
 10
5.5179615432018494
 20
-12.557389467809131
 30
0.0
 11
6.3839869314426636
 21
-14.05738944088678
 31
0.0
  0
LINE
  5
126
100
AcDbEntity
  8
0
  6
CONTINUOUS
 62
               7
100
AcDbLine
 10
6.3839869314426636
 20
-14.05738944088678
 30
0.0
 11
8.116037707924292
 21
-14.05738944088678
 31
0.0
  0
LINE
  5
127
100
AcDbEntity
  8
0
  6
CONTINUOUS
 62
               7
100
AcDbLine
 10
2.5255625566348243
 20
-8.3485720298027069
 30
0.0
 11
4.4042241971965836
 21
-13.506975874799755
 31
0.0
  0
ENDBLK
  5
128
100
AcDbEntity
  8
0
100
AcDbBlockEnd
  0
BLOCK
  5
129
100
AcDbEntity
  8
0
100
AcDbBlockBegin
  2
NHE2-20-3
 70
               0
 10
0.0
 20
0.0
 30
0.0
  3
NHE2-20-3
  1

  0
CIRCLE
  5
12A
100
AcDbEntity
  8
0
  6
CONTINUOUS
 62
               2
100
AcDbCircle
 10
21.0
 20
0.0
 30
0.0
 40
2.0
  0
CIRCLE
  5
12B
100
AcDbEntity
  8
0
  6
CONTINUOUS
 62
               7
100
AcDbCircle
 10
0.0
 20
0.0
 30
0.0
 40
24.0
  0
CIRCLE
  5
12C
100
AcDbEntity
  8
0
  6
CONTINUOUS
 62
               7
100
AcDbCircle
 10
0.0
 20
0.0
 30
0.0
 40
15.0
  0
CIRCLE
  5
12D
100
AcDbEntity
  8
0
  6
CONTINUOUS
 62
               7
100
AcDbCircle
 10
0.0
 20
0.0
 30
0.0
 40
12.75
  0
CIRCLE
  5
12E
100
AcDbEntity
  8
0
  6
CONTINUOUS
 62
               7
100
AcDbCircle
 10
0.0
 20
0.0
 30
0.0
 40
13.0
  0
CIRCLE
  5
12F
100
AcDbEntity
  8
0
  6
CONTINUOUS
 62
               7
100
AcDbCircle
 10
0.0
 20
0.0
 30
0.0
 40
3.5
  0
CIRCLE
  5
130
100
AcDbEntity
  8
0
  6
CONTINUOUS
 62
               7
100
AcDbCircle
 10
0.0
 20
0.0
 30
0.0
 40
3.0
  0
ARC
  5
131
100
AcDbEntity
  8
0
  6
CONTINUOUS
 62
               7
100
AcDbCircle
 10
0.0
 20
0.0
 30
0.0
 40
12.25
100
AcDbArc
 50
206.10890567761882
 51
333.89109432238115
  0
ARC
  5
132
100
AcDbEntity
  8
0
  6
CONTINUOUS
 62
               7
100
AcDbCircle
 10
0.0
 20
0.0
 30
0.0
 40
12.25
100
AcDbArc
 50
26.108905677618839
 51
153.89109432238118
  0
CIRCLE
  5
133
100
AcDbEntity
  8
0
  6
CONTINUOUS
 62
               7
100
AcDbCircle
 10
0.0
 20
0.0
 30
0.0
 40
4.0
  0
ARC
  5
134
100
AcDbEntity
  8
0
  6
CONTINUOUS
 62
               7
100
AcDbCircle
 10
-20.000001665717235
 20
0.0
 30
0.0
 40
4.0
100
AcDbArc
 50
270.0
 51
90.000005008956336
  0
CIRCLE
  5
135
100
AcDbEntity
  8
0
  6
CONTINUOUS
 62
               7
100
AcDbCircle
 10
-20.000001665717235
 20
0.0
 30
0.0
 40
3.5
  0
CIRCLE
  5
136
100
AcDbEntity
  8
0
  6
CONTINUOUS
 62
               7
100
AcDbCircle
 10
9.9999983342827647
 20
-17.320507049560547
 30
0.0
 40
3.5
  0
ARC
  5
137
100
AcDbEntity
  8
0
  6
CONTINUOUS
 62
               7
100
AcDbCircle
 10
9.9999983342827647
 20
-17.320507049560547
 30
0.0
 40
4.0
100
AcDbArc
 50
30.000003339304222
 51
209.99999468788221
  0
CIRCLE
  5
138
100
AcDbEntity
  8
0
  6
CONTINUOUS
 62
               7
100
AcDbCircle
 10
9.9999983342827647
 20
17.320510864257813
 30
0.0
 40
3.5
  0
ARC
  5
139
100
AcDbEntity
  8
0
  6
CONTINUOUS
 62
               7
100
AcDbCircle
 10
9.9999983342827647
 20
17.320510864257813
 30
0.0
 40
4.0
100
AcDbArc
 50
149.99999666069579
 51
330.00000166965214
  0
CIRCLE
  5
13A
100
AcDbEntity
  8
0
  6
CONTINUOUS
 62
               7
100
AcDbCircle
 10
21.0
 20
0.0
 30
0.0
 40
1.5
  0
ARC
  5
13B
100
AcDbEntity
  8
0
  6
CONTINUOUS
 62
               7
100
AcDbCircle
 10
0.0
 20
0.0
 30
0.0
 40
32.0
100
AcDbArc
 50
157.00654632821852
 51
202.99345367178148
  0
ARC
  5
13C
100
AcDbEntity
  8
0
  6
CONTINUOUS
 62
               7
100
AcDbCircle
 10
0.0
 20
0.0
 30
0.0
 40
32.0
100
AcDbArc
 50
277.00658901718265
 51
322.99348086682073
  0
ARC
  5
13D
100
AcDbEntity
  8
0
  6
CONTINUOUS
 62
               7
100
AcDbCircle
 10
0.0
 20
0.0
 30
0.0
 40
32.0
100
AcDbArc
 50
37.006546210206558
 51
82.993423220464777
  0
CIRCLE
  5
13E
100
AcDbEntity
  8
0
  6
CONTINUOUS
 62
               7
100
AcDbCircle
 10
-26.249994036322704
 20
7.5
 30
0.0
 40
1.7320507764816284
  0
CIRCLE
  5
13F
100
AcDbEntity
  8
0
  6
CONTINUOUS
 62
               7
100
AcDbCircle
 10
-26.249994036322704
 20
7.5
 30
0.0
 40
2.75
  0
CIRCLE
  5
140
100
AcDbEntity
  8
0
  6
CONTINUOUS
 62
               7
100
AcDbCircle
 10
-26.249994036322704
 20
-7.5
 30
0.0
 40
1.7320507764816284
  0
CIRCLE
  5
141
100
AcDbEntity
  8
0
  6
CONTINUOUS
 62
               7
100
AcDbCircle
 10
-26.249994036322704
 20
-7.5
 30
0.0
 40
2.75
  0
CIRCLE
  5
142
100
AcDbEntity
  8
0
  6
CONTINUOUS
 62
               7
100
AcDbCircle
 10
6.6298048528374522
 20
-26.483165740966797
 30
0.0
 40
1.7320507764816284
  0
CIRCLE
  5
143
100
AcDbEntity
  8
0
  6
CONTINUOUS
 62
               7
100
AcDbCircle
 10
6.6298048528374522
 20
-26.483165740966797
 30
0.0
 40
2.75
  0
CIRCLE
  5
144
100
AcDbEntity
  8
0
  6
CONTINUOUS
 62
               7
100
AcDbCircle
 10
19.620191815728077
 20
-18.983165740966797
 30
0.0
 40
1.7320507764816284
  0
CIRCLE
  5
145
100
AcDbEntity
  8
0
  6
CONTINUOUS
 62
               7
100
AcDbCircle
 10
19.620191815728077
 20
-18.983165740966797
 30
0.0
 40
2.75
  0
CIRCLE
  5
146
100
AcDbEntity
  8
0
  6
CONTINUOUS
 62
               7
100
AcDbCircle
 10
19.620191815728077
 20
18.983161926269531
 30
0.0
 40
1.7320507764816284
  0
CIRCLE
  5
147
100
AcDbEntity
  8
0
  6
CONTINUOUS
 62
               7
100
AcDbCircle
 10
19.620191815728077
 20
18.983161926269531
 30
0.0
 40
2.75
  0
CIRCLE
  5
148
100
AcDbEntity
  8
0
  6
CONTINUOUS
 62
               7
100
AcDbCircle
 10
6.6298048528374522
 20
26.483161926269531
 30
0.0
 40
1.7320507764816284
  0
CIRCLE
  5
149
100
AcDbEntity
  8
0
  6
CONTINUOUS
 62
               7
100
AcDbCircle
 10
6.6298048528374522
 20
26.483161926269531
 30
0.0
 40
2.75
  0
CIRCLE
  5
14A
100
AcDbEntity
  8
0
  6
CENTER
 62
               2
100
AcDbCircle
 10
0.0
 20
0.0
 30
0.0
 40
21.0
  0
CIRCLE
  5
14B
100
AcDbEntity
  8
0
  6
CONTINUOUS
 62
               2
100
AcDbCircle
 10
-10.500000141342326
 20
18.186533397869177
 30
0.0
 40
2.0
  0
CIRCLE
  5
14C
100
AcDbEntity
  8
0
  6
CONTINUOUS
 62
               7
100
AcDbCircle
 10
-10.500000141342326
 20
18.186533397869177
 30
0.0
 40
1.5
  0
CIRCLE
  5
14D
100
AcDbEntity
  8
0
  6
CONTINUOUS
 62
               7
100
AcDbCircle
 10
-10.500000141342326
 20
-18.186533397869184
 30
0.0
 40
1.5
  0
CIRCLE
  5
14E
100
AcDbEntity
  8
0
  6
CONTINUOUS
 62
               2
100
AcDbCircle
 10
-10.500000141342326
 20
-18.186533397869184
 30
0.0
 40
2.0
  0
LINE
  5
14F
100
AcDbEntity
  8
0
  6
CENTER
 62
               2
100
AcDbLine
 10
-35.000001665717235
 20
0.0
 30
0.0
 11
26.999998334282765
 21
0.0
 31
0.0
  0
LINE
  5
150
100
AcDbEntity
  8
0
  6
CONTINUOUS
 62
               7
100
AcDbLine
 10
11.0
 20
-6.4468984791138197
 30
0.0
 11
11.0
 21
6.4468984791138126
 31
0.0
  0
LINE
  5
151
100
AcDbEntity
  8
0
  6
CONTINUOUS
 62
               7
100
AcDbLine
 10
-11.0
 20
-6.4468984791138197
 30
0.0
 11
-11.0
 21
6.4468984791138126
 31
0.0
  0
LINE
  5
152
100
AcDbEntity
  8
0
  6
CONTINUOUS
 62
               7
100
AcDbLine
 10
-23.664319132398461
 20
-4.0
 30
0.0
 11
-20.000001665717235
 21
-4.0
 31
0.0
  0
LINE
  5
153
100
AcDbEntity
  8
0
  6
CONTINUOUS
 62
               7
100
AcDbLine
 10
-23.664319132398461
 20
4.0
 30
0.0
 11
-20.000001665717235
 21
4.0
 31
0.0
  0
LINE
  5
154
100
AcDbEntity
  8
0
  6
CONTINUOUS
 62
               7
100
AcDbLine
 10
15.296260237617702
 20
-18.493902312467082
 30
0.0
 11
13.464099912769626
 21
-15.320507599175102
 31
0.0
  0
LINE
  5
155
100
AcDbEntity
  8
0
  6
CONTINUOUS
 62
               7
100
AcDbLine
 10
8.3680569055906915
 20
-22.493901920849485
 30
0.0
 11
6.5358968068431125
 21
-19.320507599175102
 31
0.0
  0
LINE
  5
156
100
AcDbEntity
  8
0
  6
CENTER
 62
               2
100
AcDbLine
 10
17.499997382060002
 20
30.310884054023489
 30
0.0
 11
-13.499998803242732
 21
-23.382683409657638
 31
0.0
  0
LINE
  5
157
100
AcDbEntity
  8
0
  6
CONTINUOUS
 62
               7
100
AcDbLine
 10
15.296261282987928
 20
18.49390144784395
 30
0.0
 11
13.464098935023259
 21
15.320503230411305
 31
0.0
  0
LINE
  5
158
100
AcDbEntity
  8
0
  6
CONTINUOUS
 62
               7
100
AcDbLine
 10
8.368058177061414
 20
22.493901447843932
 30
0.0
 11
6.535895829096745
 21
19.320503230411305
 31
0.0
  0
LINE
  5
159
100
AcDbEntity
  8
0
  6
CONTINUOUS
 62
               7
100
AcDbLine
 10
-20.487782629157692
 20
12.500030517578125
 30
0.0
 11
-29.457583693500993
 21
12.500030517578125
 31
0.0
  0
LINE
  5
15A
100
AcDbEntity
  8
0
  6
CONTINUOUS
 62
               7
100
AcDbLine
 10
-0.5814344088528571
 20
23.992955925191914
 30
0.0
 11
3.9034647506639715
 21
31.761028996874838
 31
0.0
  0
LINE
  5
15B
100
AcDbEntity
  8
0
  6
CONTINUOUS
 62
               7
100
AcDbLine
 10
21.06924309508986
 20
-11.492910658314878
 30
0.0
 11
25.554144965149618
 21
-19.260988424795809
 31
0.0
  0
LINE
  5
15C
100
AcDbEntity
  8
0
  6
CONTINUOUS
 62
               7
100
AcDbLine
 10
21.069235285812312
 20
11.49292497456943
 30
0.0
 11
25.55413586272573
 21
19.261000501255236
 31
0.0
  0
LINE
  5
15D
100
AcDbEntity
  8
0
  6
CONTINUOUS
 62
               7
100
AcDbLine
 10
-20.487782629157692
 20
-12.500030517578125
 30
0.0
 11
-29.457583693500993
 21
-12.500030517578125
 31
0.0
  0
LINE
  5
15E
100
AcDbEntity
  8
0
  6
CONTINUOUS
 62
               7
100
AcDbLine
 10
-0.5814270406580278
 20
-23.992956103748273
 30
0.0
 11
3.9034715344144075
 21
-31.761028163143841
 31
0.0
  0
LINE
  5
15F
100
AcDbEntity
  8
0
  6
CONTINUOUS
 62
               7
100
AcDbLine
 10
4.8977544483660296
 20
26.483161926269531
 30
0.0
 11
5.763779650601748
 21
24.983162275362176
 31
0.0
  0
LINE
  5
160
100
AcDbEntity
  8
0
  6
CONTINUOUS
 62
               7
100
AcDbLine
 10
5.763779650601748
 20
24.983162275362176
 30
0.0
 11
7.4958300550731565
 21
24.983162275362176
 31
0.0
  0
LINE
  5
161
100
AcDbEntity
  8
0
  6
CONTINUOUS
 62
               7
100
AcDbLine
 10
7.4958300550731565
 20
24.983162275362176
 30
0.0
 11
8.3618552573088607
 21
26.483161926269531
 31
0.0
  0
LINE
  5
162
100
AcDbEntity
  8
0
  6
CONTINUOUS
 62
               7
100
AcDbLine
 10
8.3618552573088607
 20
26.483161926269531
 30
0.0
 11
7.4958300550731565
 21
27.983161577176901
 31
0.0
  0
LINE
  5
163
100
AcDbEntity
  8
0
  6
CONTINUOUS
 62
               7
100
AcDbLine
 10
7.4958300550731565
 20
27.983161577176901
 30
0.0
 11
5.763779650601748
 21
27.983161577176901
 31
0.0
  0
LINE
  5
164
100
AcDbEntity
  8
0
  6
CONTINUOUS
 62
               7
100
AcDbLine
 10
5.763779650601748
 20
27.983161577176901
 30
0.0
 11
4.8977544483660296
 21
26.483161926269531
 31
0.0
  0
LINE
  5
165
100
AcDbEntity
  8
0
  6
CONTINUOUS
 62
               7
100
AcDbLine
 10
20.486217017963781
 20
20.483161577176901
 30
0.0
 11
18.754166613492373
 21
20.483161577176901
 31
0.0
  0
LINE
  5
166
100
AcDbEntity
  8
0
  6
CONTINUOUS
 62
               7
100
AcDbLine
 10
21.352242220199486
 20
18.983161926269531
 30
0.0
 11
20.486217017963781
 21
20.483161577176901
 31
0.0
  0
LINE
  5
167
100
AcDbEntity
  8
0
  6
CONTINUOUS
 62
               7
100
AcDbLine
 10
18.754166613492373
 20
20.483161577176901
 30
0.0
 11
17.888141411256669
 21
18.983161926269531
 31
0.0
  0
LINE
  5
168
100
AcDbEntity
  8
0
  6
CONTINUOUS
 62
               7
100
AcDbLine
 10
17.888141411256669
 20
18.983161926269531
 30
0.0
 11
18.754166613492373
 21
17.483162275362176
 31
0.0
  0
LINE
  5
169
100
AcDbEntity
  8
0
  6
CONTINUOUS
 62
               7
100
AcDbLine
 10
18.754166613492373
 20
17.483162275362176
 30
0.0
 11
20.486217017963781
 21
17.483162275362176
 31
0.0
  0
LINE
  5
16A
100
AcDbEntity
  8
0
  6
CONTINUOUS
 62
               7
100
AcDbLine
 10
20.486217017963781
 20
17.483162275362176
 30
0.0
 11
21.352242220199486
 21
18.983161926269531
 31
0.0
  0
LINE
  5
16B
100
AcDbEntity
  8
0
  6
CONTINUOUS
 62
               7
100
AcDbLine
 10
10.866023536518469
 20
18.820510515165182
 30
0.0
 11
9.1339731320470605
 21
18.820510515165182
 31
0.0
  0
LINE
  5
16C
100
AcDbEntity
  8
0
  6
CONTINUOUS
 62
               7
100
AcDbLine
 10
11.732048738754173
 20
17.320510864257813
 30
0.0
 11
10.866023536518469
 21
18.820510515165182
 31
0.0
  0
LINE
  5
16D
100
AcDbEntity
  8
0
  6
CONTINUOUS
 62
               7
100
AcDbLine
 10
9.1339731320470605
 20
18.820510515165182
 30
0.0
 11
8.2679479298113563
 21
17.320510864257813
 31
0.0
  0
LINE
  5
16E
100
AcDbEntity
  8
0
  6
CONTINUOUS
 62
               7
100
AcDbLine
 10
8.2679479298113563
 20
17.320510864257813
 30
0.0
 11
9.1339731320470605
 21
15.820511213350457
 31
0.0
  0
LINE
  5
16F
100
AcDbEntity
  8
0
  6
CONTINUOUS
 62
               7
100
AcDbLine
 10
9.1339731320470605
 20
15.820511213350457
 30
0.0
 11
10.866023536518469
 21
15.820511213350457
 31
0.0
  0
LINE
  5
170
100
AcDbEntity
  8
0
  6
CONTINUOUS
 62
               7
100
AcDbLine
 10
10.866023536518469
 20
15.820511213350457
 30
0.0
 11
11.732048738754173
 21
17.320510864257813
 31
0.0
  0
LINE
  5
171
100
AcDbEntity
  8
0
  6
CENTER
 62
               2
100
AcDbLine
 10
17.500000888330476
 20
-30.310890127061995
 30
0.0
 11
-13.500000065343841
 21
23.382685595680826
 31
0.0
  0
LINE
  5
172
100
AcDbEntity
  8
0
  6
CONTINUOUS
 62
               7
100
AcDbLine
 10
-25.383968834087
 20
8.9999996509073696
 30
0.0
 11
-27.116019238558408
 21
8.9999996509073696
 31
0.0
  0
LINE
  5
173
100
AcDbEntity
  8
0
  6
CONTINUOUS
 62
               7
100
AcDbLine
 10
-27.116019238558408
 20
8.9999996509073696
 30
0.0
 11
-27.982044440794112
 21
7.5
 31
0.0
  0
LINE
  5
174
100
AcDbEntity
  8
0
  6
CONTINUOUS
 62
               7
100
AcDbLine
 10
-27.982044440794112
 20
7.5
 30
0.0
 11
-27.116019238558408
 21
6.0000003490926446
 31
0.0
  0
LINE
  5
175
100
AcDbEntity
  8
0
  6
CONTINUOUS
 62
               7
100
AcDbLine
 10
-27.116019238558408
 20
6.0000003490926446
 30
0.0
 11
-25.383968834087
 21
6.0000003490926446
 31
0.0
  0
LINE
  5
176
100
AcDbEntity
  8
0
  6
CONTINUOUS
 62
               7
100
AcDbLine
 10
-25.383968834087
 20
6.0000003490926446
 30
0.0
 11
-24.517943631851296
 21
7.5
 31
0.0
  0
LINE
  5
177
100
AcDbEntity
  8
0
  6
CONTINUOUS
 62
               7
100
AcDbLine
 10
-24.517943631851296
 20
7.5
 30
0.0
 11
-25.383968834087
 21
8.9999996509073696
 31
0.0
  0
LINE
  5
178
100
AcDbEntity
  8
0
  6
CONTINUOUS
 62
               7
100
AcDbLine
 10
-19.133976463481531
 20
1.4999996509073696
 30
0.0
 11
-20.866026867952939
 21
1.4999996509073696
 31
0.0
  0
LINE
  5
179
100
AcDbEntity
  8
0
  6
CONTINUOUS
 62
               7
100
AcDbLine
 10
-20.866026867952939
 20
1.4999996509073696
 30
0.0
 11
-21.732052070188644
 21
0.0
 31
0.0
  0
LINE
  5
17A
100
AcDbEntity
  8
0
  6
CONTINUOUS
 62
               7
100
AcDbLine
 10
-21.732052070188644
 20
0.0
 30
0.0
 11
-20.866026867952939
 21
-1.4999996509073554
 31
0.0
  0
LINE
  5
17B
100
AcDbEntity
  8
0
  6
CONTINUOUS
 62
               7
100
AcDbLine
 10
-20.866026867952939
 20
-1.4999996509073554
 30
0.0
 11
-19.133976463481531
 21
-1.4999996509073554
 31
0.0
  0
LINE
  5
17C
100
AcDbEntity
  8
0
  6
CONTINUOUS
 62
               7
100
AcDbLine
 10
-19.133976463481531
 20
-1.4999996509073554
 30
0.0
 11
-18.267951261245827
 21
0.0
 31
0.0
  0
LINE
  5
17D
100
AcDbEntity
  8
0
  6
CONTINUOUS
 62
               7
100
AcDbLine
 10
-18.267951261245827
 20
0.0
 30
0.0
 11
-19.133976463481531
 21
1.4999996509073696
 31
0.0
  0
LINE
  5
17E
100
AcDbEntity
  8
0
  6
CONTINUOUS
 62
               7
100
AcDbLine
 10
-25.383968834087
 20
-6.0000003490926304
 30
0.0
 11
-27.116019238558408
 21
-6.0000003490926304
 31
0.0
  0
LINE
  5
17F
100
AcDbEntity
  8
0
  6
CONTINUOUS
 62
               7
100
AcDbLine
 10
-27.116019238558408
 20
-6.0000003490926304
 30
0.0
 11
-27.982044440794112
 21
-7.5
 31
0.0
  0
LINE
  5
180
100
AcDbEntity
  8
0
  6
CONTINUOUS
 62
               7
100
AcDbLine
 10
-27.982044440794112
 20
-7.5
 30
0.0
 11
-27.116019238558408
 21
-8.9999996509073554
 31
0.0
  0
LINE
  5
181
100
AcDbEntity
  8
0
  6
CONTINUOUS
 62
               7
100
AcDbLine
 10
-27.116019238558408
 20
-8.9999996509073554
 30
0.0
 11
-25.383968834087
 21
-8.9999996509073554
 31
0.0
  0
LINE
  5
182
100
AcDbEntity
  8
0
  6
CONTINUOUS
 62
               7
100
AcDbLine
 10
-25.383968834087
 20
-8.9999996509073554
 30
0.0
 11
-24.517943631851296
 21
-7.5
 31
0.0
  0
LINE
  5
183
100
AcDbEntity
  8
0
  6
CONTINUOUS
 62
               7
100
AcDbLine
 10
-24.517943631851296
 20
-7.5
 30
0.0
 11
-25.383968834087
 21
-6.0000003490926304
 31
0.0
  0
LINE
  5
184
100
AcDbEntity
  8
0
  6
CONTINUOUS
 62
               7
100
AcDbLine
 10
10.866023536518469
 20
-15.820507398653177
 30
0.0
 11
9.1339731320470605
 21
-15.820507398653177
 31
0.0
  0
LINE
  5
185
100
AcDbEntity
  8
0
  6
CONTINUOUS
 62
               7
100
AcDbLine
 10
11.732048738754173
 20
-17.320507049560547
 30
0.0
 11
10.866023536518469
 21
-15.820507398653177
 31
0.0
  0
LINE
  5
186
100
AcDbEntity
  8
0
  6
CONTINUOUS
 62
               7
100
AcDbLine
 10
9.1339731320470605
 20
-15.820507398653177
 30
0.0
 11
8.2679479298113563
 21
-17.320507049560547
 31
0.0
  0
LINE
  5
187
100
AcDbEntity
  8
0
  6
CONTINUOUS
 62
               7
100
AcDbLine
 10
8.2679479298113563
 20
-17.320507049560547
 30
0.0
 11
9.1339731320470605
 21
-18.820506700467902
 31
0.0
  0
LINE
  5
188
100
AcDbEntity
  8
0
  6
CONTINUOUS
 62
               7
100
AcDbLine
 10
9.1339731320470605
 20
-18.820506700467902
 30
0.0
 11
10.866023536518469
 21
-18.820506700467902
 31
0.0
  0
LINE
  5
189
100
AcDbEntity
  8
0
  6
CONTINUOUS
 62
               7
100
AcDbLine
 10
10.866023536518469
 20
-18.820506700467902
 30
0.0
 11
11.732048738754173
 21
-17.320507049560547
 31
0.0
  0
LINE
  5
18A
100
AcDbEntity
  8
0
  6
CONTINUOUS
 62
               7
100
AcDbLine
 10
20.486217017963781
 20
-17.483166090059427
 30
0.0
 11
18.754166613492373
 21
-17.483166090059427
 31
0.0
  0
LINE
  5
18B
100
AcDbEntity
  8
0
  6
CONTINUOUS
 62
               7
100
AcDbLine
 10
21.352242220199486
 20
-18.983165740966797
 30
0.0
 11
20.486217017963781
 21
-17.483166090059427
 31
0.0
  0
LINE
  5
18C
100
AcDbEntity
  8
0
  6
CONTINUOUS
 62
               7
100
AcDbLine
 10
18.754166613492373
 20
-17.483166090059427
 30
0.0
 11
17.888141411256669
 21
-18.983165740966797
 31
0.0
  0
LINE
  5
18D
100
AcDbEntity
  8
0
  6
CONTINUOUS
 62
               7
100
AcDbLine
 10
17.888141411256669
 20
-18.983165740966797
 30
0.0
 11
18.754166613492373
 21
-20.483165391874152
 31
0.0
  0
LINE
  5
18E
100
AcDbEntity
  8
0
  6
CONTINUOUS
 62
               7
100
AcDbLine
 10
18.754166613492373
 20
-20.483165391874152
 30
0.0
 11
20.486217017963781
 21
-20.483165391874152
 31
0.0
  0
LINE
  5
18F
100
AcDbEntity
  8
0
  6
CONTINUOUS
 62
               7
100
AcDbLine
 10
20.486217017963781
 20
-20.483165391874152
 30
0.0
 11
21.352242220199486
 21
-18.983165740966797
 31
0.0
  0
LINE
  5
190
100
AcDbEntity
  8
0
  6
CONTINUOUS
 62
               7
100
AcDbLine
 10
7.4958300550731565
 20
-24.983166090059427
 30
0.0
 11
5.763779650601748
 21
-24.983166090059427
 31
0.0
  0
LINE
  5
191
100
AcDbEntity
  8
0
  6
CONTINUOUS
 62
               7
100
AcDbLine
 10
8.3618552573088607
 20
-26.483165740966797
 30
0.0
 11
7.4958300550731565
 21
-24.983166090059427
 31
0.0
  0
LINE
  5
192
100
AcDbEntity
  8
0
  6
CONTINUOUS
 62
               7
100
AcDbLine
 10
5.763779650601748
 20
-24.983166090059427
 30
0.0
 11
4.8977544483660438
 21
-26.483165740966797
 31
0.0
  0
LINE
  5
193
100
AcDbEntity
  8
0
  6
CONTINUOUS
 62
               7
100
AcDbLine
 10
4.8977544483660438
 20
-26.483165740966797
 30
0.0
 11
5.763779650601748
 21
-27.983165391874152
 31
0.0
  0
LINE
  5
194
100
AcDbEntity
  8
0
  6
CONTINUOUS
 62
               7
100
AcDbLine
 10
5.763779650601748
 20
-27.983165391874152
 30
0.0
 11
7.4958300550731565
 21
-27.983165391874152
 31
0.0
  0
LINE
  5
195
100
AcDbEntity
  8
0
  6
CONTINUOUS
 62
               7
100
AcDbLine
 10
7.4958300550731565
 20
-27.983165391874152
 30
0.0
 11
8.3618552573088607
 21
-26.483165740966797
 31
0.0
  0
ENDBLK
  5
196
100
AcDbEntity
  8
0
100
AcDbBlockEnd
  0
BLOCK
  5
197
100
AcDbEntity
  8
0
100
AcDbBlockBegin
  2
NHE2-20-4
 70
               0
 10
0.0
 20
0.0
 30
0.0
  3
NHE2-20-4
  1

  0
LINE
  5
198
100
AcDbEntity
  8
0
  6
CONTINUOUS
 62
               2
100
AcDbLine
 10
3.0999984741210938
 20
-19.499988555908203
 30
0.0
 11
-3.0999984741210938
 21
-19.499988555908203
 31
0.0
  0
CIRCLE
  5
199
100
AcDbEntity
  8
0
  6
CONTINUOUS
 62
               7
100
AcDbCircle
 10
3.899993896484375
 20
14.397117614746094
 30
0.0
 40
1.0
  0
ARC
  5
19A
100
AcDbEntity
  8
0
  6
CONTINUOUS
 62
               7
100
AcDbCircle
 10
3.8997650146484375
 20
10.361625671386719
 30
0.0
 40
1.1000000238418579
100
AcDbArc
 50
163.72663648709241
 51
16.273367155373261
  0
ARC
  5
19B
100
AcDbEntity
  8
0
  6
CONTINUOUS
 62
               7
100
AcDbCircle
 10
3.8997650146484375
 20
20.078117370605469
 30
0.0
 40
1.1000000238418579
100
AcDbArc
 50
343.7266278356704
 51
196.2733721643296
  0
ARC
  5
19C
100
AcDbEntity
  8
0
  6
CONTINUOUS
 62
               7
100
AcDbCircle
 10
3.899993896484375
 20
9.8971176147460937
 30
0.0
 40
1.0
100
AcDbArc
 50
0.3841205042541798
 51
179.67234466961432
  0
ARC
  5
19D
100
AcDbEntity
  8
0
  6
CONTINUOUS
 62
               7
100
AcDbCircle
 10
3.899993896484375
 20
16.647117614746094
 30
0.0
 40
1.0
100
AcDbArc
 50
359.99999749552182
 51
180.00000250447818
  0
LINE
  5
19E
100
AcDbEntity
  8
0
  6
CENTER
 62
               2
100
AcDbLine
 10
-2.0
 20
0.0
 30
0.0
 11
102.19999694824219
 21
0.0
 31
0.0
  0
LINE
  5
19F
100
AcDbEntity
  8
0
  6
CONTINUOUS
 62
               7
100
AcDbLine
 10
44.999996185302734
 20
-22.99999817694507
 30
0.0
 11
44.999996185302734
 21
23.000000084293688
 31
0.0
  0
LINE
  5
1A0
100
AcDbEntity
  8
0
  6
CONTINUOUS
 62
               7
100
AcDbLine
 10
94.999996185302734
 20
-14.5
 30
0.0
 11
94.999996185302734
 21
14.500000266358654
 31
0.0
  0
LINE
  5
1A1
100
AcDbEntity
  8
0
  6
CONTINUOUS
 62
               7
100
AcDbLine
 10
44.999996185302734
 20
-22.99999817694507
 30
0.0
 11
43.999996185302734
 21
-23.999998092651367
 31
0.0
  0
LINE
  5
1A2
100
AcDbEntity
  8
0
  6
CONTINUOUS
 62
               7
100
AcDbLine
 10
99.699996948242188
 20
-11.0
 30
0.0
 11
99.699996948242188
 21
11.0
 31
0.0
  0
LINE
  5
1A3
100
AcDbEntity
  8
0
  6
CONTINUOUS
 62
               7
100
AcDbLine
 10
43.999996185302734
 20
-23.999998092651367
 30
0.0
 11
43.999996185302734
 21
24.0
 31
0.0
  0
LINE
  5
1A4
100
AcDbEntity
  8
0
  6
CONTINUOUS
 62
               7
100
AcDbLine
 10
94.999996185302734
 20
-14.500000042146837
 30
0.0
 11
94.499996185302734
 21
-15.0
 31
0.0
  0
LINE
  5
1A5
100
AcDbEntity
  8
0
  6
CONTINUOUS
 62
               7
100
AcDbLine
 10
46.999996185302734
 20
15.0
 30
0.0
 11
94.499996185302734
 21
15.0
 31
0.0
  0
LINE
  5
1A6
100
AcDbEntity
  8
0
  6
CONTINUOUS
 62
               7
100
AcDbLine
 10
94.999996185302734
 20
14.500000266358654
 30
0.0
 11
94.499996409514551
 21
15.0
 31
0.0
  0
LINE
  5
1A7
100
AcDbEntity
  8
0
  6
CONTINUOUS
 62
               7
100
AcDbLine
 10
94.499996185302734
 20
-15.0
 30
0.0
 11
94.499996185302734
 21
15.0
 31
0.0
  0
LINE
  5
1A8
100
AcDbEntity
  8
0
  6
CONTINUOUS
 62
               7
100
AcDbLine
 10
46.999996185302734
 20
-15.0
 30
0.0
 11
94.499996185302734
 21
-15.0
 31
0.0
  0
LINE
  5
1A9
100
AcDbEntity
  8
0
  6
CONTINUOUS
 62
               7
100
AcDbLine
 10
44.999996185302734
 20
23.000000084293688
 30
0.0
 11
43.999996185302734
 21
24.0
 31
0.0
  0
LINE
  5
1AA
100
AcDbEntity
  8
0
  6
CONTINUOUS
 62
               7
100
AcDbLine
 10
44.999996185302734
 20
-14.5
 30
0.0
 11
46.999996185302734
 21
-14.5
 31
0.0
  0
LINE
  5
1AB
100
AcDbEntity
  8
0
  6
CONTINUOUS
 62
               7
100
AcDbLine
 10
46.999996185302734
 20
-15.0
 30
0.0
 11
46.999996185302734
 21
15.0
 31
0.0
  0
LINE
  5
1AC
100
AcDbEntity
  8
0
  6
CONTINUOUS
 62
               7
100
AcDbLine
 10
44.999996185302734
 20
14.5
 30
0.0
 11
46.999996185302734
 21
14.5
 31
0.0
  0
LINE
  5
1AD
100
AcDbEntity
  8
0
  6
CONTINUOUS
 62
               7
100
AcDbLine
 10
94.999996185302734
 20
-11.0
 30
0.0
 11
100.19999694824219
 21
-11.0
 31
0.0
  0
LINE
  5
1AE
100
AcDbEntity
  8
0
  6
CONTINUOUS
 62
               7
100
AcDbLine
 10
94.999996185302734
 20
11.0
 30
0.0
 11
100.19999694824219
 21
11.0
 31
0.0
  0
LINE
  5
1AF
100
AcDbEntity
  8
0
  6
CONTINUOUS
 62
               7
100
AcDbLine
 10
100.19999694824219
 20
-11.0
 30
0.0
 11
100.19999694824219
 21
11.0
 31
0.0
  0
LINE
  5
1B0
100
AcDbEntity
  8
0
  6
CONTINUOUS
 62
               7
100
AcDbLine
 10
38.999996185302734
 20
-23.999998092651367
 30
0.0
 11
38.999996185302734
 21
24.0
 31
0.0
  0
LINE
  5
1B1
100
AcDbEntity
  8
0
  6
CONTINUOUS
 62
               7
100
AcDbLine
 10
17.0
 20
-23.999998092651367
 30
0.0
 11
43.999996185302734
 21
-23.999998092651367
 31
0.0
  0
LINE
  5
1B2
100
AcDbEntity
  8
0
  6
CONTINUOUS
 62
               7
100
AcDbLine
 10
24.0
 20
24.0
 30
0.0
 11
43.999996185302734
 21
24.0
 31
0.0
  0
LINE
  5
1B3
100
AcDbEntity
  8
0
  6
CONTINUOUS
 62
               7
100
AcDbLine
 10
9.9999847412109375
 20
-32.0
 30
0.0
 11
9.9999847412109375
 21
-30.342792510986328
 31
0.0
  0
LINE
  5
1B4
100
AcDbEntity
  8
0
  6
CONTINUOUS
 62
               7
100
AcDbLine
 10
7.9999847412109375
 20
25.009384155273438
 30
0.0
 11
16.0
 21
25.009384155273438
 31
0.0
  0
LINE
  5
1B5
100
AcDbEntity
  8
0
  6
CONTINUOUS
 62
               7
100
AcDbLine
 10
9.9999847412109375
 20
-32.0
 30
0.0
 11
16.0
 21
-32.0
 31
0.0
  0
LINE
  5
1B6
100
AcDbEntity
  8
0
  6
CONTINUOUS
 62
               7
100
AcDbLine
 10
2.79998779296875
 20
-10.000022888183594
 30
0.0
 11
5.4999847412109375
 21
-10.000022888183594
 31
0.0
  0
LINE
  5
1B7
100
AcDbEntity
  8
0
  6
CONTINUOUS
 62
               7
100
AcDbLine
 10
2.0
 20
-28.999996185302734
 30
0.0
 11
2.0
 21
10.669868469238281
 31
0.0
  0
LINE
  5
1B8
100
AcDbEntity
  8
0
  6
CONTINUOUS
 62
               7
100
AcDbLine
 10
17.0
 20
-31.0
 30
0.0
 11
17.0
 21
-23.999998092651367
 31
0.0
  0
LINE
  5
1B9
100
AcDbEntity
  8
0
  6
CONTINUOUS
 62
               7
100
AcDbLine
 10
0.0
 20
-24.500003814697266
 30
0.0
 11
0.0
 21
-6.4999961853027344
 31
0.0
  0
LINE
  5
1BA
100
AcDbEntity
  8
0
  6
CONTINUOUS
 62
               7
100
AcDbLine
 10
16.0
 20
25.009384155273438
 30
0.0
 11
17.0
 21
24.009384155273438
 31
0.0
  0
LINE
  5
1BB
100
AcDbEntity
  8
0
  6
CONTINUOUS
 62
               7
100
AcDbLine
 10
2.0
 20
-28.999996185302734
 30
0.0
 11
7.9999847412109375
 21
-28.999996185302734
 31
0.0
  0
LINE
  5
1BC
100
AcDbEntity
  8
0
  6
CONTINUOUS
 62
               7
100
AcDbLine
 10
16.0
 20
-32.0
 30
0.0
 11
17.0
 21
-31.0
 31
0.0
  0
LINE
  5
1BD
100
AcDbEntity
  8
0
  6
CONTINUOUS
 62
               7
100
AcDbLine
 10
7.9999847412109375
 20
-28.368095397949219
 30
0.0
 11
17.0
 21
-28.368095397949219
 31
0.0
  0
LINE
  5
1BE
100
AcDbEntity
  8
0
  6
CONTINUOUS
 62
               7
100
AcDbLine
 10
7.9999847412109375
 20
-30.342792510986328
 30
0.0
 11
9.9999847412109375
 21
-30.342792510986328
 31
0.0
  0
LINE
  5
1BF
100
AcDbEntity
  8
0
  6
CONTINUOUS
 62
               7
100
AcDbLine
 10
2.4999847412109375
 20
-4.8000259399414205
 30
0.0
 11
2.79998779296875
 21
-4.5000228881835937
 31
0.0
  0
LINE
  5
1C0
100
AcDbEntity
  8
0
  6
CONTINUOUS
 62
               7
100
AcDbLine
 10
2.0
 20
-4.0624732971191406
 30
0.0
 11
7.9999847412109375
 21
-4.0624732971191406
 31
0.0
  0
LINE
  5
1C1
100
AcDbEntity
  8
0
  6
CONTINUOUS
 62
               7
100
AcDbLine
 10
5.4999847412109375
 20
-10.250022888183594
 30
0.0
 11
7.9999847412109375
 21
-10.250022888183594
 31
0.0
  0
LINE
  5
1C2
100
AcDbEntity
  8
0
  6
CONTINUOUS
 62
               7
100
AcDbLine
 10
2.79998779296875
 20
-10.000022888183594
 30
0.0
 11
2.4999847412109375
 21
-9.7000198364257813
 31
0.0
  0
LINE
  5
1C3
100
AcDbEntity
  8
0
  6
CONTINUOUS
 62
               7
100
AcDbLine
 10
5.4999847412109375
 20
-10.250022888183594
 30
0.0
 11
5.4999847412109375
 21
-4.0624732971191406
 31
0.0
  0
LINE
  5
1C4
100
AcDbEntity
  8
0
  6
CONTINUOUS
 62
               7
100
AcDbLine
 10
0.0
 20
-0.6471443176269531
 30
0.0
 11
0.0
 21
16.147117614746094
 31
0.0
  0
LINE
  5
1C5
100
AcDbEntity
  8
0
  6
CONTINUOUS
 62
               7
100
AcDbLine
 10
16.0
 20
-32.0
 30
0.0
 11
16.0
 21
-28.368095397949219
 31
0.0
  0
LINE
  5
1C6
100
AcDbEntity
  8
0
  6
CONTINUOUS
 62
               7
100
AcDbLine
 10
2.79998779296875
 20
-10.000022888183594
 30
0.0
 11
2.79998779296875
 21
-4.5000228881835937
 31
0.0
  0
LINE
  5
1C7
100
AcDbEntity
  8
0
  6
CONTINUOUS
 62
               7
100
AcDbLine
 10
2.79998779296875
 20
-4.5000228881835937
 30
0.0
 11
5.4999847412109375
 21
-4.5000228881835937
 31
0.0
  0
LINE
  5
1C8
100
AcDbEntity
  8
0
  6
CONTINUOUS
 62
               7
100
AcDbLine
 10
2.4999847412109375
 20
-9.7000198364257813
 30
0.0
 11
2.4999847412109375
 21
-4.8000259399414062
 31
0.0
  0
LINE
  5
1C9
100
AcDbEntity
  8
0
  6
CONTINUOUS
 62
               7
100
AcDbLine
 10
7.9999847412109375
 20
-30.342792510986328
 30
0.0
 11
7.9999847412109375
 21
6.5384445190429687
 31
0.0
  0
LINE
  5
1CA
100
AcDbEntity
  8
0
  6
CONTINUOUS
 62
               7
100
AcDbLine
 10
2.0
 20
-25.500003814697266
 30
0.0
 11
1.5
 21
-25.500003814697266
 31
0.0
  0
LINE
  5
1CB
100
AcDbEntity
  8
0
  6
CONTINUOUS
 62
               7
100
AcDbLine
 10
2.0
 20
-24.500003814697266
 30
0.0
 11
0.0
 21
-24.500003814697266
 31
0.0
  0
LINE
  5
1CC
100
AcDbEntity
  8
0
  6
CONTINUOUS
 62
               7
100
AcDbLine
 10
2.0
 20
-6.4999961853027344
 30
0.0
 11
0.0
 21
-6.4999961853027344
 31
0.0
  0
LINE
  5
1CD
100
AcDbEntity
  8
0
  6
CONTINUOUS
 62
               7
100
AcDbLine
 10
2.0
 20
-5.4999961853027344
 30
0.0
 11
1.5
 21
-5.4999961853027344
 31
0.0
  0
LINE
  5
1CE
100
AcDbEntity
  8
0
  6
CONTINUOUS
 62
               7
100
AcDbLine
 10
2.0
 20
-0.6471443176269531
 30
0.0
 11
0.0
 21
-0.6471443176269531
 31
0.0
  0
LINE
  5
1CF
100
AcDbEntity
  8
0
  6
CONTINUOUS
 62
               7
100
AcDbLine
 10
2.0
 20
-1.1471443176269531
 30
0.0
 11
1.5
 21
-1.1471443176269531
 31
0.0
  0
LINE
  5
1D0
100
AcDbEntity
  8
0
  6
CONTINUOUS
 62
               7
100
AcDbLine
 10
1.5
 20
-25.500003814697266
 30
0.0
 11
1.5
 21
-24.500003814697266
 31
0.0
  0
LINE
  5
1D1
100
AcDbEntity
  8
0
  6
CONTINUOUS
 62
               7
100
AcDbLine
 10
1.5
 20
-6.4999961853027344
 30
0.0
 11
1.5
 21
-5.4999961853027344
 31
0.0
  0
LINE
  5
1D2
100
AcDbEntity
  8
0
  6
CONTINUOUS
 62
               7
100
AcDbLine
 10
1.5
 20
-1.1471443176269531
 30
0.0
 11
1.5
 21
-0.6471443176269531
 31
0.0
  0
LINE
  5
1D3
100
AcDbEntity
  8
0
  6
CONTINUOUS
 62
               7
100
AcDbLine
 10
16.0
 20
3.9034614562988281
 30
0.0
 11
7.9999847412109375
 21
3.9034614562988281
 31
0.0
  0
LINE
  5
1D4
100
AcDbEntity
  8
0
  6
CONTINUOUS
 62
               7
100
AcDbLine
 10
17.0
 20
-0.5814285278320313
 30
0.0
 11
17.0
 21
24.009384155273438
 31
0.0
  0
LINE
  5
1D5
100
AcDbEntity
  8
0
  6
CONTINUOUS
 62
               7
100
AcDbLine
 10
24.0
 20
-23.999998092651367
 30
0.0
 11
24.0
 21
-0.5814285278320313
 31
0.0
  0
LINE
  5
1D6
100
AcDbEntity
  8
0
  6
CONTINUOUS
 62
               7
100
AcDbLine
 10
6.2999954223632812
 20
19.769874572753906
 30
0.0
 11
6.2999954223632812
 21
10.669868469238281
 31
0.0
  0
LINE
  5
1D7
100
AcDbEntity
  8
0
  6
CONTINUOUS
 62
               2
100
AcDbLine
 10
3.899993896484375
 20
15.897117614746094
 30
0.0
 11
3.899993896484375
 21
12.897117614746094
 31
0.0
  0
LINE
  5
1D8
100
AcDbEntity
  8
0
  6
CONTINUOUS
 62
               7
100
AcDbLine
 10
5.7999954223632812
 20
16.647117614746094
 30
0.0
 11
5.7999954223632812
 21
10.669868469238281
 31
0.0
  0
LINE
  5
1D9
100
AcDbEntity
  8
0
  6
CONTINUOUS
 62
               7
100
AcDbLine
 10
2.0
 20
19.769874572753906
 30
0.0
 11
2.843841552734375
 21
19.769874572753906
 31
0.0
  0
LINE
  5
1DA
100
AcDbEntity
  8
0
  6
CONTINUOUS
 62
               7
100
AcDbLine
 10
4.899993896484375
 20
16.647117614746094
 30
0.0
 11
5.798858642578125
 21
16.647117614746094
 31
0.0
  0
LINE
  5
1DB
100
AcDbEntity
  8
0
  6
CONTINUOUS
 62
               7
100
AcDbLine
 10
4.9556961059570313
 20
19.769874572753906
 30
0.0
 11
6.2999954223632812
 21
19.769874572753906
 31
0.0
  0
LINE
  5
1DC
100
AcDbEntity
  8
0
  6
CONTINUOUS
 62
               7
100
AcDbLine
 10
4.9556961059570313
 20
10.669868469238281
 30
0.0
 11
6.2999954223632812
 21
10.669868469238281
 31
0.0
  0
LINE
  5
1DD
100
AcDbEntity
  8
0
  6
CONTINUOUS
 62
               2
100
AcDbLine
 10
2.399993896484375
 20
14.397117614746094
 30
0.0
 11
5.399993896484375
 21
14.397117614746094
 31
0.0
  0
LINE
  5
1DE
100
AcDbEntity
  8
0
  6
CONTINUOUS
 62
               7
100
AcDbLine
 10
2.0
 20
10.669868469238281
 30
0.0
 11
2.843841552734375
 21
10.669868469238281
 31
0.0
  0
LINE
  5
1DF
100
AcDbEntity
  8
0
  6
CONTINUOUS
 62
               7
100
AcDbLine
 10
10.0
 20
23.660255432128906
 30
0.0
 11
2.0
 21
23.660255432128906
 31
0.0
  0
LINE
  5
1E0
100
AcDbEntity
  8
0
  6
CONTINUOUS
 62
               7
100
AcDbLine
 10
10.0
 20
6.5384445190429687
 30
0.0
 11
10.0
 21
23.660255432128906
 31
0.0
  0
LINE
  5
1E1
100
AcDbEntity
  8
0
  6
CONTINUOUS
 62
               7
100
AcDbLine
 10
10.0
 20
6.5384445190429687
 30
0.0
 11
7.9999847412109375
 21
6.5384445190429687
 31
0.0
  0
LINE
  5
1E2
100
AcDbEntity
  8
0
  6
CONTINUOUS
 62
               7
100
AcDbLine
 10
7.9999847412109375
 20
23.660255432128906
 30
0.0
 11
7.9999847412109375
 21
25.009384155273438
 31
0.0
  0
LINE
  5
1E3
100
AcDbEntity
  8
0
  6
CONTINUOUS
 62
               7
100
AcDbLine
 10
7.9999847412109375
 20
6.3397445678710937
 30
0.0
 11
2.0
 21
6.3397445678710937
 31
0.0
  0
LINE
  5
1E4
100
AcDbEntity
  8
0
  6
CONTINUOUS
 62
               7
100
AcDbLine
 10
2.899993896484375
 20
16.647117614746094
 30
0.0
 11
1.5
 21
16.647117614746094
 31
0.0
  0
LINE
  5
1E5
100
AcDbEntity
  8
0
  6
CONTINUOUS
 62
               7
100
AcDbLine
 10
4.9556961059570313
 20
16.647117614746094
 30
0.0
 11
4.9556961059570313
 21
19.769874572753906
 31
0.0
  0
LINE
  5
1E6
100
AcDbEntity
  8
0
  6
CONTINUOUS
 62
               7
100
AcDbLine
 10
2.843841552734375
 20
16.647117614746094
 30
0.0
 11
2.843841552734375
 21
19.769874572753906
 31
0.0
  0
LINE
  5
1E7
100
AcDbEntity
  8
0
  6
CONTINUOUS
 62
               7
100
AcDbLine
 10
1.5
 20
16.147117614746094
 30
0.0
 11
0.0
 21
16.147117614746094
 31
0.0
  0
LINE
  5
1E8
100
AcDbEntity
  8
0
  6
CONTINUOUS
 62
               7
100
AcDbLine
 10
1.5
 20
8.8528594970703125
 30
0.0
 11
1.5
 21
16.647117614746094
 31
0.0
  0
LINE
  5
1E9
100
AcDbEntity
  8
0
  6
CONTINUOUS
 62
               7
100
AcDbLine
 10
2.0
 20
16.647117614746094
 30
0.0
 11
2.0
 21
23.660255432128906
 31
0.0
  0
LINE
  5
1EA
100
AcDbEntity
  8
0
  6
CONTINUOUS
 62
               7
100
AcDbLine
 10
2.0
 20
8.3528594970703125
 30
0.0
 11
0.0
 21
8.3528594970703125
 31
0.0
  0
LINE
  5
1EB
100
AcDbEntity
  8
0
  6
CONTINUOUS
 62
               7
100
AcDbLine
 10
2.0
 20
8.8528594970703125
 30
0.0
 11
1.5
 21
8.8528594970703125
 31
0.0
  0
LINE
  5
1EC
100
AcDbEntity
  8
0
  6
CONTINUOUS
 62
               7
100
AcDbLine
 10
16.0
 20
3.9034614562988281
 30
0.0
 11
16.0
 21
25.009384155273438
 31
0.0
  0
LINE
  5
1ED
100
AcDbEntity
  8
0
  6
CONTINUOUS
 62
               7
100
AcDbLine
 10
24.0
 20
-0.5814285278320313
 30
0.0
 11
17.0
 21
-0.5814285278320313
 31
0.0
  0
LINE
  5
1EE
100
AcDbEntity
  8
0
  6
CONTINUOUS
 62
               7
100
AcDbLine
 10
15.999999958060783
 20
3.9034614143596116
 30
0.0
 11
17.0
 21
2.903461372420395
 31
0.0
  0
LINE
  5
1EF
100
AcDbEntity
  8
0
  6
CONTINUOUS
 62
               7
100
AcDbLine
 10
24.0
 20
21.069244384765625
 30
0.0
 11
17.0
 21
21.069244384765625
 31
0.0
  0
LINE
  5
1F0
100
AcDbEntity
  8
0
  6
CONTINUOUS
 62
               7
100
AcDbLine
 10
24.0
 20
21.069244384765625
 30
0.0
 11
24.0
 21
24.0
 31
0.0
  0
LINE
  5
1F1
100
AcDbEntity
  8
0
  6
CONTINUOUS
 62
               2
100
AcDbLine
 10
2.1999969482421875
 20
-11.499988555908203
 30
0.0
 11
-4.0
 21
-11.499988555908203
 31
0.0
  0
LINE
  5
1F2
100
AcDbEntity
  8
0
  6
CONTINUOUS
 62
               7
100
AcDbLine
 10
0.0
 20
-13.499996185302734
 30
0.0
 11
-2.6999969482421875
 21
-13.499996185302734
 31
0.0
  0
LINE
  5
1F3
100
AcDbEntity
  8
0
  6
CONTINUOUS
 62
               7
100
AcDbLine
 10
-3.0
 20
-9.7999992370605469
 30
0.0
 11
-3.0
 21
-13.199993133544922
 31
0.0
  0
LINE
  5
1F4
100
AcDbEntity
  8
0
  6
CONTINUOUS
 62
               7
100
AcDbLine
 10
0.0
 20
-9.4999961853027344
 30
0.0
 11
-2.6999969482421875
 21
-9.4999961853027344
 31
0.0
  0
LINE
  5
1F5
100
AcDbEntity
  8
0
  6
CONTINUOUS
 62
               7
100
AcDbLine
 10
-2.6999969482421875
 20
-9.4999961853027344
 30
0.0
 11
-2.6999969482421875
 21
-13.499996185302734
 31
0.0
  0
LINE
  5
1F6
100
AcDbEntity
  8
0
  6
CONTINUOUS
 62
               7
100
AcDbLine
 10
-2.6999969482421875
 20
-9.4999961853027344
 30
0.0
 11
-3.0
 21
-9.7999992370605469
 31
0.0
  0
LINE
  5
1F7
100
AcDbEntity
  8
0
  6
CONTINUOUS
 62
               7
100
AcDbLine
 10
-2.6999969482421875
 20
-13.499996185302734
 30
0.0
 11
-3.0
 21
-13.199993133544922
 31
0.0
  0
LINE
  5
1F8
100
AcDbEntity
  8
0
  6
CONTINUOUS
 62
               2
100
AcDbLine
 10
2.1999969482421875
 20
5.7500038146972656
 30
0.0
 11
-4.0
 21
5.7500038146972656
 31
0.0
  0
LINE
  5
1F9
100
AcDbEntity
  8
0
  6
CONTINUOUS
 62
               7
100
AcDbLine
 10
0.0
 20
3.7499961853027344
 30
0.0
 11
-2.6999969482421875
 21
3.7499961853027344
 31
0.0
  0
LINE
  5
1FA
100
AcDbEntity
  8
0
  6
CONTINUOUS
 62
               7
100
AcDbLine
 10
-3.0
 20
7.4499931335449219
 30
0.0
 11
-3.0
 21
4.0499992370605469
 31
0.0
  0
LINE
  5
1FB
100
AcDbEntity
  8
0
  6
CONTINUOUS
 62
               7
100
AcDbLine
 10
0.0
 20
7.7499961853027344
 30
0.0
 11
-2.6999969482421875
 21
7.7499961853027344
 31
0.0
  0
LINE
  5
1FC
100
AcDbEntity
  8
0
  6
CONTINUOUS
 62
               7
100
AcDbLine
 10
-2.6999969482421875
 20
7.7499961853027344
 30
0.0
 11
-2.6999969482421875
 21
3.7499961853027344
 31
0.0
  0
LINE
  5
1FD
100
AcDbEntity
  8
0
  6
CONTINUOUS
 62
               7
100
AcDbLine
 10
-2.6999969482421875
 20
7.7499961853027344
 30
0.0
 11
-3.0
 21
7.4499931335449219
 31
0.0
  0
LINE
  5
1FE
100
AcDbEntity
  8
0
  6
CONTINUOUS
 62
               7
100
AcDbLine
 10
-2.6999969482421875
 20
3.7499961853027344
 30
0.0
 11
-3.0
 21
4.0499992370605469
 31
0.0
  0
ENDBLK
  5
1FF
100
AcDbEntity
  8
0
100
AcDbBlockEnd
  0
BLOCK
  5
23
100
AcDbEntity
  8
0
  6
ByBlock
 62
               0
100
AcDbBlockBegin
  2
_OPEN30
 70
               2
 10
0.0
 20
0.0
 30
0.0
  3
_OPEN30
  1

  0
LINE
  5
24
100
AcDbEntity
  8
0
  6
ByBlock
 62
               0
100
AcDbLine
 10
-1.0
 20
0.267949
 30
0.0
 11
0.0
 21
0.0
 31
0.0
  0
LINE
  5
25
100
AcDbEntity
  8
0
  6
ByBlock
 62
               0
100
AcDbLine
 10
0.0
 20
0.0
 30
0.0
 11
-1.0
 21
-0.267949
 31
0.0
  0
LINE
  5
26
100
AcDbEntity
  8
0
  6
ByBlock
 62
               0
100
AcDbLine
 10
0.0
 20
0.0
 30
0.0
 11
-1.0
 21
0.0
 31
0.0
  0
ENDBLK
  5
27
100
AcDbEntity
  8
0
  6
ByBlock
 62
               0
100
AcDbBlockEnd
  0
ENDSEC
  0
SECTION
  2
ENTITIES
  0
INSERT
  5
200
100
AcDbEntity
  8
0
  6
ByBlock
100
AcDbBlockReference
  2
NHE2-20-4
 10
-50.0
 20
80.0
 30
0.0
  0
INSERT
  5
201
100
AcDbEntity
  8
0
  6
ByBlock
100
AcDbBlockReference
  2
NHE2-20-3
 10
120.0
 20
-30.0
 30
0.0
  0
INSERT
  5
202
100
AcDbEntity
  8
0
  6
ByBlock
100
AcDbBlockReference
  2
NHE2-20-2
 10
-119.99999757713496
 20
-30.0
 30
0.0
  0
INSERT
  5
203
100
AcDbEntity
  8
0
  6
ByBlock
100
AcDbBlockReference
  2
NHE2-20-1
 10
-50.0
 20
-30.0
 30
0.0
  0
MTEXT
  5
204
100
AcDbEntity
  8
0
  6
CONTINUOUS
 62
               7
100
AcDbMText
 10
-158.73584905488502
 20
95.600006103515625
 30
0.0
 40
4.5
 41
0.0
 71
               4
 72
               1
  1
\W1.019;\A1;NHE2-20-H
  0
MTEXT
  5
205
100
AcDbEntity
  8
0
  6
CONTINUOUS
 62
               7
100
AcDbMText
 10
-158.73584905488502
 20
101.60000610351562
 30
0.0
 40
4.5
 41
0.0
 71
               4
 72
               1
  1
\W1.019;\A1;NHE2-20-M
  0
MTEXT
  5
206
100
AcDbEntity
  8
0
  6
CONTINUOUS
 62
             255
100
AcDbMText
 10
-166.73170413980165
 20
121.35000610351562
 30
0.0
 40
4.5
 41
0.0
 71
               4
 72
               1
  1
\W1.024;\A1;NHE2-20
  0
MTEXT
  5
207
100
AcDbEntity
  8
0
  6
CONTINUOUS
 62
             255
100
AcDbMText
 10
-191.43345933387485
 20
128.85000610351562
 30
0.0
 40
4.5
 41
0.0
 71
               4
 72
               1
  1
\W1.089;\A1;3 FINGERS GRIPPERS
  0
MTEXT
  5
208
100
AcDbEntity
  8
0
  6
CONTINUOUS
 62
               7
100
AcDbMText
 10
-185.70588235238432
 20
107.60000610351562
 30
0.0
 40
4.5
 41
0.0
 71
               4
 72
               1
  1
\W1.059;\A1;MODEL:NHE2-20-L
  0
LINE
  5
209
100
AcDbEntity
  8
0
  6
CONTINUOUS
 62
               7
100
AcDbLine
 10
-194.25
 20
132.60000610351562
 30
0.0
 11
194.80000305175781
 21
132.60000610351562
 31
0.0
  0
LINE
  5
20A
100
AcDbEntity
  8
0
  6
CONTINUOUS
 62
               7
100
AcDbLine
 10
194.80000305175781
 20
132.60000610351562
 30
0.0
 11
194.80000305175781
 21
-133.5
 31
0.0
  0
LINE
  5
20B
100
AcDbEntity
  8
0
  6
CONTINUOUS
 62
               7
100
AcDbLine
 10
-194.25
 20
132.60000610351562
 30
0.0
 11
-194.25
 21
-133.5
 31
0.0
  0
LINE
  5
20C
100
AcDbEntity
  8
0
  6
CONTINUOUS
 62
               7
100
AcDbLine
 10
-194.25
 20
-133.5
 30
0.0
 11
194.80000305175781
 21
-133.5
 31
0.0
  0
LINE
  5
20D
100
AcDbEntity
  8
0
  6
CONTINUOUS
 62
               7
100
AcDbLine
 10
109.80000305175781
 20
-118.5
 30
0.0
 11
109.80000305175781
 21
-133.5
 31
0.0
  0
LINE
  5
20E
100
AcDbEntity
  8
0
  6
CONTINUOUS
 62
               7
100
AcDbLine
 10
109.80000305175781
 20
-118.5
 30
0.0
 11
194.80000305175781
 21
-118.5
 31
0.0
  0
LINE
  5
20F
100
AcDbEntity
  8
0
  6
CONTINUOUS
 62
               7
100
AcDbLine
 10
109.80000305175781
 20
132.60000610351562
 30
0.0
 11
109.80000305175781
 21
117.60000610351562
 31
0.0
  0
LINE
  5
210
100
AcDbEntity
  8
0
  6
CONTINUOUS
 62
               7
100
AcDbLine
 10
109.80000305175781
 20
117.60000610351562
 30
0.0
 11
194.80000305175781
 21
117.60000610351562
 31
0.0
  0
LINE
  5
211
100
AcDbEntity
  8
0
  6
CONTINUOUS
 62
               7
100
AcDbLine
 10
-194.25
 20
117.60000610351562
 30
0.0
 11
-109.25
 21
117.60000610351562
 31
0.0
  0
LINE
  5
212
100
AcDbEntity
  8
0
  6
CONTINUOUS
 62
               7
100
AcDbLine
 10
-109.25
 20
132.60000610351562
 30
0.0
 11
-109.25
 21
117.60000610351562
 31
0.0
  0
MTEXT
  5
213
100
AcDbEntity
  8
0
  6
CONTINUOUS
 62
               7
100
AcDbMText
 10
135.28361320576767
 20
125.10000610351562
 30
0.0
 40
4.5
 41
0.0
 71
               4
 72
               1
  1
\W1.311;\A1;Ver. 1.0
  0
MTEXT
  5
214
100
AcDbEntity
  8
0
  6
CONTINUOUS
 62
               7
100
AcDbMText
 10
115.52671996176056
 20
-126.0
 30
0.0
 40
6.3000001907348633
 41
0.0
 71
               4
 72
               1
  1
\W1.121;\A1;KOGANEI CORP.
  0
ENDSEC
  0
SECTION
  2
OBJECTS
  0
DICTIONARY
  5
19
100
AcDbDictionary
  3
ACAD_GROUP
350
1A
  3
ACAD_MLINESTYLE
350
1B
  0
DICTIONARY
  5
1A
102
{ACAD_REACTORS
330
19
102
}
100
AcDbDictionary
  0
DICTIONARY
  5
1B
102
{ACAD_REACTORS
330
19
102
}
100
AcDbDictionary
  3
STANDARD
350
1C
  0
MLINESTYLE
  5
1C
102
{ACAD_REACTORS
330
1B
102
}
100
AcDbMlineStyle
  2
Standard
 70
               0
  3

 62
               0
 51
90.0
 52
90.0
 71
               2
 49
0.5
 62
             256
  6
ByLayer
 49
-0.5
 62
             256
  6
ByLayer
  0
ENDSEC
  0
EOF
