  0
SECTION
  2
HEADER
  9
$ACADVER
  1
AC1009
  9
$DWGCODEPAGE
  3
dos932
  9
$INSBASE
 10
0.0
 20
0.0
 30
0.0
  9
$EXTMIN
 10
-138.3999939
 20
-94.80000305
 30
0.0
  9
$EXTMAX
 10
138.3500061
 20
94.5
 30
0.0
  9
$LIMMIN
 10
-138.3999939
 20
-94.80000305
  9
$LIMMAX
 10
138.3500061
 20
94.5
  9
$ORTHOMODE
 70
       0
  9
$REGENMODE
 70
       1
  9
$FILLMODE
 70
       1
  9
$QTEXTMODE
 70
       0
  9
$MIRRTEXT
 70
       1
  9
$DRAGMODE
 70
       2
  9
$LTSCALE
 40
1.0
  9
$OSMODE
 70
       0
  9
$ATTMODE
 70
       1
  9
$TEXTSIZE
 40
3.20000005
  9
$TRACEWID
 40
0.05
  9
$TEXTSTYLE
  7
MX_NOTE_STANDARD
  9
$CLAYER
  8
0
  9
$CELTYPE
  6
CONTINUOUS
  9
$CECOLOR
 62
     256
  9
$DIMSCALE
 40
1.0
  9
$DIMASZ
 40
2.5
  9
$DIMEXO
 40
1.5
  9
$DIMDLI
 40
3.75
  9
$DIMRND
 40
0.0
  9
$DIMDLE
 40
0.0
  9
$DIMEXE
 40
1.5
  9
$DIMTP
 40
0.0
  9
$DIMTM
 40
0.0
  9
$DIMTXT
 40
3.20000005
  9
$DIMCEN
 40
2.5
  9
$DIMTSZ
 40
0.0
  9
$DIMTOL
 70
       0
  9
$DIMLIM
 70
       0
  9
$DIMTIH
 70
       0
  9
$DIMTOH
 70
       0
  9
$DIMSE1
 70
       0
  9
$DIMSE2
 70
       0
  9
$DIMTAD
 70
       1
  9
$DIMZIN
 70
       8
  9
$DIMBLK
  1

  9
$DIMASO
 70
       1
  9
$DIMSHO
 70
       1
  9
$DIMPOST
  1

  9
$DIMAPOST
  1

  9
$DIMALT
 70
       0
  9
$DIMALTD
 70
       4
  9
$DIMALTF
 40
0.03937008
  9
$DIMLFAC
 40
1.0
  9
$DIMTOFL
 70
       1
  9
$DIMTVP
 40
0.0
  9
$DIMTIX
 70
       0
  9
$DIMSOXD
 70
       0
  9
$DIMSAH
 70
       0
  9
$DIMBLK1
  1

  9
$DIMBLK2
  1

  9
$DIMSTYLE
  2
MXDIMSTYLE
  9
$DIMCLRD
 70
       0
  9
$DIMCLRE
 70
       0
  9
$DIMCLRT
 70
       0
  9
$DIMTFAC
 40
1.0
  9
$DIMGAP
 40
1.0
  9
$LUNITS
 70
       2
  9
$LUPREC
 70
       4
  9
$AXISMODE
 70
       0
  9
$AXISUNIT
 10
0.0
 20
0.0
  9
$SKETCHINC
 40
0.1
  9
$FILLETRAD
 40
0.0
  9
$AUNITS
 70
       0
  9
$AUPREC
 70
       0
  9
$MENU
  1
acad
  9
$ELEVATION
 40
0.0
  9
$PELEVATION
 40
0.0
  9
$THICKNESS
 40
0.0
  9
$LIMCHECK
 70
       0
  9
$BLIPMODE
 70
       1
  9
$CHAMFERA
 40
0.0
  9
$CHAMFERB
 40
0.0
  9
$SKPOLY
 70
       0
  9
$TDCREATE
 40
2453336.740370370
  9
$TDUPDATE
 40
2453336.740370370
  9
$TDINDWG
 40
0.0000000000
  9
$TDUSRTIMER
 40
0.0000000000
  9
$USRTIMER
 70
       1
  9
$ANGBASE
 50
0.0
  9
$ANGDIR
 70
       0
  9
$PDMODE
 70
       0
  9
$PDSIZE
 40
0.0
  9
$PLINEWID
 40
0.0
  9
$COORDS
 70
       1
  9
$SPLFRAME
 70
       0
  9
$SPLINETYPE
 70
       6
  9
$SPLINESEGS
 70
       8
  9
$ATTDIA
 70
       0
  9
$ATTREQ
 70
       1
  9
$HANDLING
 70
       1
  9
$HANDSEED
  5
C8
  9
$SURFTAB1
 70
       6
  9
$SURFTAB2
 70
       6
  9
$SURFTYPE
 70
       6
  9
$SURFU
 70
       6
  9
$SURFV
 70
       6
  9
$UCSNAME
  2

  9
$UCSORG
 10
0.0
 20
0.0
 30
0.0
  9
$UCSXDIR
 10
1.0
 20
0.0
 30
0.0
  9
$UCSYDIR
 10
0.0
 20
1.0
 30
0.0
  9
$PUCSNAME
  2

  9
$PUCSORG
 10
0.0
 20
0.0
 30
0.0
  9
$PUCSXDIR
 10
1.0
 20
0.0
 30
0.0
  9
$PUCSYDIR
 10
0.0
 20
1.0
 30
0.0
  9
$USERI1
 70
       0
  9
$USERI2
 70
       0
  9
$USERI3
 70
       0
  9
$USERI4
 70
       0
  9
$USERI5
 70
       0
  9
$USERR1
 40
0.0
  9
$USERR2
 40
0.0
  9
$USERR3
 40
0.0
  9
$USERR4
 40
0.0
  9
$USERR5
 40
0.0
  9
$WORLDVIEW
 70
       1
  9
$SHADEDGE
 70
       3
  9
$SHADEDIF
 70
      70
  9
$TILEMODE
 70
       1
  9
$MAXACTVP
 70
      16
  9
$PINSBASE
 10
0.0
 20
0.0
 30
0.0
  9
$PLIMCHECK
 70
       0
  9
$PEXTMIN
 10
1.00000000E+20
 20
1.00000000E+20
 30
1.00000000E+20
  9
$PEXTMAX
 10
-1.00000000E+20
 20
-1.00000000E+20
 30
-1.00000000E+20
  9
$PLIMMIN
 10
0.0
 20
0.0
  9
$PLIMMAX
 10
12.0
 20
9.0
  9
$UNITMODE
 70
       0
  9
$VISRETAIN
 70
       0
  9
$PLINEGEN
 70
       1
  9
$PSLTSCALE
 70
       0
  9
$TREEDEPTH
 70
    3020
  9
$DWGCODEPAGE
  3
dos932
  0
ENDSEC
  0
SECTION
  2
TABLES
  0
TABLE
  2
VPORT
 70
       1
  0
VPORT
  2
*ACTIVE
 70
       0
 10
0.0
 20
0.0
 11
1.0
 21
1.0
 12
-0.0249939
 22
-0.15000153
 13
0.0
 23
0.0
 14
1.0
 24
1.0
 15
0.0
 25
0.0
 16
0.0
 26
0.0
 36
1.0
 17
0.0
 27
0.0
 37
0.0
 40
191.19300308
 41
1.73205081
 42
50.0
 43
0.0
 44
0.0
 50
0.0
 51
0.0
 71
       0
 72
     100
 73
       1
 74
       1
 75
       0
 76
       0
 77
       0
 78
       0
  0
ENDTAB
  0
TABLE
  2
LTYPE
 70
       2
  0
LTYPE
  2
CONTINUOUS
 70
      64
  3
Solid line
 72
      65
 73
       0
 40
0.0
  0
LTYPE
  2
PHANTOM
 70
      64
  3
Phantom ______  __  __  ______  __  __  ______
 72
      65
 73
       6
 40
30.0
 49
20.0
 49
-2.0
 49
2.0
 49
-2.0
 49
2.0
 49
-2.0
  0
ENDTAB
  0
TABLE
  2
LAYER
 70
       2
  0
LAYER
  2
0
 70
       0
 62
       7
  6
CONTINUOUS
  0
LAYER
  2
DEFPOINTS
 70
       0
 62
       7
  6
CONTINUOUS
  0
ENDTAB
  0
TABLE
  2
STYLE
 70
       1
  0
STYLE
  2
MX_NOTE_STANDARD
 70
       0
 40
0.0
 41
1.0
 50
0.0
 71
       0
 42
3.20000005
  3
txt.shx
  4
extfont.shx
  0
ENDTAB
  0
TABLE
  2
VIEW
 70
       0
  0
ENDTAB
  0
TABLE
  2
UCS
 70
       0
  0
ENDTAB
  0
TABLE
  2
APPID
 70
       1
  0
APPID
  2
ACAD
 70
       0
  0
ENDTAB
  0
TABLE
  2
DIMSTYLE
 70
       1
  0
DIMSTYLE
  2
MXDIMSTYLE
 70
       0
  3

  4

  5

  6

  7

 40
1.0
 41
2.5
 42
1.5
 43
3.75
 44
1.5
 45
0.0
 46
0.0
 47
0.0
 48
0.0
 71
       0
 72
       0
 73
       0
 74
       0
 75
       0
 76
       0
 77
       1
 78
       8
140
3.20000005
141
2.5
142
0.0
143
0.03937008
144
1.0
145
0.0
146
1.0
147
1.0
170
       0
171
       4
172
       1
173
       0
174
       0
175
       0
176
       0
177
       0
178
       0
  0
ENDTAB
  0
ENDSEC
  0
SECTION
  2
BLOCKS
  0
ENDSEC
  0
SECTION
  2
ENTITIES
  0
POINT
  8
0
  6
CONTINUOUS
 62
       7
  5
1E
 10
0.0
 20
0.0
 30
0.0
  0
CIRCLE
  8
0
  6
CONTINUOUS
 62
       7
  5
1F
 10
-4.5
 20
28.80000024
 30
0.0
 40
3.0
  0
CIRCLE
  8
0
  6
CONTINUOUS
 62
       7
  5
20
 10
-4.5
 20
28.80000024
 30
0.0
 40
1.10000002
  0
CIRCLE
  8
0
  6
CONTINUOUS
 62
       7
  5
21
 10
-24.00000009
 20
34.72499979
 30
0.0
 40
0.69999999
  0
CIRCLE
  8
0
  6
CONTINUOUS
 62
       2
  5
22
 10
-24.00000009
 20
34.72499979
 30
0.0
 40
1.0
  0
CIRCLE
  8
0
  6
CONTINUOUS
 62
       7
  5
23
 10
-24.00000009
 20
25.27500003
 30
0.0
 40
0.69999999
  0
CIRCLE
  8
0
  6
CONTINUOUS
 62
       2
  5
24
 10
-24.00000009
 20
25.27500003
 30
0.0
 40
1.0
  0
CIRCLE
  8
0
  6
CONTINUOUS
 62
       7
  5
25
 10
-39.00000009
 20
30.0
 30
0.0
 40
0.85000002
  0
CIRCLE
  8
0
  6
CONTINUOUS
 62
       2
  5
26
 10
-39.00000009
 20
30.0
 30
0.0
 40
1.25
  0
CIRCLE
  8
0
  6
CONTINUOUS
 62
       7
  5
27
 10
-33.50000009
 20
30.0
 30
0.0
 40
0.85000002
  0
CIRCLE
  8
0
  6
CONTINUOUS
 62
       2
  5
28
 10
-33.50000009
 20
30.0
 30
0.0
 40
1.25
  0
CIRCLE
  8
0
  6
CONTINUOUS
 62
       7
  5
29
 10
-14.5
 20
28.80000024
 30
0.0
 40
3.0
  0
CIRCLE
  8
0
  6
CONTINUOUS
 62
       2
  5
2A
 10
-14.5
 20
28.80000024
 30
0.0
 40
1.5
  0
CIRCLE
  8
0
  6
CONTINUOUS
 62
       2
  5
2B
 10
-4.5
 20
28.80000024
 30
0.0
 40
1.5
  0
CIRCLE
  8
0
  6
CONTINUOUS
 62
       7
  5
2C
 10
-14.5
 20
28.80000024
 30
0.0
 40
1.10000002
  0
LINE
  8
0
  6
CONTINUOUS
 62
       7
  5
2D
 10
-16.89999962
 20
35.09999847
 30
0.0
 11
-16.89999962
 21
31.89999771
 31
0.0
  0
LINE
  8
0
  6
CONTINUOUS
 62
       2
  5
2E
 10
-4.5
 20
32.34482674
 30
0.0
 11
-4.5
 21
25.07305627
 31
0.0
  0
LINE
  8
0
  6
CONTINUOUS
 62
       2
  5
2F
 10
-14.5
 20
32.34482674
 30
0.0
 11
-14.5
 21
25.26442056
 31
0.0
  0
LINE
  8
0
  6
CONTINUOUS
 62
       2
  5
30
 10
-8.04522705
 20
28.80000024
 30
0.0
 11
-1.01266098
 21
28.80000024
 31
0.0
  0
LINE
  8
0
  6
CONTINUOUS
 62
       2
  5
31
 10
-18.02231216
 20
28.80000024
 30
0.0
 11
-11.03758621
 21
28.80000024
 31
0.0
  0
LINE
  8
0
  6
CONTINUOUS
 62
       2
  5
32
 10
-25.44410715
 20
34.72499979
 30
0.0
 11
-22.4713746
 21
34.72499979
 31
0.0
  0
LINE
  8
0
  6
CONTINUOUS
 62
       2
  5
33
 10
-25.44410715
 20
25.27500003
 30
0.0
 11
-22.4713746
 21
25.27500003
 31
0.0
  0
LINE
  8
0
  6
CONTINUOUS
 62
       2
  5
34
 10
-20.18388176
 20
33.5
 30
0.0
 11
0.83693314
 21
33.5
 31
0.0
  0
LINE
  8
0
  6
CONTINUOUS
 62
       7
  5
35
 10
-20.30000033
 20
27.04999924
 30
0.0
 11
-20.30000033
 21
32.95000076
 31
0.0
  0
LINE
  8
0
  6
CONTINUOUS
 62
       7
  5
36
 10
-29.00000009
 20
32.95000076
 30
0.0
 11
-29.00000009
 21
36.5
 31
0.0
  0
LINE
  8
0
  6
CONTINUOUS
 62
       7
  5
37
 10
-29.00000009
 20
23.5
 30
0.0
 11
-29.00000009
 21
27.04999924
 31
0.0
  0
LINE
  8
0
  6
CONTINUOUS
 62
       2
  5
38
 10
-24.00000009
 20
22.72727203
 30
0.0
 11
-24.00000009
 21
37.49090958
 31
0.0
  0
LINE
  8
0
  6
CONTINUOUS
 62
       2
  5
39
 10
-39.00000009
 20
27.9650383
 30
0.0
 11
-39.00000009
 21
31.68636703
 31
0.0
  0
LINE
  8
0
  6
CONTINUOUS
 62
       2
  5
3A
 10
-33.50000009
 20
27.9650383
 30
0.0
 11
-33.50000009
 21
31.68636703
 31
0.0
  0
LINE
  8
0
  6
CONTINUOUS
 62
       7
  5
3B
 10
-21.25000009
 20
27.25
 30
0.0
 11
-21.25000009
 21
32.75
 31
0.0
  0
LINE
  8
0
  6
CONTINUOUS
 62
       2
  5
3C
 10
-42.11600404
 20
30.0
 30
0.0
 11
0.77616973
 21
30.0
 31
0.0
  0
LINE
  8
0
  6
CONTINUOUS
 62
       7
  5
3D
 10
-28.99999809
 20
36.5
 30
0.0
 11
0.0
 21
36.5
 31
0.0
  0
LINE
  8
0
  6
CONTINUOUS
 62
       7
  5
3E
 10
-28.99999809
 20
23.5
 30
0.0
 11
0.0
 21
23.5
 31
0.0
  0
LINE
  8
0
  6
CONTINUOUS
 62
       7
  5
3F
 10
-22.25000009
 20
27.25
 30
0.0
 11
-22.25000009
 21
32.75
 31
0.0
  0
LINE
  8
0
  6
CONTINUOUS
 62
       7
  5
40
 10
-41.50000009
 20
27.25
 30
0.0
 11
-41.50000009
 21
32.75
 31
0.0
  0
LINE
  8
0
  6
CONTINUOUS
 62
       7
  5
41
 10
0.0
 20
23.5
 30
0.0
 11
0.0
 21
36.5
 31
0.0
  0
CIRCLE
  8
0
  6
CONTINUOUS
 62
       7
  5
42
 10
-18.5
 20
-7.49999998
 30
0.0
 40
1.60000002
  0
CIRCLE
  8
0
  6
CONTINUOUS
 62
       7
  5
43
 10
-18.5
 20
7.5
 30
0.0
 40
1.60000002
  0
CIRCLE
  8
0
  6
CONTINUOUS
 62
       7
  5
44
 10
-24.00000009
 20
-6.00000005
 30
0.0
 40
1.0
  0
CIRCLE
  8
0
  6
CONTINUOUS
 62
       7
  5
45
 10
-24.00000009
 20
6.00000005
 30
0.0
 40
1.0
  0
LINE
  8
0
  6
CONTINUOUS
 62
       2
  5
46
 10
-24.00000009
 20
-4.00000005
 30
0.0
 11
-24.00000009
 21
-8.00000005
 31
0.0
  0
LINE
  8
0
  6
CONTINUOUS
 62
       7
  5
47
 10
-41.29193057
 20
-9.08044453
 30
0.0
 11
-29.00000009
 21
-5.78683169
 31
0.0
  0
LINE
  8
0
  6
CONTINUOUS
 62
       7
  5
48
 10
-40.38606397
 20
-12.46118469
 30
0.0
 11
-29.00000009
 21
-9.41029807
 31
0.0
  0
LINE
  8
0
  6
CONTINUOUS
 62
       7
  5
49
 10
-40.38606397
 20
-12.46118469
 30
0.0
 11
-41.29193057
 21
-9.08044453
 31
0.0
  0
LINE
  8
0
  6
CONTINUOUS
 62
       2
  5
4A
 10
-22.0076107
 20
6.17431235
 30
0.0
 11
-42.42960247
 21
4.38761959
 31
0.0
  0
LINE
  8
0
  6
CONTINUOUS
 62
       2
  5
4B
 10
-21.10000038
 20
7.5
 30
0.0
 11
-15.89999962
 21
7.5
 31
0.0
  0
LINE
  8
0
  6
CONTINUOUS
 62
       2
  5
4C
 10
-21.10000038
 20
-7.49999998
 30
0.0
 11
-15.89999962
 21
-7.49999998
 31
0.0
  0
LINE
  8
0
  6
CONTINUOUS
 62
       2
  5
4D
 10
-18.5
 20
10.10000038
 30
0.0
 11
-18.5
 21
4.89999962
 31
0.0
  0
LINE
  8
0
  6
CONTINUOUS
 62
       2
  5
4E
 10
-18.5
 20
-4.90000007
 30
0.0
 11
-18.5
 21
-10.09999988
 31
0.0
  0
LINE
  8
0
  6
CONTINUOUS
 62
       2
  5
4F
 10
-42.42960514
 20
-4.38761871
 30
0.0
 11
-22.00761337
 21
-6.17431147
 31
0.0
  0
LINE
  8
0
  6
CONTINUOUS
 62
       2
  5
50
 10
-22.0681473
 20
-5.48236135
 30
0.0
 11
-41.86962647
 21
-10.78815175
 31
0.0
  0
LINE
  8
0
  6
CONTINUOUS
 62
       2
  5
51
 10
-33.67471806
 20
-6.59864263
 30
0.0
 11
-32.55851886
 21
-10.76435475
 31
0.0
  0
LINE
  8
0
  6
CONTINUOUS
 62
       2
  5
52
 10
-38.9873101
 20
-8.02214737
 30
0.0
 11
-37.81749839
 21
-12.38794411
 31
0.0
  0
LINE
  8
0
  6
CONTINUOUS
 62
       2
  5
53
 10
-32.51905178
 20
10.91164854
 30
0.0
 11
-33.6965526
 21
6.51715564
 31
0.0
  0
LINE
  8
0
  6
CONTINUOUS
 62
       2
  5
54
 10
-37.74340983
 20
12.66444702
 30
0.0
 11
-38.97868298
 21
8.05434489
 31
0.0
  0
LINE
  8
0
  6
CONTINUOUS
 62
       7
  5
55
 10
-29.00000009
 20
10.0
 30
0.0
 11
-29.00000009
 21
-10.00000012
 31
0.0
  0
LINE
  8
0
  6
CONTINUOUS
 62
       2
  5
56
 10
-25.47920999
 20
-6.00000005
 30
0.0
 11
-22.55677042
 21
-6.00000005
 31
0.0
  0
LINE
  8
0
  6
CONTINUOUS
 62
       7
  5
57
 10
-28.99999809
 20
10.0
 30
0.0
 11
0.0
 21
10.0
 31
0.0
  0
LINE
  8
0
  6
CONTINUOUS
 62
       7
  5
58
 10
-28.99999809
 20
-10.00000012
 30
0.0
 11
0.0
 21
-10.00000012
 31
0.0
  0
LINE
  8
0
  6
CONTINUOUS
 62
       7
  5
59
 10
0.0
 20
10.0
 30
0.0
 11
0.0
 21
-10.00000012
 31
0.0
  0
LINE
  8
0
  6
CONTINUOUS
 62
       2
  5
5A
 10
-24.00000009
 20
7.99999909
 30
0.0
 11
-24.00000009
 21
4.00000005
 31
0.0
  0
LINE
  8
0
  6
CONTINUOUS
 62
       2
  5
5B
 10
-25.47920999
 20
6.00000005
 30
0.0
 11
-22.55677042
 21
6.00000005
 31
0.0
  0
LINE
  8
0
  6
CONTINUOUS
 62
       7
  5
5C
 10
-40.38606349
 20
12.46118588
 30
0.0
 11
-29.00000009
 21
9.41029939
 31
0.0
  0
LINE
  8
0
  6
CONTINUOUS
 62
       2
  5
5D
 10
-29.90758705
 20
0.0
 30
0.0
 11
0.80738831
 21
0.0
 31
0.0
  0
CIRCLE
  8
0
  6
CONTINUOUS
 62
       2
  5
5E
 10
-13.0
 20
-31.5
 30
0.0
 40
1.5
  0
CIRCLE
  8
0
  6
CONTINUOUS
 62
       7
  5
5F
 10
-13.0
 20
-31.5
 30
0.0
 40
1.10000002
  0
CIRCLE
  8
0
  6
CONTINUOUS
 62
       7
  5
60
 10
-5.0
 20
-31.5
 30
0.0
 40
1.10000002
  0
CIRCLE
  8
0
  6
CONTINUOUS
 62
       2
  5
61
 10
-5.0
 20
-31.5
 30
0.0
 40
1.5
  0
CIRCLE
  8
0
  6
CONTINUOUS
 62
       7
  5
62
 10
-24.00000009
 20
-34.72500238
 30
0.0
 40
0.69999999
  0
CIRCLE
  8
0
  6
CONTINUOUS
 62
       2
  5
63
 10
-24.00000009
 20
-34.72500238
 30
0.0
 40
1.0
  0
CIRCLE
  8
0
  6
CONTINUOUS
 62
       7
  5
64
 10
-39.00000009
 20
-30.0
 30
0.0
 40
0.85000002
  0
CIRCLE
  8
0
  6
CONTINUOUS
 62
       2
  5
65
 10
-39.00000009
 20
-30.0
 30
0.0
 40
1.25
  0
CIRCLE
  8
0
  6
CONTINUOUS
 62
       2
  5
66
 10
-33.50000009
 20
-30.0
 30
0.0
 40
1.25
  0
CIRCLE
  8
0
  6
CONTINUOUS
 62
       7
  5
67
 10
-33.50000009
 20
-30.0
 30
0.0
 40
0.85000002
  0
CIRCLE
  8
0
  6
CONTINUOUS
 62
       7
  5
68
 10
-24.00000009
 20
-25.27499962
 30
0.0
 40
0.69999999
  0
CIRCLE
  8
0
  6
CONTINUOUS
 62
       2
  5
69
 10
-24.00000009
 20
-25.27499962
 30
0.0
 40
1.0
  0
LINE
  8
0
  6
CONTINUOUS
 62
       2
  5
6A
 10
-5.0
 20
-29.66784286
 30
0.0
 11
-5.0
 21
-33.31415176
 31
0.0
  0
LINE
  8
0
  6
CONTINUOUS
 62
       2
  5
6B
 10
-13.0
 20
-29.53761673
 30
0.0
 11
-13.0
 21
-33.27074051
 31
0.0
  0
LINE
  8
0
  6
CONTINUOUS
 62
       2
  5
6C
 10
-6.89596176
 20
-31.5
 30
0.0
 11
-3.03261185
 21
-31.5
 31
0.0
  0
LINE
  8
0
  6
CONTINUOUS
 62
       2
  5
6D
 10
-15.05674362
 20
-31.5
 30
0.0
 11
-11.19339371
 21
-31.5
 31
0.0
  0
LINE
  8
0
  6
CONTINUOUS
 62
       2
  5
6E
 10
-20.18388176
 20
-26.5
 30
0.0
 11
0.83693314
 21
-26.5
 31
0.0
  0
LINE
  8
0
  6
CONTINUOUS
 62
       7
  5
6F
 10
-20.30000033
 20
-27.04999924
 30
0.0
 11
-20.30000033
 21
-32.95000076
 31
0.0
  0
LINE
  8
0
  6
CONTINUOUS
 62
       7
  5
70
 10
-29.00000009
 20
-32.95000076
 30
0.0
 11
-29.00000009
 21
-36.50000191
 31
0.0
  0
LINE
  8
0
  6
CONTINUOUS
 62
       2
  5
71
 10
-24.00000009
 20
-22.72727203
 30
0.0
 11
-24.00000009
 21
-37.49091148
 31
0.0
  0
LINE
  8
0
  6
CONTINUOUS
 62
       2
  5
72
 10
-33.50000009
 20
-27.9650383
 30
0.0
 11
-33.50000009
 21
-31.68636703
 31
0.0
  0
LINE
  8
0
  6
CONTINUOUS
 62
       7
  5
73
 10
-29.00000009
 20
-23.5
 30
0.0
 11
-29.00000009
 21
-27.04999924
 31
0.0
  0
LINE
  8
0
  6
CONTINUOUS
 62
       2
  5
74
 10
-39.00000009
 20
-27.9650383
 30
0.0
 11
-39.00000009
 21
-31.68636703
 31
0.0
  0
LINE
  8
0
  6
CONTINUOUS
 62
       7
  5
75
 10
-21.25000009
 20
-27.25
 30
0.0
 11
-21.25000009
 21
-32.75
 31
0.0
  0
LINE
  8
0
  6
CONTINUOUS
 62
       2
  5
76
 10
-42.11599922
 20
-30.0
 30
0.0
 11
0.77617645
 21
-30.0
 31
0.0
  0
LINE
  8
0
  6
CONTINUOUS
 62
       7
  5
77
 10
-28.99999809
 20
-36.49999991
 30
0.0
 11
0.0
 21
-36.49999991
 31
0.0
  0
LINE
  8
0
  6
CONTINUOUS
 62
       7
  5
78
 10
-28.99999809
 20
-23.5
 30
0.0
 11
0.0
 21
-23.5
 31
0.0
  0
LINE
  8
0
  6
CONTINUOUS
 62
       7
  5
79
 10
-22.25000009
 20
-27.25
 30
0.0
 11
-22.25000009
 21
-32.75
 31
0.0
  0
LINE
  8
0
  6
CONTINUOUS
 62
       7
  5
7A
 10
-41.50000009
 20
-27.25
 30
0.0
 11
-41.50000009
 21
-32.75
 31
0.0
  0
LINE
  8
0
  6
CONTINUOUS
 62
       7
  5
7B
 10
0.0
 20
-23.5
 30
0.0
 11
0.0
 21
-36.50000191
 31
0.0
  0
ARC
  8
0
  6
CONTINUOUS
 62
       7
  5
7C
 10
36.0358963
 20
2.00000381
 30
0.0
 40
0.5
 50
239.53559844
 51
66.91965266
  0
ARC
  8
0
  6
CONTINUOUS
 62
       7
  5
7D
 10
36.0358963
 20
2.00000381
 30
0.0
 40
1.0
 50
246.22340549
 51
52.81921889
  0
ARC
  8
0
  6
CONTINUOUS
 62
       7
  5
7E
 10
36.03590393
 20
-2.00000048
 30
0.0
 40
0.5
 50
293.07983508
 51
120.46487967
  0
ARC
  8
0
  6
CONTINUOUS
 62
       7
  5
7F
 10
39.5
 20
0.00000381
 30
0.0
 40
4.0
 50
224.3615409
 51
135.6384591
  0
ARC
  8
0
  6
CONTINUOUS
 62
       7
  5
80
 10
36.03590393
 20
-2.00000048
 30
0.0
 40
1.0
 50
307.1807572
 51
113.77660134
  0
CIRCLE
  8
0
  6
CONTINUOUS
 62
       7
  5
81
 10
36.5
 20
-7.50000012
 30
0.0
 40
2.5
  0
CIRCLE
  8
0
  6
CONTINUOUS
 62
       7
  5
82
 10
43.5
 20
7.5
 30
0.0
 40
2.5
  0
CIRCLE
  8
0
  6
CONTINUOUS
 62
       2
  5
83
 10
44.5
 20
-7.50000012
 30
0.0
 40
1.25
  0
CIRCLE
  8
0
  6
CONTINUOUS
 62
       7
  5
84
 10
44.5
 20
-7.50000012
 30
0.0
 40
0.85000002
  0
CIRCLE
  8
0
  6
CONTINUOUS
 62
       7
  5
85
 10
35.5
 20
7.5
 30
0.0
 40
0.85000002
  0
CIRCLE
  8
0
  6
CONTINUOUS
 62
       2
  5
86
 10
35.5
 20
7.5
 30
0.0
 40
1.25
  0
CIRCLE
  8
0
  6
CONTINUOUS
 62
       7
  5
87
 10
40.0
 20
0.0
 30
0.0
 40
4.5
  0
LINE
  8
0
  6
CONTINUOUS
 62
       7
  5
88
 10
34.07306767
 20
-8.10000038
 30
0.0
 11
38.92693233
 21
-8.10000038
 31
0.0
  0
LINE
  8
0
  6
CONTINUOUS
 62
       7
  5
89
 10
41.07306862
 20
8.10000038
 30
0.0
 11
45.92693138
 21
8.10000038
 31
0.0
  0
LINE
  8
0
  6
CONTINUOUS
 62
       2
  5
8A
 10
43.5
 20
10.84166718
 30
0.0
 11
43.5
 21
4.80952358
 31
0.0
  0
LINE
  8
0
  6
CONTINUOUS
 62
       2
  5
8B
 10
42.70000076
 20
-7.50000012
 30
0.0
 11
45.77499771
 21
-7.50000012
 31
0.0
  0
LINE
  8
0
  6
CONTINUOUS
 62
       2
  5
8C
 10
33.83818817
 20
-7.50000012
 30
0.0
 11
39.32804489
 21
-7.50000012
 31
0.0
  0
LINE
  8
0
  6
CONTINUOUS
 62
       2
  5
8D
 10
44.5
 20
-5.95833302
 30
0.0
 11
44.5
 21
-9.18333308
 31
0.0
  0
LINE
  8
0
  6
CONTINUOUS
 62
       7
  5
8E
 10
34.90000153
 20
-9.42093748
 30
0.0
 11
34.90000153
 21
-10.00000012
 31
0.0
  0
LINE
  8
0
  6
CONTINUOUS
 62
       2
  5
8F
 10
36.5
 20
-4.54356098
 30
0.0
 11
36.5
 21
-11.20833313
 31
0.0
  0
LINE
  8
0
  6
CONTINUOUS
 62
       7
  5
90
 10
38.09999847
 20
-9.42093748
 30
0.0
 11
38.09999847
 21
-10.00000012
 31
0.0
  0
LINE
  8
0
  6
CONTINUOUS
 62
       2
  5
91
 10
32.72499847
 20
7.5
 30
0.0
 11
37.15000153
 21
7.5
 31
0.0
  0
LINE
  8
0
  6
CONTINUOUS
 62
       2
  5
92
 10
40.0
 20
10.84166718
 30
0.0
 11
40.0
 21
-11.20833313
 31
0.0
  0
LINE
  8
0
  6
CONTINUOUS
 62
       2
  5
93
 10
32.72499847
 20
0.0
 30
0.0
 11
47.57500076
 21
0.0
 31
0.0
  0
LINE
  8
0
  6
CONTINUOUS
 62
       2
  5
94
 10
35.5
 20
10.84166718
 30
0.0
 11
35.5
 21
5.59166622
 31
0.0
  0
LINE
  8
0
  6
CONTINUOUS
 62
       2
  5
95
 10
40.8326683
 20
7.5
 30
0.0
 11
46.07852936
 21
7.5
 31
0.0
  0
LINE
  8
0
  6
CONTINUOUS
 62
       7
  5
96
 10
33.5
 20
-10.00000012
 30
0.0
 11
46.5
 21
-10.00000012
 31
0.0
  0
LINE
  8
0
  6
CONTINUOUS
 62
       7
  5
97
 10
33.5
 20
10.0
 30
0.0
 11
46.5
 21
10.0
 31
0.0
  0
LINE
  8
0
  6
CONTINUOUS
 62
       7
  5
98
 10
33.5
 20
10.0
 30
0.0
 11
33.5
 21
-10.00000012
 31
0.0
  0
LINE
  8
0
  6
CONTINUOUS
 62
       7
  5
99
 10
46.5
 20
10.0
 30
0.0
 11
46.5
 21
-10.00000012
 31
0.0
  0
LINE
  8
0
  6
PHANTOM
 62
       2
  5
9B
 10
-41.60771881
 20
6.4671649
 30
0.0
 11
-41.30267362
 21
2.9804825
 31
0.0
  0
LINE
  8
0
  6
PHANTOM
 62
       2
  5
9C
 10
-41.60771881
 20
6.4671649
 30
0.0
 11
-34.01737672
 21
7.13123378
 31
0.0
  0
LINE
  8
0
  6
PHANTOM
 62
       2
  5
9D
 10
-41.6077188
 20
-6.46716418
 30
0.0
 11
-34.01737493
 21
-7.13123322
 31
0.0
  0
LINE
  8
0
  6
PHANTOM
 62
       2
  5
9E
 10
-41.6077188
 20
-6.46716418
 30
0.0
 11
-41.30267372
 21
-2.98048298
 31
0.0
  0
LINE
  8
0
  6
PHANTOM
 62
       2
  5
9F
 10
-41.30267372
 20
-2.98048298
 30
0.0
 11
-29.00000009
 21
-4.05682745
 31
0.0
  0
LINE
  8
0
  6
CONTINUOUS
 62
       7
  5
A0
 10
-17.9
 20
31.9
 30
0.0
 11
-17.9
 21
35.1
 31
0.0
  0
LINE
  8
0
  6
CONTINUOUS
 62
       7
  5
A1
 10
-17.9
 20
35.1
 30
0.0
 11
0.0
 21
35.1
 31
0.0
  0
LINE
  8
0
  6
CONTINUOUS
 62
       7
  5
A2
 10
-17.9
 20
31.9
 30
0.0
 11
0.0
 21
31.9
 31
0.0
  0
ARC
  8
0
  6
CONTINUOUS
 62
       7
  5
A3
 10
-17.89999771
 20
33.5
 30
0.0
 40
1.6
 50
90.00008196
 51
270.0
  0
LINE
  8
0
  6
CONTINUOUS
 62
       7
  5
A4
 10
-41.50000009
 20
32.75
 30
0.0
 11
-20.75000009
 21
32.75
 31
0.0
  0
LINE
  8
0
  6
CONTINUOUS
 62
       7
  5
A5
 10
-20.75000009
 20
27.25
 30
0.0
 11
-41.50000009
 21
27.25
 31
0.0
  0
LINE
  8
0
  6
CONTINUOUS
 62
       2
  5
A6
 10
-41.85239452
 20
10.78353553
 30
0.0
 11
-21.93420163
 21
5.44647183
 31
0.0
  0
LINE
  8
0
  6
CONTINUOUS
 62
       7
  5
A7
 10
-41.2919302
 20
9.0804453
 30
0.0
 11
-29.00000009
 21
5.78683255
 31
0.0
  0
LINE
  8
0
  6
CONTINUOUS
 62
       7
  5
A8
 10
-40.38606349
 20
12.46118588
 30
0.0
 11
-41.2919302
 21
9.0804453
 31
0.0
  0
LINE
  8
0
  6
CONTINUOUS
 62
       7
  5
A9
 10
-17.9
 20
-28.1
 30
0.0
 11
-17.9
 21
-24.9
 31
0.0
  0
LINE
  8
0
  6
CONTINUOUS
 62
       7
  5
AA
 10
-17.9
 20
-28.1
 30
0.0
 11
0.0
 21
-28.1
 31
0.0
  0
ARC
  8
0
  6
CONTINUOUS
 62
       7
  5
AB
 10
-17.89999771
 20
-26.5
 30
0.0
 40
1.6
 50
90.00008196
 51
270.0
  0
LINE
  8
0
  6
CONTINUOUS
 62
       7
  5
AC
 10
-16.89999962
 20
-24.90000153
 30
0.0
 11
-16.89999962
 21
-28.10000229
 31
0.0
  0
LINE
  8
0
  6
CONTINUOUS
 62
       7
  5
AD
 10
-17.9
 20
-24.9
 30
0.0
 11
0.0
 21
-24.9
 31
0.0
  0
LINE
  8
0
  6
CONTINUOUS
 62
       7
  5
AE
 10
-41.50000009
 20
-27.25
 30
0.0
 11
-20.74999809
 21
-27.25
 31
0.0
  0
LINE
  8
0
  6
CONTINUOUS
 62
       7
  5
AF
 10
-20.74999809
 20
-32.75
 30
0.0
 11
-41.50000009
 21
-32.75
 31
0.0
  0
LINE
  8
0
  6
CONTINUOUS
 62
       7
  5
B0
 10
-29.00000009
 20
-27.05
 30
0.0
 11
-20.30000033
 21
-27.05
 31
0.0
  0
LINE
  8
0
  6
CONTINUOUS
 62
       7
  5
B1
 10
-29.00000009
 20
-32.95
 30
0.0
 11
-20.30000033
 21
-32.95
 31
0.0
  0
LINE
  8
0
  6
CONTINUOUS
 62
       7
  5
B2
 10
-28.69999967
 20
-27.25
 30
0.0
 11
-28.69999967
 21
-27.05
 31
0.0
  0
LINE
  8
0
  6
CONTINUOUS
 62
       7
  5
B3
 10
-20.74999809
 20
-27.25
 30
0.0
 11
-20.74999809
 21
-27.05
 31
0.0
  0
LINE
  8
0
  6
CONTINUOUS
 62
       7
  5
B4
 10
-28.69999967
 20
-32.75
 30
0.0
 11
-28.69999967
 21
-32.95
 31
0.0
  0
LINE
  8
0
  6
CONTINUOUS
 62
       7
  5
B5
 10
-20.74999809
 20
-32.75
 30
0.0
 11
-20.74999809
 21
-32.95
 31
0.0
  0
LINE
  8
0
  6
CONTINUOUS
 62
       7
  5
B6
 10
-29.00000009
 20
32.95
 30
0.0
 11
-20.30000033
 21
32.95
 31
0.0
  0
LINE
  8
0
  6
CONTINUOUS
 62
       7
  5
B7
 10
-29.00000009
 20
27.05
 30
0.0
 11
-20.30000033
 21
27.05
 31
0.0
  0
LINE
  8
0
  6
CONTINUOUS
 62
       7
  5
B8
 10
-28.69999967
 20
32.75
 30
0.0
 11
-28.69999967
 21
32.95
 31
0.0
  0
LINE
  8
0
  6
CONTINUOUS
 62
       7
  5
B9
 10
-20.75000009
 20
32.75
 30
0.0
 11
-20.75000009
 21
32.95
 31
0.0
  0
LINE
  8
0
  6
CONTINUOUS
 62
       7
  5
BA
 10
-28.69999967
 20
27.25
 30
0.0
 11
-28.69999967
 21
27.05
 31
0.0
  0
LINE
  8
0
  6
CONTINUOUS
 62
       7
  5
BB
 10
-20.75000009
 20
27.25
 30
0.0
 11
-20.75000009
 21
27.05
 31
0.0
  0
LINE
  8
0
  6
CONTINUOUS
 62
       7
  5
BC
 10
45.1
 20
10.0
 30
0.0
 11
45.1
 21
9.42093727
 31
0.0
  0
LINE
  8
0
  6
CONTINUOUS
 62
       7
  5
BD
 10
41.9
 20
10.0
 30
0.0
 11
41.9
 21
9.42093727
 31
0.0
  0
LINE
  8
0
  6
PHANTOM
 62
       2
  5
BE
 10
-29.00000009
 20
4.05682779
 30
0.0
 11
-41.3026737
 21
2.98048333
 31
0.0
  0
LINE
  8
0
  6
CONTINUOUS
 62
       2
  5
BF
 10
-25.76999188
 20
-25.275
 30
0.0
 11
-22.2489651
 21
-25.275
 31
0.0
  0
LINE
  8
0
  6
CONTINUOUS
 62
       2
  5
C0
 10
-25.76999188
 20
-34.725
 30
0.0
 11
-22.2489651
 21
-34.725
 31
0.0
  0
LINE
  8
0
  6
CONTINUOUS
 62
       7
  5
C1
 10
-138.3999939
 20
94.5
 30
0.0
 11
138.3500061
 21
94.5
 31
0.0
  0
LINE
  8
0
  6
CONTINUOUS
 62
       7
  5
C2
 10
138.3500061
 20
94.5
 30
0.0
 11
138.3500061
 21
-94.80000305
 31
0.0
  0
LINE
  8
0
  6
CONTINUOUS
 62
       7
  5
C3
 10
-138.3999939
 20
-94.80000305
 30
0.0
 11
138.3500061
 21
-94.80000305
 31
0.0
  0
LINE
  8
0
  6
CONTINUOUS
 62
       7
  5
C4
 10
-138.3999939
 20
94.5
 30
0.0
 11
-138.3999939
 21
-94.80000305
 31
0.0
  0
TEXT
  8
0
  6
CONTINUOUS
 62
       7
  5
C5
 10
-129.43783175
 20
72.89999998
 30
0.0
 40
3.20000005
  1
MODEL:NHBDS-8
 41
1.05405405
  7
MX_NOTE_STANDARD
 11
-129.43783175
 21
74.5
 31
0.0
 73
       2
  0
ENDSEC
  0
EOF
