  0
SECTION
  2
HEADER
  0
ENDSEC
  0
SECTION
  2
TABLES
  0
TABLE
  2
LTYPE
 70
     4
  0
LTYPE
  2
CONTINUOUS
 70
    64
  3
Solid line
 72
    65
 73
     0
 40
0.000000
  0
LTYPE
  2
DASHED
 70
    64
  3
__ __ __ __ __ __ __ __ __ __ __ __ __ __ __
 72
    65
 73
     2
 40
3.500000
 49
2.000000
 49
-1.500000
  0
LTYPE
  2
CENTER
 70
    64
  3
____ _ ____ _ ____ _ ____ _ ____ _ ____ _ ____
 72
    65
 73
     4
 40
17.500000
 49
13.000000
 49
-1.500000
 49
1.500000
 49
-1.500000
  0
LTYPE
  2
PHANTOM
 70
    64
  3
_____ _ _ _____ _ _ _____ _ _ _____ _ _ ____  
 72
    65
 73
     6
 40
15.500000
 49
8.000000
 49
-1.500000
 49
1.500000
 49
-1.500000
 49
1.500000
 49
-1.500000
  0
LTYPE
  2
DASHED1
 70
    64
  3
__ __ __ __ __ __ __ __ __ __ __ __ __ __ __
 72
    65
 73
     2
 40
1.500000
 49
1.000000
 49
-0.500000
  0
LTYPE
  2
DASHED2
 70
    64
  3
__ __ __ __ __ __ __ __ __ __ __ __ __ __ __
 72
    65
 73
     2
 40
3.500000
 49
2.500000
 49
-1.000000
  0
LTYPE
  2
DASHED3
 70
    64
  3
__ __ __ __ __ __ __ __ __ __ __ __ __ __ __
 72
    65
 73
     2
 40
6.000000
 49
4.000000
 49
-2.000000
  0
LTYPE
  2
DASHED4
 70
    64
  3
__ __ __ __ __ __ __ __ __ __ __ __ __ __ __
 72
    65
 73
     2
 40
12.000000
 49
10.000000
 49
-2.000000
  0
LTYPE
  2
DASHED5
 70
    64
  3
__ __ __ __ __ __ __ __ __ __ __ __ __ __ __
 72
    65
 73
     2
 40
17.000000
 49
15.000000
 49
-2.000000
  0
LTYPE
  2
DASHED6
 70
    64
  3
__ __ __ __ __ __ __ __ __ __ __ __ __ __ __
 72
    65
 73
     2
 40
29.000000
 49
27.000000
 49
-2.000000
  0
LTYPE
  2
PHANTOM1
 70
    64
  3
_____ _ _ _____ _ _ _____ _ _ _____ _ _ ____  
 72
    65
 73
     6
 40
31.000000
 49
25.000000
 49
-1.500000
 49
1.000000
 49
-1.000000
 49
1.000000
 49
-1.500000
  0
LTYPE
  2
PHANTOM2
 70
    64
  3
_____ _ _ _____ _ _ _____ _ _ _____ _ _ ____  
 72
    65
 73
     6
 40
36.000000
 49
27.000000
 49
-1.500000
 49
2.500000
 49
-1.000000
 49
2.500000
 49
-1.500000
  0
LTYPE
  2
PHANTOM3
 70
    64
  3
_____ _ _ _____ _ _ _____ _ _ _____ _ _ ____  
 72
    65
 73
     6
 40
78.000000
 49
64.000000
 49
-2.000000
 49
4.000000
 49
-2.000000
 49
4.000000
 49
-2.000000
  0
LTYPE
  2
CENTER1
 70
    64
  3
____ _ ____ _ ____ _ ____ _ ____ _ ____ _ ____
 72
    65
 73
     4
 40
19.000000
 49
14.000000
 49
-1.000000
 49
3.000000
 49
-1.000000
  0
LTYPE
  2
CENTER2
 70
    64
  3
____ _ ____ _ ____ _ ____ _ ____ _ ____ _ ____
 72
    65
 73
     4
 40
28.500000
 49
25.000000
 49
-1.000000
 49
1.500000
 49
-1.000000
  0
LTYPE
  2
CENTER3
 70
    64
  3
____ _ ____ _ ____ _ ____ _ ____ _ ____ _ ____
 72
    65
 73
     4
 40
31.500000
 49
27.000000
 49
-1.000000
 49
2.500000
 49
-1.000000
  0
LTYPE
  2
CENTER4
 70
    64
  3
____ _ ____ _ ____ _ ____ _ ____ _ ____ _ ____
 72
    65
 73
     4
 40
50.000000
 49
45.000000
 49
-1.000000
 49
3.000000
 49
-1.000000
  0
LTYPE
  2
CENTER5
 70
    64
  3
____ _ ____ _ ____ _ ____ _ ____ _ ____ _ ____
 72
    65
 73
     4
 40
100.000000
 49
92.000000
 49
-2.000000
 49
4.000000
 49
-2.000000
  0
LTYPE
  2
SBK1
 70
    64
  3
______ _ _ _ ______ _ _ _ ______ _ _ _ _____  
 72
    65
 73
     8
 40
60.500000
 49
45.000000
 49
-2.000000
 49
2.500000
 49
-2.000000
 49
2.500000
 49
-2.000000
 49
2.500000
 49
-2.000000
  0
LTYPE
  2
SBK2
 70
    64
  3
______ _ _ _ ______ _ _ _ ______ _ _ _ _____  
 72
    65
 73
     8
 40
84.000000
 49
64.000000
 49
-2.000000
 49
4.000000
 49
-2.000000
 49
4.000000
 49
-2.000000
 49
4.000000
 49
-2.000000
  0
LTYPE
  2
STCH
 70
    64
  3
__ __ __ __ __ __ __ __ __ __ __ __ __ __ __
 72
    65
 73
     2
 40
3.000000
 49
1.000000
 49
-2.000000
  0
LTYPE
  2
MTCH
 70
    64
  3
_____ _ _ _____ _ _ _____ _ _ _____ _ _ ____  
 72
    65
 73
     6
 40
80.000000
 49
66.000000
 49
-2.000000
 49
4.000000
 49
-2.000000
 49
4.000000
 49
-2.000000
  0
ENDTAB
  0
TABLE
  2
LAYER
 70
     1
  0
LAYER
  2
0
 70
     0
 62
     7
  6
CONTINUOUS
  0
ENDTAB
  0
TABLE
  2
STYLE
 70
     1
  0
STYLE
  2
STANDARD
 70
     0
 40
0.000000
 41
1.000000
 50
0.000000
 71
     0
 42
0.200000
  3
txt
  4
BIGFONT
  0
ENDTAB
  0
TABLE
  2
VIEW
 70
     0
  0
ENDTAB
  0
ENDSEC
  0
SECTION
  2
BLOCKS
  0
ENDSEC
  0
SECTION
  2
ENTITIES
  0
LINE
  8
0
 10
-21.500000
 20
10.000000
 11
-21.500000
 21
4.921073
  0
LINE
  8
0
 10
-21.500000
 20
1.999989
 11
-20.000000
 21
1.999989
  0
LINE
  8
0
 10
-21.500000
 20
9.999989
 11
-20.000000
 21
9.999989
  0
LINE
  8
0
 10
-21.500000
 20
4.921073
 11
-21.500000
 21
2.000000
  0
LINE
  8
0
  6
CENTER
 62
     2
 10
-23.691200
 20
4.499988
 11
-19.407112
 21
4.499988
  0
LINE
  8
0
  6
CENTER
 62
     2
 10
-20.700073
 20
0.000000
 11
10.046206
 21
0.000000
  0
LINE
  8
0
 10
-20.000000
 20
-10.000008
 11
8.500006
 21
-10.000008
  0
LINE
  8
0
 10
-20.000000
 20
9.999996
 11
8.500006
 21
9.999996
  0
LINE
  8
0
 10
-20.000000
 20
8.999996
 11
-20.000000
 21
10.000000
  0
LINE
  8
0
 10
-21.500000
 20
-2.000008
 11
-20.000000
 21
-2.000008
  0
LINE
  8
0
 10
-21.500000
 20
-10.000008
 11
-20.000000
 21
-10.000008
  0
LINE
  8
0
  6
CENTER
 62
     2
 10
-24.287132
 20
-4.500000
 11
-19.426506
 21
-4.500000
  0
LINE
  8
0
 10
-23.000000
 20
-3.750000
 11
-21.500000
 21
-3.750000
  0
LINE
  8
0
 10
-23.000000
 20
-5.250000
 11
-21.500000
 21
-5.250000
  0
LINE
  8
0
 10
-23.000000
 20
-5.250000
 11
-23.000000
 21
-3.750000
  0
LINE
  8
0
 10
-21.500000
 20
-2.500008
 11
-20.000000
 21
-2.500008
  0
LINE
  8
0
 10
-21.500000
 20
-9.500008
 11
-20.000000
 21
-9.500008
  0
LINE
  8
0
  6
CENTER
 62
     2
 10
-11.799995
 20
4.553032
 11
-11.799995
 21
1.853737
  0
LINE
  8
0
  6
CENTER
 62
     2
 10
-13.127197
 20
-3.500000
 11
-10.558369
 21
-3.500000
  0
LINE
  8
0
 10
-15.999995
 20
-9.730003
 11
8.500006
 21
-9.730003
  0
LINE
  8
0
 10
-21.500000
 20
-10.000008
 11
-21.500000
 21
-2.000008
  0
LINE
  8
0
 10
-20.000000
 20
-10.000000
 11
-20.000000
 21
8.999992
  0
LINE
  8
0
 10
-15.999996
 20
-10.000000
 11
-15.999996
 21
9.999996
  0
LINE
  8
0
 10
8.500000
 20
-9.999998
 11
8.500000
 21
10.000002
  0
LINE
  8
0
  6
CENTER
 62
     2
 10
-11.499996
 20
5.195168
 11
-11.499996
 21
9.378228
  0
LINE
  8
0
  6
CENTER
 62
     2
 10
-11.549995
 20
-5.265121
 11
-11.549995
 21
-9.833976
  0
LINE
  8
0
  6
CENTER
 62
     2
 10
-14.282593
 20
-7.500000
 11
-9.232800
 21
-7.500000
  0
LINE
  8
0
 10
-23.000000
 20
5.249988
 11
-21.500000
 21
5.249988
  0
LINE
  8
0
 10
-23.000000
 20
3.749988
 11
-21.500000
 21
3.749988
  0
LINE
  8
0
 10
-23.000000
 20
5.249992
 11
-23.000000
 21
3.749992
  0
LINE
  8
0
  6
CENTER
 62
     2
 10
-13.200497
 20
3.499988
 11
-10.429256
 21
3.499988
  0
LINE
  8
0
  6
CENTER
 62
     2
 10
-13.801662
 20
7.500003
 11
-9.473269
 21
7.500003
  0
LINE
  8
0
 10
-15.999997
 20
9.730000
 11
8.500006
 21
9.730000
  0
LINE
  8
0
 10
-21.500000
 20
9.499989
 11
-20.000000
 21
9.499989
  0
LINE
  8
0
 10
-21.500000
 20
2.499989
 11
-20.000000
 21
2.499989
  0
LINE
  8
0
  6
CENTER
 62
     2
 10
-11.799995
 20
-2.096114
 11
-11.799995
 21
-5.099311
  0
LINE
  8
0
 62
     4
 10
8.500000
 20
-5.200012
 11
17.500000
 21
-5.200012
  0
LINE
  8
0
 62
     4
 10
8.500000
 20
-9.800011
 11
17.500000
 21
-9.800011
  0
LINE
  8
0
 62
     4
 10
17.500000
 20
-5.200009
 11
17.500000
 21
-9.800008
  0
LINE
  8
0
 62
     4
 10
8.500000
 20
-8.799988
 11
17.500000
 21
-8.799988
  0
LINE
  8
0
 62
     4
 10
8.500000
 20
-9.350006
 11
17.500000
 21
-9.350006
  0
LINE
  8
0
 62
     4
 10
17.500000
 20
-6.199997
 11
19.249443
 21
-6.199997
  0
LINE
  8
0
 62
     4
 10
17.500000
 20
-8.800003
 11
20.750557
 21
-8.800003
  0
LINE
  8
0
 62
     1
 10
18.749996
 20
-5.334892
 11
21.249994
 21
-9.665019
  0
LINE
  8
0
 62
     4
 10
8.500000
 20
5.200012
 11
17.500000
 21
5.200012
  0
LINE
  8
0
 62
     4
 10
8.500000
 20
9.800011
 11
17.500000
 21
9.800011
  0
LINE
  8
0
 62
     4
 10
17.500000
 20
5.200015
 11
17.500000
 21
9.800014
  0
LINE
  8
0
 62
     4
 10
8.500000
 20
8.799988
 11
17.500000
 21
8.799988
  0
LINE
  8
0
 62
     4
 10
8.500000
 20
9.350006
 11
17.500000
 21
9.350006
  0
LINE
  8
0
 62
     4
 10
17.500000
 20
8.800003
 11
19.249443
 21
8.800003
  0
LINE
  8
0
 62
     4
 10
17.500000
 20
6.199996
 11
20.750557
 21
6.199996
  0
LINE
  8
0
 62
     1
 10
18.750000
 20
9.665105
 11
21.250002
 21
5.334979
  0
LINE
  8
0
  6
CENTER
 62
     2
 10
-102.090698
 20
-4.500000
 11
-98.092667
 21
-4.500000
  0
LINE
  8
0
  6
CENTER
 62
     2
 10
-101.875755
 20
-7.500000
 11
-97.963699
 21
-7.500000
  0
LINE
  8
0
  6
CENTER
 62
     2
 10
-108.119141
 20
0.000000
 11
-91.469849
 21
0.000000
  0
LINE
  8
0
  6
CENTER
 62
     2
 10
-99.999985
 20
-11.586807
 11
-99.999985
 21
10.737656
  0
LINE
  8
0
  6
CENTER
 62
     2
 10
-102.090698
 20
4.500000
 11
-98.092667
 21
4.500000
  0
LINE
  8
0
  6
CENTER
 62
     2
 10
-101.875755
 20
7.500000
 11
-97.963699
 21
7.500000
  0
LINE
  8
0
 10
-93.999985
 20
0.000000
 11
-93.999985
 21
-10.000000
  0
LINE
  8
0
 10
-102.499985
 20
-10.000000
 11
-102.499985
 21
-2.000000
  0
LINE
  8
0
 10
-97.499985
 20
-10.000000
 11
-97.499985
 21
-2.000000
  0
LINE
  8
0
 10
-102.499992
 20
-2.000000
 11
-97.499992
 21
-2.000000
  0
LINE
  8
0
 10
-102.499992
 20
-2.500000
 11
-97.499992
 21
-2.500000
  0
LINE
  8
0
 10
-102.499992
 20
-9.500000
 11
-97.499992
 21
-9.500000
  0
LINE
  8
0
 10
-102.799980
 20
0.000000
 11
-102.799980
 21
-10.000000
  0
LINE
  8
0
 10
-97.199989
 20
0.000000
 11
-97.199989
 21
-10.000000
  0
LINE
  8
0
 10
-105.999985
 20
0.000000
 11
-105.999985
 21
-10.000000
  0
LINE
  8
0
 10
-106.073708
 20
-10.000000
 11
-93.926277
 21
-10.000000
  0
LINE
  8
0
 10
-93.999985
 20
0.000000
 11
-93.999985
 21
10.000015
  0
LINE
  8
0
 10
-93.499985
 20
-9.728317
 11
-93.499985
 21
9.728317
  0
LINE
  8
0
 10
-102.499985
 20
10.000015
 11
-102.499985
 21
2.000000
  0
LINE
  8
0
 10
-97.499985
 20
10.000015
 11
-97.499985
 21
2.000000
  0
LINE
  8
0
 10
-102.499992
 20
2.000000
 11
-97.499992
 21
2.000000
  0
LINE
  8
0
 10
-102.499992
 20
2.500000
 11
-97.499992
 21
2.500000
  0
LINE
  8
0
 10
-102.499992
 20
9.500015
 11
-97.499992
 21
9.500015
  0
LINE
  8
0
 10
-102.799980
 20
0.000000
 11
-102.799980
 21
10.000015
  0
LINE
  8
0
 10
-97.199989
 20
0.000000
 11
-97.199989
 21
10.000015
  0
LINE
  8
0
 10
-106.499985
 20
-9.728317
 11
-106.499985
 21
9.728317
  0
LINE
  8
0
 10
-105.999985
 20
0.000000
 11
-105.999985
 21
10.000015
  0
LINE
  8
0
 10
-106.073692
 20
10.000015
 11
-93.926292
 21
10.000015
  0
LINE
  8
0
  6
CENTER
 62
     2
 10
96.951439
 20
0.000000
 11
83.027672
 21
0.000000
  0
LINE
  8
0
 10
96.073715
 20
10.000008
 11
94.749992
 21
10.000008
  0
LINE
  8
0
  6
CENTER
 62
     2
 10
89.999985
 20
10.459045
 11
89.999985
 21
-10.477753
  0
LINE
  8
0
 10
96.499985
 20
9.728317
 11
96.499985
 21
-9.728310
  0
LINE
  8
0
 10
83.499985
 20
9.728317
 11
83.499985
 21
-9.728302
  0
LINE
  8
0
 10
96.073700
 20
-10.000008
 11
87.749992
 21
-10.000008
  0
LINE
  8
0
  6
CENTER
 62
     2
 10
96.701439
 20
-7.500008
 11
92.250793
 21
-7.500008
  0
LINE
  8
0
  6
CENTER
 62
     2
 10
85.499985
 20
10.000000
 11
85.499985
 21
5.735977
  0
LINE
  8
0
  6
CENTER
 62
     2
 10
94.499985
 20
-5.780914
 11
94.499985
 21
-10.000000
  0
LINE
  8
0
 10
84.899986
 20
-9.420937
 11
84.899986
 21
-10.000000
  0
LINE
  8
0
 10
88.099983
 20
-9.420937
 11
88.099983
 21
-10.000000
  0
LINE
  8
0
 10
95.099983
 20
10.000000
 11
95.099983
 21
9.420944
  0
LINE
  8
0
 10
91.899986
 20
10.000000
 11
91.899986
 21
9.420944
  0
LINE
  8
0
  6
CENTER
 62
     2
 10
87.572243
 20
7.500008
 11
83.635803
 21
7.500008
  0
LINE
  8
0
 62
     4
 10
84.999985
 20
-9.939995
 11
84.999985
 21
-9.489998
  0
LINE
  8
0
 62
     4
 10
84.999992
 20
-9.939995
 11
87.999992
 21
-9.939995
  0
LINE
  8
0
 62
     4
 10
87.999985
 20
-9.939995
 11
87.999985
 21
-9.489998
  0
LINE
  8
0
 62
     4
 10
85.249985
 20
-10.439995
 11
85.249985
 21
-9.939995
  0
LINE
  8
0
 62
     4
 10
87.749985
 20
-10.439995
 11
87.749985
 21
-9.939995
  0
LINE
  8
0
 62
     4
 10
85.249992
 20
-10.439995
 11
87.749992
 21
-10.439995
  0
LINE
  8
0
 62
     4
 10
84.449928
 20
-8.930825
 11
84.449928
 21
-7.390030
  0
LINE
  8
0
 62
     4
 10
88.550041
 20
-8.930847
 11
88.550041
 21
-7.390030
  0
LINE
  8
0
 10
85.249992
 20
-10.000008
 11
83.926292
 21
-10.000008
  0
LINE
  8
0
 62
     4
 10
94.999985
 20
9.940002
 11
94.999985
 21
9.490005
  0
LINE
  8
0
 62
     4
 10
94.999992
 20
9.939995
 11
91.999992
 21
9.939995
  0
LINE
  8
0
 62
     4
 10
91.999985
 20
9.940002
 11
91.999985
 21
9.490005
  0
LINE
  8
0
 62
     4
 10
94.749985
 20
10.440002
 11
94.749985
 21
9.940002
  0
LINE
  8
0
 62
     4
 10
92.249985
 20
10.440002
 11
92.249985
 21
9.940002
  0
LINE
  8
0
 62
     4
 10
94.749992
 20
10.439995
 11
92.249992
 21
10.439995
  0
LINE
  8
0
 62
     4
 10
95.550041
 20
8.930847
 11
95.550041
 21
7.390038
  0
LINE
  8
0
 62
     4
 10
91.449928
 20
8.930825
 11
91.449928
 21
7.390038
  0
LINE
  8
0
 10
92.249992
 20
10.000008
 11
83.926270
 21
10.000008
  0
LINE
  8
0
 10
-16.000002
 20
76.500000
 11
8.499998
 21
76.500000
  0
LINE
  8
0
 10
-15.999998
 20
63.499985
 11
8.500002
 21
63.499985
  0
LINE
  8
0
 10
8.500000
 20
76.499985
 11
8.500000
 21
75.000000
  0
LINE
  8
0
 10
-20.000000
 20
75.999977
 11
-20.000000
 21
72.499985
  0
LINE
  8
0
 10
-21.500000
 20
72.499985
 11
-21.500000
 21
67.499985
  0
LINE
  8
0
 10
-21.500000
 20
72.499985
 11
-17.500000
 21
72.499985
  0
LINE
  8
0
 10
-21.500000
 20
67.499985
 11
-17.500000
 21
67.499985
  0
LINE
  8
0
 10
-20.000002
 20
76.000000
 11
-15.500002
 21
76.000000
  0
LINE
  8
0
 10
-19.999998
 20
63.999985
 11
-15.499998
 21
63.999985
  0
LINE
  8
0
 10
-15.500000
 20
75.999977
 11
-15.500000
 21
63.999985
  0
LINE
  8
0
 10
-17.500000
 20
72.499985
 11
-17.500000
 21
67.499985
  0
LINE
  8
0
 10
-20.000000
 20
67.499985
 11
-20.000000
 21
63.999985
  0
LINE
  8
0
 10
-23.000000
 20
69.249985
 11
-21.500000
 21
69.249985
  0
LINE
  8
0
 10
-23.000000
 20
70.749985
 11
-21.500000
 21
70.749985
  0
LINE
  8
0
 10
-23.000000
 20
70.749985
 11
-23.000000
 21
69.249985
  0
LINE
  8
0
  6
CENTER
 62
     2
 10
-24.172935
 20
69.999985
 11
9.628525
 21
69.999985
  0
LINE
  8
0
  6
CENTER
 62
     2
 10
-6.504768
 20
71.245468
 11
-6.504768
 21
66.614220
  0
LINE
  8
0
  6
CENTER
 62
     2
 10
-8.829277
 20
68.864914
 11
-4.173172
 21
68.864914
  0
LINE
  8
0
  6
CENTER
 62
     2
 10
-11.443466
 20
73.499985
 11
23.000000
 21
73.499985
  0
LINE
  8
0
 10
-9.500000
 20
71.899979
 11
8.500000
 21
71.899979
  0
LINE
  8
0
 10
-9.500002
 20
75.099976
 11
8.499998
 21
75.099976
  0
LINE
  8
0
  6
CENTER
 62
     2
 10
-9.500000
 20
71.899979
 11
-9.500000
 21
75.099983
  0
LINE
  8
0
 10
-16.000002
 20
76.069992
 11
8.499998
 21
76.069992
  0
LINE
  8
0
 10
-15.999998
 20
63.929993
 11
8.500002
 21
63.929993
  0
LINE
  8
0
 10
-16.000000
 20
76.499977
 11
-16.000000
 21
75.999977
  0
LINE
  8
0
 10
-16.000000
 20
63.999985
 11
-16.000000
 21
63.499985
  0
LINE
  8
0
  6
CENTER
 62
     2
 10
-19.699997
 20
72.499985
 11
-19.699997
 21
70.515045
  0
LINE
  8
0
  6
CENTER
 62
     2
 10
-21.007713
 20
71.499985
 11
-18.484085
 21
71.499985
  0
LINE
  8
0
  6
CENTER
 62
     2
 10
-20.960098
 20
68.499985
 11
-18.531708
 21
68.499985
  0
LINE
  8
0
  6
CENTER
 62
     2
 10
-19.699997
 20
69.467499
 11
-19.699997
 21
67.499985
  0
LINE
  8
0
 10
-9.699997
 20
71.912537
 11
-9.699997
 21
72.399979
  0
LINE
  8
0
 10
-10.661896
 20
72.399979
 11
-9.500000
 21
72.399979
  0
LINE
  8
0
 62
     4
 10
-4.500000
 20
71.999985
 11
17.500000
 21
71.999985
  0
LINE
  8
0
 62
     4
 10
-4.500002
 20
74.999985
 11
17.500000
 21
74.999985
  0
LINE
  8
0
 62
     4
 10
8.500000
 20
71.449982
 11
17.500000
 21
71.449982
  0
LINE
  8
0
 62
     4
 10
8.499998
 20
75.549988
 11
17.500000
 21
75.549988
  0
LINE
  8
0
 62
     4
 10
-4.500000
 20
75.099991
 11
-4.500000
 21
71.899994
  0
LINE
  8
0
 62
     4
 10
17.500000
 20
75.550003
 11
17.500000
 21
71.449997
  0
LINE
  8
0
 62
     4
 10
-3.534238
 20
72.797974
 11
-1.797964
 21
74.534248
  0
LINE
  8
0
 62
     4
 10
-3.176286
 20
72.448769
 11
-1.448739
 21
74.176315
  0
LINE
  8
0
 62
     4
 10
17.500000
 20
74.799988
 11
19.249451
 21
74.799988
  0
LINE
  8
0
 62
     4
 10
17.500000
 20
72.199982
 11
20.750549
 21
72.199982
  0
LINE
  8
0
 62
     1
 10
18.750006
 20
75.665115
 11
21.250004
 21
71.334999
  0
LINE
  8
0
 10
8.500000
 20
72.000000
 11
8.500000
 21
63.499992
  0
LINE
  8
0
  6
CENTER
 62
     2
 10
1.675491
 20
68.799988
 11
6.331596
 21
68.799988
  0
LINE
  8
0
  6
CENTER
 62
     2
 10
4.000000
 20
71.180550
 11
4.000000
 21
66.549301
  0
LINE
  8
0
 10
-20.000000
 20
-76.000008
 11
-20.000000
 21
-72.500008
  0
LINE
  8
0
 10
8.500000
 20
-76.500000
 11
8.500000
 21
-67.959999
  0
LINE
  8
0
 10
-21.500000
 20
-72.500008
 11
-21.500000
 21
-67.500000
  0
LINE
  8
0
 10
-16.000000
 20
-76.500008
 11
-16.000000
 21
-76.000008
  0
LINE
  8
0
  6
CENTER
 62
     2
 10
-23.290909
 20
-69.999992
 11
9.017349
 21
-69.999992
  0
LINE
  8
0
 10
-16.000000
 20
-76.499992
 11
8.500008
 21
-76.499992
  0
LINE
  8
0
 10
-16.000000
 20
-63.499992
 11
8.500008
 21
-63.499992
  0
LINE
  8
0
 10
-20.000000
 20
-63.999992
 11
-15.500000
 21
-63.999992
  0
LINE
  8
0
 10
-20.000000
 20
-75.999992
 11
-15.500000
 21
-75.999992
  0
LINE
  8
0
 10
-21.500000
 20
-67.499992
 11
-17.699997
 21
-67.499992
  0
LINE
  8
0
 10
-21.500000
 20
-72.499992
 11
-17.699997
 21
-72.499992
  0
LINE
  8
0
 10
-15.500000
 20
-76.000008
 11
-15.500000
 21
-64.000000
  0
LINE
  8
0
 10
-16.000000
 20
-64.000000
 11
-16.000000
 21
-63.500000
  0
LINE
  8
0
 10
-16.000000
 20
-63.929993
 11
8.500008
 21
-63.929993
  0
LINE
  8
0
 10
-16.000000
 20
-76.069992
 11
8.500008
 21
-76.069992
  0
LINE
  8
0
  6
CENTER
 62
     2
 10
-11.852112
 20
-66.459991
 11
23.000008
 21
-66.459991
  0
LINE
  8
0
  6
CENTER
 62
     2
 10
-9.500000
 20
-68.059998
 11
-9.500000
 21
-64.860001
  0
LINE
  8
0
 10
-9.500000
 20
-64.859993
 11
8.500008
 21
-64.859993
  0
LINE
  8
0
 10
-9.500000
 20
-68.059990
 11
8.500008
 21
-68.059990
  0
LINE
  8
0
  6
CENTER
 62
     2
 10
-6.871468
 20
-71.499992
 11
-2.433449
 21
-71.499992
  0
LINE
  8
0
  6
CENTER
 62
     2
 10
-4.500000
 20
-73.716713
 11
-4.500000
 21
-69.709564
  0
LINE
  8
0
  6
CENTER
 62
     2
 10
3.500000
 20
-73.731438
 11
3.500000
 21
-69.173309
  0
LINE
  8
0
  6
CENTER
 62
     2
 10
1.442879
 20
-71.499992
 11
5.487282
 21
-71.499992
  0
LINE
  8
0
 10
-23.000000
 20
-69.249992
 11
-21.500000
 21
-69.249992
  0
LINE
  8
0
 10
-23.000000
 20
-70.749992
 11
-21.500000
 21
-70.749992
  0
LINE
  8
0
 10
-23.000000
 20
-70.750000
 11
-23.000000
 21
-69.250000
  0
LINE
  8
0
 10
-17.699997
 20
-67.500000
 11
-17.699997
 21
-72.500008
  0
LINE
  8
0
 10
-20.000000
 20
-67.500000
 11
-20.000000
 21
-64.000000
  0
LINE
  8
0
  6
CENTER
 62
     2
 10
-19.699997
 20
-72.500008
 11
-19.699997
 21
-70.594391
  0
LINE
  8
0
  6
CENTER
 62
     2
 10
-20.874557
 20
-71.499992
 11
-18.581345
 21
-71.499992
  0
LINE
  8
0
  6
CENTER
 62
     2
 10
-20.841324
 20
-68.499992
 11
-18.548111
 21
-68.499992
  0
LINE
  8
0
  6
CENTER
 62
     2
 10
-19.699997
 20
-69.464401
 11
-19.699997
 21
-67.500000
  0
LINE
  8
0
 10
-9.699997
 20
-67.559998
 11
-9.699997
 21
-68.059998
  0
LINE
  8
0
 10
-10.661896
 20
-67.559990
 11
-9.500000
 21
-67.559990
  0
LINE
  8
0
 62
     4
 10
-4.500000
 20
-67.959991
 11
17.500000
 21
-67.959991
  0
LINE
  8
0
 62
     4
 10
-4.500000
 20
-64.959991
 11
17.500000
 21
-64.959991
  0
LINE
  8
0
 62
     4
 10
8.500000
 20
-68.509995
 11
17.500000
 21
-68.509995
  0
LINE
  8
0
 62
     4
 10
8.500000
 20
-64.409988
 11
17.500000
 21
-64.409988
  0
LINE
  8
0
 62
     4
 10
-4.500000
 20
-64.860001
 11
-4.500000
 21
-68.059998
  0
LINE
  8
0
 62
     4
 10
17.499996
 20
-64.409996
 11
17.499996
 21
-68.510002
  0
LINE
  8
0
 62
     4
 10
-3.534224
 20
-67.162033
 11
-1.797953
 21
-65.425758
  0
LINE
  8
0
 62
     4
 10
-3.176278
 20
-67.511238
 11
-1.448728
 21
-65.783691
  0
LINE
  8
0
 62
     4
 10
17.500000
 20
-65.159988
 11
19.249443
 21
-65.159988
  0
LINE
  8
0
 62
     4
 10
17.500000
 20
-67.759995
 11
20.750557
 21
-67.759995
  0
LINE
  8
0
 62
     1
 10
18.749968
 20
-64.294891
 11
21.249969
 21
-68.625015
  0
LINE
  8
0
 10
8.500000
 20
-64.959999
 11
8.500000
 21
-63.500000
  0
LINE
  8
0
 10
-194.250000
 20
132.600006
 11
194.800003
 21
132.600006
  0
LINE
  8
0
 10
194.800003
 20
132.600006
 11
194.800003
 21
-133.500000
  0
LINE
  8
0
 10
-194.250000
 20
132.600006
 11
-194.250000
 21
-133.500000
  0
LINE
  8
0
 10
-194.250000
 20
-133.500000
 11
194.800003
 21
-133.500000
  0
LINE
  8
0
 10
109.800003
 20
-118.500000
 11
109.800003
 21
-133.500000
  0
LINE
  8
0
 10
109.800003
 20
-118.500000
 11
194.800003
 21
-118.500000
  0
LINE
  8
0
 10
109.800003
 20
132.600006
 11
109.800003
 21
117.600006
  0
LINE
  8
0
 10
109.800003
 20
117.600006
 11
194.800003
 21
117.600006
  0
LINE
  8
0
 10
-194.250000
 20
117.600006
 11
-109.250000
 21
117.600006
  0
LINE
  8
0
 10
-109.250000
 20
132.600006
 11
-109.250000
 21
117.600006
  0
CIRCLE
  8
0
 10
-11.799995
 20
-3.499999
 40
0.750000
  0
CIRCLE
  8
0
 10
-11.549994
 20
-7.500000
 40
1.600000
  0
CIRCLE
  8
0
 10
-11.799995
 20
3.499989
 40
0.750000
  0
CIRCLE
  8
0
 10
-11.499997
 20
7.500004
 40
1.600000
  0
CIRCLE
  8
0
 10
-99.999992
 20
-7.500000
 40
0.800000
  0
CIRCLE
  8
0
 10
-99.999992
 20
7.500000
 40
0.800000
  0
CIRCLE
  8
0
 62
     2
 10
-99.999992
 20
7.500000
 40
1.000000
  0
ARC
  8
0
 10
-99.999992
 20
0.000000
 40
11.699998
 50
56.251049
 51
58.726788
  0
ARC
  8
0
 10
-99.999992
 20
0.000000
 40
11.700000
 50
121.273178
 51
123.748947
  0
CIRCLE
  8
0
 10
-99.999992
 20
-4.500000
 40
0.750000
  0
CIRCLE
  8
0
 62
     2
 10
-99.999992
 20
-7.500000
 40
1.000000
  0
ARC
  8
0
 10
-99.999992
 20
0.000000
 40
11.700001
 50
236.251007
 51
238.726700
  0
ARC
  8
0
 10
-99.999992
 20
0.000000
 40
11.699999
 50
301.273315
 51
303.748993
  0
CIRCLE
  8
0
 10
-99.999992
 20
4.500000
 40
0.750000
  0
ARC
  8
0
 10
86.499992
 20
-7.500008
 40
2.500000
 50
306.869904
 51
0.000011
  0
CIRCLE
  8
0
 62
     4
 10
93.499992
 20
7.640007
 40
1.300000
  0
ARC
  8
0
 62
     4
 10
86.499992
 20
-7.390038
 40
2.050003
 50
359.999939
 51
179.999954
  0
ARC
  8
0
 10
93.499992
 20
7.500008
 40
2.500000
 50
126.869888
 51
0.000011
  0
ARC
  8
0
 62
     4
 10
93.499992
 20
7.390038
 40
2.050003
 50
179.999893
 51
0.000013
  0
CIRCLE
  8
0
 62
     2
 10
85.499992
 20
7.500007
 40
1.250000
  0
CIRCLE
  8
0
 62
     2
 10
94.499992
 20
-7.500007
 40
1.250000
  0
ARC
  8
0
 10
86.499992
 20
-7.500008
 40
2.500000
 50
0.000011
 51
233.130096
  0
ARC
  8
0
 10
93.499992
 20
7.500008
 40
2.500000
 50
0.000011
 51
53.130108
  0
CIRCLE
  8
0
 10
85.499992
 20
7.500007
 40
1.000000
  0
CIRCLE
  8
0
 10
94.499992
 20
-7.500007
 40
1.000000
  0
ARC
  8
0
 10
89.999992
 20
0.000008
 40
11.699998
 50
236.250961
 51
238.726730
  0
ARC
  8
0
 10
89.999992
 20
0.000008
 40
11.699999
 50
301.273224
 51
303.748932
  0
ARC
  8
0
 10
89.999992
 20
0.000008
 40
11.699998
 50
56.251049
 51
58.726654
  0
ARC
  8
0
 10
89.999992
 20
0.000008
 40
11.700001
 50
121.273346
 51
123.748993
  0
CIRCLE
  8
0
 10
89.999992
 20
0.000008
 40
4.500000
  0
CIRCLE
  8
0
 62
     4
 10
86.499992
 20
-7.640007
 40
1.300000
  0
CIRCLE
  8
0
 10
-6.504768
 20
68.864914
 40
1.250000
  0
CIRCLE
  8
0
 10
4.000000
 20
68.799995
 40
1.250000
  0
CIRCLE
  8
0
 10
-19.699997
 20
68.499992
 40
0.850000
  0
CIRCLE
  8
0
 62
     4
 10
-2.499985
 20
73.500000
 40
1.400000
  0
CIRCLE
  8
0
 62
     4
 10
-2.499985
 20
73.500000
 40
1.250000
  0
CIRCLE
  8
0
 62
     2
 10
-6.504768
 20
68.864922
 40
1.500000
  0
CIRCLE
  8
0
 62
     2
 10
4.000000
 20
68.800003
 40
1.500000
  0
CIRCLE
  8
0
 10
-6.504768
 20
68.799995
 40
3.000000
  0
CIRCLE
  8
0
 10
4.000000
 20
68.800003
 40
3.000000
  0
ARC
  8
0
 10
-9.500001
 20
73.499992
 40
1.599998
 50
89.999969
 51
270.000000
  0
CIRCLE
  8
0
 10
-19.699997
 20
71.499992
 40
0.850000
  0
CIRCLE
  8
0
 10
3.500000
 20
-71.500000
 40
1.250000
  0
CIRCLE
  8
0
 10
-4.500000
 20
-71.500000
 40
1.250000
  0
CIRCLE
  8
0
 10
-19.699997
 20
-71.500000
 40
0.850000
  0
CIRCLE
  8
0
 62
     4
 10
-2.499985
 20
-66.459999
 40
1.400000
  0
CIRCLE
  8
0
 62
     4
 10
-2.499985
 20
-66.459999
 40
1.250000
  0
ARC
  8
0
 10
-9.500000
 20
-66.459999
 40
1.599998
 50
89.999969
 51
270.000000
  0
CIRCLE
  8
0
 62
     2
 10
-4.500000
 20
-71.500000
 40
1.500000
  0
CIRCLE
  8
0
 62
     2
 10
3.500000
 20
-71.500000
 40
1.500000
  0
CIRCLE
  8
0
 10
-19.699997
 20
-68.500000
 40
0.850000
  0
TEXT
  8
0
 10
133.907150
 20
122.050003
 40
4.500000
  1
Ver. 1.0
 50
0.000000
 41
1.052631
 51
0.000000
  7
STANDARD
  0
TEXT
  8
0
 10
113.700279
 20
-130.669998
 40
6.300000
  1
KOGANEI CORP.
 50
0.000000
 41
1.052632
 51
0.000000
  7
STANDARD
  0
TEXT
  8
0
 10
-170.142654
 20
122.050003
 40
4.500000
  1
AIR HAND
 50
0.000000
 41
1.052632
 51
0.000000
  7
STANDARD
  0
TEXT
  8
0
 10
-159.892654
 20
97.550003
 40
4.500000
  1
NHBRPG-8-ZE135A2
 50
0.000000
 41
1.052632
 51
0.000000
  7
STANDARD
  0
TEXT
  8
0
 10
-186.892654
 20
104.550003
 40
4.500000
  1
MODEL:NHBDPG-8-ZE135A2
 50
0.000000
 41
1.052632
 51
0.000000
  7
STANDARD
  0
ENDSEC
  0
EOF
