  0
SECTION
  2
HEADER
  0
ENDSEC
  0
SECTION
  2
TABLES
  0
TABLE
  2
LTYPE
 70
     4
  0
LTYPE
  2
CONTINUOUS
 70
    64
  3
Solid line
 72
    65
 73
     0
 40
0.000000
  0
LTYPE
  2
DASHED
 70
    64
  3
__ __ __ __ __ __ __ __ __ __ __ __ __ __ __
 72
    65
 73
     2
 40
3.500000
 49
2.000000
 49
-1.500000
  0
LTYPE
  2
CENTER
 70
    64
  3
____ _ ____ _ ____ _ ____ _ ____ _ ____ _ ____
 72
    65
 73
     4
 40
17.500000
 49
13.000000
 49
-1.500000
 49
1.500000
 49
-1.500000
  0
LTYPE
  2
PHANTOM
 70
    64
  3
_____ _ _ _____ _ _ _____ _ _ _____ _ _ ____  
 72
    65
 73
     6
 40
15.500000
 49
8.000000
 49
-1.500000
 49
1.500000
 49
-1.500000
 49
1.500000
 49
-1.500000
  0
LTYPE
  2
DASHED1
 70
    64
  3
__ __ __ __ __ __ __ __ __ __ __ __ __ __ __
 72
    65
 73
     2
 40
1.500000
 49
1.000000
 49
-0.500000
  0
LTYPE
  2
DASHED2
 70
    64
  3
__ __ __ __ __ __ __ __ __ __ __ __ __ __ __
 72
    65
 73
     2
 40
3.500000
 49
2.500000
 49
-1.000000
  0
LTYPE
  2
DASHED3
 70
    64
  3
__ __ __ __ __ __ __ __ __ __ __ __ __ __ __
 72
    65
 73
     2
 40
6.000000
 49
4.000000
 49
-2.000000
  0
LTYPE
  2
DASHED4
 70
    64
  3
__ __ __ __ __ __ __ __ __ __ __ __ __ __ __
 72
    65
 73
     2
 40
12.000000
 49
10.000000
 49
-2.000000
  0
LTYPE
  2
DASHED5
 70
    64
  3
__ __ __ __ __ __ __ __ __ __ __ __ __ __ __
 72
    65
 73
     2
 40
17.000000
 49
15.000000
 49
-2.000000
  0
LTYPE
  2
DASHED6
 70
    64
  3
__ __ __ __ __ __ __ __ __ __ __ __ __ __ __
 72
    65
 73
     2
 40
29.000000
 49
27.000000
 49
-2.000000
  0
LTYPE
  2
PHANTOM1
 70
    64
  3
_____ _ _ _____ _ _ _____ _ _ _____ _ _ ____  
 72
    65
 73
     6
 40
31.000000
 49
25.000000
 49
-1.500000
 49
1.000000
 49
-1.000000
 49
1.000000
 49
-1.500000
  0
LTYPE
  2
PHANTOM2
 70
    64
  3
_____ _ _ _____ _ _ _____ _ _ _____ _ _ ____  
 72
    65
 73
     6
 40
36.000000
 49
27.000000
 49
-1.500000
 49
2.500000
 49
-1.000000
 49
2.500000
 49
-1.500000
  0
LTYPE
  2
PHANTOM3
 70
    64
  3
_____ _ _ _____ _ _ _____ _ _ _____ _ _ ____  
 72
    65
 73
     6
 40
78.000000
 49
64.000000
 49
-2.000000
 49
4.000000
 49
-2.000000
 49
4.000000
 49
-2.000000
  0
LTYPE
  2
CENTER1
 70
    64
  3
____ _ ____ _ ____ _ ____ _ ____ _ ____ _ ____
 72
    65
 73
     4
 40
19.000000
 49
14.000000
 49
-1.000000
 49
3.000000
 49
-1.000000
  0
LTYPE
  2
CENTER2
 70
    64
  3
____ _ ____ _ ____ _ ____ _ ____ _ ____ _ ____
 72
    65
 73
     4
 40
28.500000
 49
25.000000
 49
-1.000000
 49
1.500000
 49
-1.000000
  0
LTYPE
  2
CENTER3
 70
    64
  3
____ _ ____ _ ____ _ ____ _ ____ _ ____ _ ____
 72
    65
 73
     4
 40
31.500000
 49
27.000000
 49
-1.000000
 49
2.500000
 49
-1.000000
  0
LTYPE
  2
CENTER4
 70
    64
  3
____ _ ____ _ ____ _ ____ _ ____ _ ____ _ ____
 72
    65
 73
     4
 40
50.000000
 49
45.000000
 49
-1.000000
 49
3.000000
 49
-1.000000
  0
LTYPE
  2
CENTER5
 70
    64
  3
____ _ ____ _ ____ _ ____ _ ____ _ ____ _ ____
 72
    65
 73
     4
 40
100.000000
 49
92.000000
 49
-2.000000
 49
4.000000
 49
-2.000000
  0
LTYPE
  2
SBK1
 70
    64
  3
______ _ _ _ ______ _ _ _ ______ _ _ _ _____  
 72
    65
 73
     8
 40
60.500000
 49
45.000000
 49
-2.000000
 49
2.500000
 49
-2.000000
 49
2.500000
 49
-2.000000
 49
2.500000
 49
-2.000000
  0
LTYPE
  2
SBK2
 70
    64
  3
______ _ _ _ ______ _ _ _ ______ _ _ _ _____  
 72
    65
 73
     8
 40
84.000000
 49
64.000000
 49
-2.000000
 49
4.000000
 49
-2.000000
 49
4.000000
 49
-2.000000
 49
4.000000
 49
-2.000000
  0
LTYPE
  2
STCH
 70
    64
  3
__ __ __ __ __ __ __ __ __ __ __ __ __ __ __
 72
    65
 73
     2
 40
3.000000
 49
1.000000
 49
-2.000000
  0
LTYPE
  2
MTCH
 70
    64
  3
_____ _ _ _____ _ _ _____ _ _ _____ _ _ ____  
 72
    65
 73
     6
 40
80.000000
 49
66.000000
 49
-2.000000
 49
4.000000
 49
-2.000000
 49
4.000000
 49
-2.000000
  0
ENDTAB
  0
TABLE
  2
LAYER
 70
     1
  0
LAYER
  2
0
 70
     0
 62
     7
  6
CONTINUOUS
  0
ENDTAB
  0
TABLE
  2
STYLE
 70
     1
  0
STYLE
  2
STANDARD
 70
     0
 40
0.000000
 41
1.000000
 50
0.000000
 71
     0
 42
0.200000
  3
txt
  4
BIGFONT
  0
ENDTAB
  0
TABLE
  2
VIEW
 70
     0
  0
ENDTAB
  0
ENDSEC
  0
SECTION
  2
BLOCKS
  0
ENDSEC
  0
SECTION
  2
ENTITIES
  0
LINE
  8
0
 10
33.999996
 20
-22.500004
 11
33.999996
 21
22.499996
  0
LINE
  8
0
  6
CENTER
 62
     2
 10
-37.302841
 20
0.000000
 11
39.613350
 21
0.000000
  0
LINE
  8
0
 10
-10.000002
 20
31.000000
 11
-10.000002
 21
20.493904
  0
LINE
  8
0
 10
-30.000000
 20
31.000000
 11
-30.000000
 21
-31.000000
  0
LINE
  8
0
 10
-10.000002
 20
22.499998
 11
34.000000
 21
22.499998
  0
LINE
  8
0
  6
CENTER
 62
     2
 10
-39.043159
 20
15.000001
 11
-27.138947
 21
15.000001
  0
LINE
  8
0
  6
CENTER
 62
     2
 10
12.999996
 20
27.606192
 11
12.999996
 21
19.255632
  0
LINE
  8
0
  6
CENTER
 62
     2
 10
-5.700003
 20
14.323563
 11
-5.700003
 21
7.306515
  0
LINE
  8
0
  6
CENTER
 62
     2
 10
6.511452
 20
8.499997
 11
19.529922
 21
8.499997
  0
LINE
  8
0
  6
CENTER
 62
     2
 10
-9.334562
 20
11.000001
 11
-1.947495
 21
11.000001
  0
LINE
  8
0
 10
-33.000000
 20
-29.999998
 11
-33.000000
 21
-8.000000
  0
LINE
  8
0
 10
-10.000002
 20
-31.000000
 11
-10.000002
 21
-20.493904
  0
LINE
  8
0
 10
-36.000000
 20
-16.999998
 11
-36.000000
 21
-12.999999
  0
LINE
  8
0
 10
-23.000000
 20
-31.000000
 11
-23.000000
 21
31.000000
  0
LINE
  8
0
 10
-10.000002
 20
-22.499998
 11
33.999996
 21
-22.499998
  0
LINE
  8
0
  6
CENTER
 62
     2
 10
-39.043159
 20
-14.999999
 11
-27.697695
 21
-14.999999
  0
LINE
  8
0
 10
-35.500000
 20
-17.499998
 11
-33.000000
 21
-17.499998
  0
LINE
  8
0
 10
-35.500000
 20
-12.499999
 11
-33.000000
 21
-12.499999
  0
LINE
  8
0
 10
-30.000002
 20
-30.999998
 11
-10.000002
 21
-30.999998
  0
LINE
  8
0
  6
CENTER
 62
     2
 10
26.499996
 20
19.380070
 11
26.499996
 21
26.208172
  0
LINE
  8
0
 10
-23.000002
 20
-29.999998
 11
-10.000002
 21
-29.999998
  0
LINE
  8
0
 10
-10.000000
 20
-20.493902
 11
34.000000
 21
-20.493902
  0
LINE
  8
0
 10
-10.000004
 20
20.493902
 11
34.000000
 21
20.493902
  0
LINE
  8
0
  6
CENTER
 62
     2
 10
20.431839
 20
-8.499999
 11
32.418404
 21
-8.499999
  0
LINE
  8
0
  6
CENTER
 62
     2
 10
-19.151690
 20
19.999998
 11
-12.740273
 21
19.999998
  0
LINE
  8
0
  6
CENTER
 62
     2
 10
3.999996
 20
18.417318
 11
3.999996
 21
11.309011
  0
LINE
  8
0
  6
CENTER
 62
     2
 10
0.164768
 20
14.999997
 11
7.887764
 21
14.999997
  0
LINE
  8
0
  6
CENTER
 62
     2
 10
-16.000004
 20
23.156197
 11
-16.000004
 21
16.744781
  0
LINE
  8
0
 10
-33.000000
 20
30.000002
 11
-33.000000
 21
7.999999
  0
LINE
  8
0
 10
-35.500000
 20
17.499998
 11
-33.000000
 21
17.499998
  0
LINE
  8
0
 10
-36.000000
 20
17.000002
 11
-36.000000
 21
13.000003
  0
LINE
  8
0
 10
-35.500000
 20
12.500001
 11
-33.000000
 21
12.500001
  0
LINE
  8
0
 10
-35.500019
 20
17.500027
 11
-36.000019
 21
17.000025
  0
LINE
  8
0
 10
-36.000011
 20
12.999997
 11
-35.500008
 21
12.499999
  0
LINE
  8
0
 10
-35.500008
 20
-12.499994
 11
-36.000008
 21
-12.999992
  0
LINE
  8
0
 10
-36.000019
 20
-17.000017
 11
-35.500019
 21
-17.500017
  0
LINE
  8
0
 10
-35.500000
 20
17.500002
 11
-35.500000
 21
12.500003
  0
LINE
  8
0
 10
-35.500000
 20
-12.499999
 11
-35.500000
 21
-17.499998
  0
LINE
  8
0
 10
-33.000004
 20
-29.999998
 11
-30.000002
 21
-29.999998
  0
LINE
  8
0
 10
-33.000000
 20
-8.000000
 11
-30.000002
 21
-8.000000
  0
LINE
  8
0
 10
-33.000000
 20
7.999998
 11
-30.000002
 21
7.999998
  0
LINE
  8
0
 10
-32.032387
 20
-7.000000
 11
-32.032387
 21
-8.000000
  0
LINE
  8
0
 10
-32.032387
 20
7.999999
 11
-32.032387
 21
6.999998
  0
LINE
  8
0
 10
-32.032387
 20
-29.999998
 11
-32.032387
 21
-30.999998
  0
LINE
  8
0
 10
-30.000002
 20
30.999998
 11
-10.000002
 21
30.999998
  0
LINE
  8
0
 10
-22.999998
 20
29.999998
 11
-10.000002
 21
29.999998
  0
LINE
  8
0
 10
-32.999996
 20
29.999998
 11
-30.000002
 21
29.999998
  0
LINE
  8
0
 10
-32.032387
 20
31.000002
 11
-32.032387
 21
30.000002
  0
LINE
  8
0
 10
24.000004
 20
25.499998
 11
26.100002
 21
25.499998
  0
LINE
  8
0
 10
29.999996
 20
24.499996
 11
29.999996
 21
22.499996
  0
LINE
  8
0
 10
22.999996
 20
24.499998
 11
22.999996
 21
22.499998
  0
LINE
  8
0
 10
26.100002
 20
23.999998
 11
26.900005
 21
23.999998
  0
LINE
  8
0
 10
26.899998
 20
25.499996
 11
26.899998
 21
23.999996
  0
LINE
  8
0
 10
26.099995
 20
25.499996
 11
26.099995
 21
23.999996
  0
LINE
  8
0
 10
26.900005
 20
25.499998
 11
29.000004
 21
25.499998
  0
LINE
  8
0
  6
CENTER
 62
     2
 10
26.499996
 20
-14.535423
 11
26.499996
 21
-2.628855
  0
LINE
  8
0
 10
-32.032383
 20
30.999998
 11
-30.000002
 21
30.999998
  0
LINE
  8
0
 10
-32.032387
 20
6.999998
 11
-30.000002
 21
6.999998
  0
LINE
  8
0
 10
-32.032387
 20
-7.000000
 11
-30.000002
 21
-7.000000
  0
LINE
  8
0
 10
-32.032391
 20
-30.999998
 11
-30.000002
 21
-30.999998
  0
LINE
  8
0
 10
10.500004
 20
25.499998
 11
12.600002
 21
25.499998
  0
LINE
  8
0
 10
16.499996
 20
24.499998
 11
16.499996
 21
22.499998
  0
LINE
  8
0
 10
9.499996
 20
24.500000
 11
9.499996
 21
22.500000
  0
LINE
  8
0
 10
12.600002
 20
23.999998
 11
13.400005
 21
23.999998
  0
LINE
  8
0
 10
13.399998
 20
25.499998
 11
13.399998
 21
23.999998
  0
LINE
  8
0
 10
12.599995
 20
25.499998
 11
12.599995
 21
23.999998
  0
LINE
  8
0
 10
13.400005
 20
25.499998
 11
15.500004
 21
25.499998
  0
LINE
  8
0
  6
CENTER
 62
     2
 10
3.999996
 20
-18.417322
 11
3.999996
 21
-11.309015
  0
LINE
  8
0
  6
CENTER
 62
     2
 10
0.164768
 20
-14.999999
 11
7.887764
 21
-14.999999
  0
LINE
  8
0
  6
CENTER
 62
     2
 10
-9.334566
 20
-10.999999
 11
-1.947498
 21
-10.999999
  0
LINE
  8
0
  6
CENTER
 62
     2
 10
-5.700003
 20
-14.323565
 11
-5.700003
 21
-7.306518
  0
LINE
  8
0
  6
CENTER
 62
     2
 10
-19.151690
 20
-19.999998
 11
-12.740273
 21
-19.999998
  0
LINE
  8
0
  6
CENTER
 62
     2
 10
-16.000004
 20
-23.156197
 11
-16.000004
 21
-16.744781
  0
LINE
  8
0
 62
     4
 10
34.000000
 20
-12.700011
 11
36.000000
 21
-12.700011
  0
LINE
  8
0
 62
     4
 10
34.000000
 20
-17.300009
 11
36.000000
 21
-17.300009
  0
LINE
  8
0
 62
     4
 10
35.999992
 20
-12.700017
 11
35.999992
 21
-17.300013
  0
LINE
  8
0
 62
     4
 10
34.000000
 20
-16.299986
 11
36.000000
 21
-16.299986
  0
LINE
  8
0
 62
     4
 10
34.000000
 20
-16.850004
 11
36.000000
 21
-16.850004
  0
LINE
  8
0
 62
     4
 10
36.000000
 20
-13.699996
 11
43.249443
 21
-13.699996
  0
LINE
  8
0
 62
     4
 10
36.000000
 20
-16.300001
 11
44.750557
 21
-16.300001
  0
LINE
  8
0
 62
     1
 10
42.750000
 20
-12.834903
 11
45.249996
 21
-17.165030
  0
LINE
  8
0
 62
     1
 10
42.750015
 20
17.165102
 11
45.250015
 21
12.834973
  0
LINE
  8
0
 62
     4
 10
34.000000
 20
16.300001
 11
43.249443
 21
16.300001
  0
LINE
  8
0
 62
     4
 10
34.000000
 20
13.699996
 11
44.750557
 21
13.699996
  0
LINE
  8
0
  6
CENTER
 62
     2
 10
12.999996
 20
15.048391
 11
12.999996
 21
2.388778
  0
LINE
  8
0
 10
-143.964249
 20
30.999994
 11
-116.035759
 21
30.999994
  0
LINE
  8
0
  6
CENTER
 62
     2
 10
-133.821457
 20
22.999994
 11
-126.318047
 21
22.999994
  0
LINE
  8
0
  6
CENTER
 62
     2
 10
-130.000000
 20
32.084743
 11
-130.000000
 21
-33.235157
  0
LINE
  8
0
 10
-136.000000
 20
30.999996
 11
-136.000000
 21
6.999996
  0
LINE
  8
0
  6
CENTER
 62
     2
 10
-133.902145
 20
14.999995
 11
-125.672592
 21
14.999995
  0
LINE
  8
0
  6
CENTER
 62
     2
 10
-112.033669
 20
-0.000003
 11
-147.909805
 21
-0.000003
  0
LINE
  8
0
 10
-124.000000
 20
30.999996
 11
-124.000000
 21
6.999997
  0
LINE
  8
0
 10
-124.000000
 20
29.999994
 11
-136.000000
 21
29.999994
  0
LINE
  8
0
 10
-124.000000
 20
7.999996
 11
-136.000000
 21
7.999996
  0
LINE
  8
0
  6
CENTER
 62
     2
 10
-133.821457
 20
-23.000002
 11
-126.318047
 21
-23.000002
  0
LINE
  8
0
 10
-146.000000
 20
-30.000004
 11
-146.000000
 21
29.999996
  0
LINE
  8
0
 10
-143.500000
 20
-31.000004
 11
-143.500000
 21
30.999996
  0
LINE
  8
0
 10
-136.000000
 20
-31.000004
 11
-136.000000
 21
-7.000004
  0
LINE
  8
0
 10
-136.400009
 20
-31.000004
 11
-136.400009
 21
30.999996
  0
LINE
  8
0
  6
CENTER
 62
     2
 10
-133.902145
 20
-15.000003
 11
-125.672592
 21
-15.000003
  0
LINE
  8
0
 10
-116.035759
 20
-31.000002
 11
-143.964233
 21
-31.000002
  0
LINE
  8
0
 10
-114.000000
 20
-30.000002
 11
-114.000000
 21
29.999998
  0
LINE
  8
0
 10
-116.500000
 20
-31.000002
 11
-116.500000
 21
30.999998
  0
LINE
  8
0
 10
-124.000000
 20
-31.000004
 11
-124.000000
 21
-7.000003
  0
LINE
  8
0
 10
-124.000000
 20
-30.000002
 11
-136.000000
 21
-30.000002
  0
LINE
  8
0
 10
-124.000000
 20
-8.000003
 11
-136.000000
 21
-8.000003
  0
LINE
  8
0
 10
-124.000000
 20
-7.000003
 11
-136.000000
 21
-7.000003
  0
LINE
  8
0
 10
-124.000000
 20
6.999996
 11
-136.000000
 21
6.999996
  0
LINE
  8
0
 10
-123.599991
 20
-31.000004
 11
-123.599991
 21
30.999996
  0
LINE
  8
0
  6
CENTER
 62
     2
 10
130.000000
 20
37.188789
 11
130.000000
 21
-34.136364
  0
LINE
  8
0
 10
116.971184
 20
22.499998
 11
143.028809
 21
22.499998
  0
LINE
  8
0
 10
116.035759
 20
30.999998
 11
143.964233
 21
30.999998
  0
LINE
  8
0
  6
CENTER
 62
     2
 10
111.724998
 20
0.000000
 11
148.125000
 21
0.000000
  0
LINE
  8
0
  6
CENTER
 62
     2
 10
122.000000
 20
21.051033
 11
122.000000
 21
13.825944
  0
LINE
  8
0
  6
CENTER
 62
     2
 10
126.243103
 20
26.999998
 11
133.900452
 21
26.999998
  0
LINE
  8
0
 10
127.500000
 20
22.500000
 11
127.500000
 21
18.000000
  0
LINE
  8
0
 10
127.499992
 20
17.999998
 11
128.399994
 21
17.999998
  0
LINE
  8
0
 10
128.399994
 20
18.000000
 11
128.399994
 21
16.920937
  0
LINE
  8
0
 10
114.000000
 20
-30.000002
 11
114.000000
 21
30.000002
  0
LINE
  8
0
 10
116.035759
 20
-30.999998
 11
143.964233
 21
-30.999998
  0
LINE
  8
0
 10
127.500000
 20
-22.500000
 11
127.500000
 21
-18.000000
  0
LINE
  8
0
 10
127.500000
 20
-18.000002
 11
128.442947
 21
-18.000002
  0
LINE
  8
0
 10
132.500000
 20
22.500000
 11
132.500000
 21
18.000000
  0
LINE
  8
0
 10
132.500000
 20
17.999998
 11
131.600006
 21
17.999998
  0
LINE
  8
0
 10
146.000000
 20
-29.999998
 11
146.000000
 21
29.999998
  0
LINE
  8
0
 10
143.028809
 20
-22.499998
 11
116.971176
 21
-22.499998
  0
LINE
  8
0
  6
CENTER
 62
     2
 10
138.000000
 20
-21.051029
 11
138.000000
 21
-13.825942
  0
LINE
  8
0
  6
CENTER
 62
     2
 10
141.756897
 20
-17.500002
 11
134.099548
 21
-17.500002
  0
LINE
  8
0
 10
132.500000
 20
-22.500000
 11
132.500000
 21
-18.000000
  0
LINE
  8
0
 10
132.500000
 20
-18.000002
 11
131.600006
 21
-18.000002
  0
LINE
  8
0
 10
131.600006
 20
18.000000
 11
131.600006
 21
16.920937
  0
LINE
  8
0
 10
128.399994
 20
-16.920940
 11
128.399994
 21
-18.000000
  0
LINE
  8
0
 10
131.600006
 20
-16.920933
 11
131.600006
 21
-18.000000
  0
LINE
  8
0
  6
CENTER
 62
     2
 10
122.000000
 20
26.268265
 11
122.000000
 21
21.886726
  0
LINE
  8
0
 10
125.500000
 20
24.500000
 11
125.500000
 21
22.500000
  0
LINE
  8
0
 10
119.499992
 20
25.499998
 11
124.499992
 21
25.499998
  0
LINE
  8
0
 10
118.500000
 20
24.500000
 11
118.500000
 21
22.500000
  0
LINE
  8
0
 10
134.500000
 20
24.500000
 11
134.500000
 21
22.500000
  0
LINE
  8
0
 10
140.500000
 20
25.499998
 11
135.500000
 21
25.499998
  0
LINE
  8
0
  6
CENTER
 62
     2
 10
138.000000
 20
26.268265
 11
138.000000
 21
21.886726
  0
LINE
  8
0
 10
141.500000
 20
24.500000
 11
141.500000
 21
22.500000
  0
LINE
  8
0
 62
     4
 10
132.050034
 20
16.300020
 11
131.500031
 21
16.850023
  0
LINE
  8
0
 62
     4
 10
131.500000
 20
17.299990
 11
131.500000
 21
16.849993
  0
LINE
  8
0
 62
     4
 10
131.500000
 20
17.299988
 11
128.500000
 21
17.299988
  0
LINE
  8
0
 62
     4
 10
128.500000
 20
17.299990
 11
128.500000
 21
16.850019
  0
LINE
  8
0
 62
     4
 10
127.950012
 20
16.300049
 11
128.500000
 21
16.850040
  0
LINE
  8
0
 62
     4
 10
131.250000
 20
17.799990
 11
131.250000
 21
17.299990
  0
LINE
  8
0
 62
     4
 10
128.750000
 20
17.799990
 11
128.750000
 21
17.299990
  0
LINE
  8
0
 62
     4
 10
131.250000
 20
17.799988
 11
128.750000
 21
17.799988
  0
LINE
  8
0
 62
     4
 10
132.050049
 20
16.300028
 11
132.050049
 21
14.750029
  0
LINE
  8
0
 62
     4
 10
127.949936
 20
16.300028
 11
127.949936
 21
14.750029
  0
LINE
  8
0
 62
     4
 10
132.050018
 20
-16.299997
 11
131.500015
 21
-16.849995
  0
LINE
  8
0
 62
     4
 10
131.500000
 20
-17.299990
 11
131.500000
 21
-16.849993
  0
LINE
  8
0
 62
     4
 10
131.500000
 20
-17.299988
 11
128.500000
 21
-17.299988
  0
LINE
  8
0
 62
     4
 10
128.500000
 20
-17.299990
 11
128.500000
 21
-16.850019
  0
LINE
  8
0
 62
     4
 10
127.950027
 20
-16.300043
 11
128.500015
 21
-16.850037
  0
LINE
  8
0
 62
     4
 10
131.250000
 20
-17.799990
 11
131.250000
 21
-17.299990
  0
LINE
  8
0
 62
     4
 10
128.750000
 20
-17.799990
 11
128.750000
 21
-17.299990
  0
LINE
  8
0
 62
     4
 10
131.250000
 20
-17.799988
 11
128.750000
 21
-17.799988
  0
LINE
  8
0
 62
     4
 10
132.050049
 20
-16.300028
 11
132.050049
 21
-14.750029
  0
LINE
  8
0
 62
     4
 10
127.949936
 20
-16.300028
 11
127.949936
 21
-14.750029
  0
LINE
  8
0
 10
120.000008
 20
-25.270002
 11
118.501770
 21
-26.135008
  0
LINE
  8
0
 10
118.501778
 20
-26.135000
 11
118.501778
 21
-27.865000
  0
LINE
  8
0
 10
119.999985
 20
-28.730001
 11
118.501770
 21
-27.865002
  0
LINE
  8
0
 10
121.498230
 20
-27.865013
 11
120.000008
 21
-28.730007
  0
LINE
  8
0
 10
121.498222
 20
-26.135000
 11
121.498222
 21
-27.865000
  0
LINE
  8
0
 10
119.999992
 20
-25.270000
 11
121.498222
 21
-26.135000
  0
LINE
  8
0
 10
140.000000
 20
-25.269997
 11
141.498215
 21
-26.134996
  0
LINE
  8
0
 10
141.498230
 20
-26.135000
 11
141.498230
 21
-27.865000
  0
LINE
  8
0
 10
140.000000
 20
-28.730001
 11
141.498230
 21
-27.864998
  0
LINE
  8
0
 10
138.501785
 20
-27.864998
 11
140.000000
 21
-28.729988
  0
LINE
  8
0
 10
138.501770
 20
-26.135000
 11
138.501770
 21
-27.865000
  0
LINE
  8
0
 10
140.000015
 20
-25.270002
 11
138.501785
 21
-26.135004
  0
LINE
  8
0
 10
119.601631
 20
25.499998
 11
118.501770
 21
26.134998
  0
LINE
  8
0
 10
118.501778
 20
26.135000
 11
118.501778
 21
27.865000
  0
LINE
  8
0
 10
120.000000
 20
28.730001
 11
118.501770
 21
27.865002
  0
LINE
  8
0
 10
121.498222
 20
27.865004
 11
120.000008
 21
28.730000
  0
LINE
  8
0
 10
121.498222
 20
26.135000
 11
121.498222
 21
27.865000
  0
LINE
  8
0
 10
120.398369
 20
25.500002
 11
121.498222
 21
26.135000
  0
LINE
  8
0
 10
140.398361
 20
25.499996
 11
141.498245
 21
26.135000
  0
LINE
  8
0
 10
141.498230
 20
26.135000
 11
141.498230
 21
27.865000
  0
LINE
  8
0
 10
140.000000
 20
28.729992
 11
141.498230
 21
27.864990
  0
LINE
  8
0
 10
138.501785
 20
27.865000
 11
140.000000
 21
28.730000
  0
LINE
  8
0
 10
138.501770
 20
26.135000
 11
138.501770
 21
27.865000
  0
LINE
  8
0
 10
139.601639
 20
25.499994
 11
138.501785
 21
26.135000
  0
LINE
  8
0
  6
CENTER
 62
     2
 10
118.243095
 20
17.499998
 11
125.900444
 21
17.499998
  0
LINE
  8
0
  6
CENTER
 62
     2
 10
126.243103
 20
-26.999998
 11
133.900452
 21
-26.999998
  0
LINE
  8
0
 10
-32.999981
 20
86.000008
 11
-32.999981
 21
74.000008
  0
LINE
  8
0
 10
-35.999981
 20
82.000008
 11
-35.999981
 21
78.000008
  0
LINE
  8
0
 10
-22.999981
 20
95.999992
 11
-22.999981
 21
93.499992
  0
LINE
  8
0
 10
-35.499977
 20
82.500000
 11
-32.999977
 21
82.500000
  0
LINE
  8
0
 10
-35.499985
 20
77.500000
 11
-32.999985
 21
77.500000
  0
LINE
  8
0
 10
34.000008
 20
95.999916
 11
34.000008
 21
81.299919
  0
LINE
  8
0
 10
-9.999983
 20
95.999969
 11
-9.999983
 21
63.999969
  0
LINE
  8
0
 10
-29.999981
 20
93.500000
 11
-29.999981
 21
86.399994
  0
LINE
  8
0
 10
-23.000002
 20
64.000000
 11
33.999992
 21
64.000000
  0
LINE
  8
0
 10
-22.999960
 20
96.000000
 11
34.000034
 21
96.000000
  0
LINE
  8
0
  6
CENTER
 62
     2
 10
-38.209126
 20
80.000000
 11
47.000019
 21
80.000000
  0
LINE
  8
0
 10
3.500011
 20
77.500000
 11
34.000011
 21
77.500000
  0
LINE
  8
0
 10
3.500019
 20
82.500000
 11
34.000019
 21
82.500000
  0
LINE
  8
0
 10
-30.000004
 20
66.500000
 11
-20.000004
 21
66.500000
  0
LINE
  8
0
 10
-29.999966
 20
93.500000
 11
-19.999966
 21
93.500000
  0
LINE
  8
0
 10
-19.999981
 20
93.499985
 11
-19.999981
 21
66.499985
  0
LINE
  8
0
 10
2.596249
 20
81.605438
 11
34.000015
 21
81.605438
  0
LINE
  8
0
 10
2.583935
 20
78.399994
 11
34.000015
 21
78.399994
  0
LINE
  8
0
 10
-32.999989
 20
74.000000
 11
-28.999992
 21
74.000000
  0
LINE
  8
0
 10
-32.999973
 20
86.000000
 11
-28.999977
 21
86.000000
  0
LINE
  8
0
 10
-35.500015
 20
82.500038
 11
-36.000015
 21
82.000038
  0
LINE
  8
0
 10
-35.999958
 20
78.000008
 11
-35.499962
 21
77.500015
  0
LINE
  8
0
 10
-35.499981
 20
82.500008
 11
-35.499981
 21
77.500008
  0
LINE
  8
0
 10
-22.999981
 20
66.499992
 11
-22.999981
 21
63.999992
  0
LINE
  8
0
 10
-10.000002
 20
66.970001
 11
34.000000
 21
66.970001
  0
LINE
  8
0
 10
-9.999968
 20
93.029999
 11
34.000034
 21
93.029999
  0
LINE
  8
0
 10
-23.000000
 20
66.039993
 11
-10.000004
 21
66.039993
  0
LINE
  8
0
 10
-22.999962
 20
93.960007
 11
-9.999966
 21
93.960007
  0
LINE
  8
0
 10
-25.499981
 20
86.400002
 11
-25.499981
 21
73.599991
  0
LINE
  8
0
 10
-25.999981
 20
85.999992
 11
-25.999981
 21
73.999992
  0
LINE
  8
0
 10
-29.999994
 20
73.599991
 11
-29.249994
 21
73.599991
  0
LINE
  8
0
 10
-29.999975
 20
86.399994
 11
-29.249975
 21
86.399994
  0
LINE
  8
0
 10
-26.749994
 20
73.599991
 11
-25.499994
 21
73.599991
  0
LINE
  8
0
 10
-26.749975
 20
86.399994
 11
-25.499975
 21
86.399994
  0
LINE
  8
0
 10
-29.999981
 20
73.599991
 11
-29.999981
 21
66.500000
  0
LINE
  8
0
 10
-31.999981
 20
86.000000
 11
-31.999981
 21
74.000000
  0
LINE
  8
0
 10
-28.999981
 20
86.399994
 11
-28.999981
 21
86.000000
  0
LINE
  8
0
 10
-26.999981
 20
86.399986
 11
-26.999981
 21
85.999992
  0
LINE
  8
0
 10
-26.999977
 20
86.000000
 11
-25.999977
 21
86.000000
  0
LINE
  8
0
 10
-28.999981
 20
74.000000
 11
-28.999981
 21
73.599991
  0
LINE
  8
0
 10
-26.999981
 20
73.999992
 11
-26.999981
 21
73.599983
  0
LINE
  8
0
 10
-26.999992
 20
74.000000
 11
-25.999992
 21
74.000000
  0
LINE
  8
0
 10
12.600010
 20
75.477005
 11
12.600010
 21
68.522873
  0
LINE
  8
0
 10
13.400013
 20
75.477005
 11
13.400013
 21
68.522873
  0
LINE
  8
0
 10
26.892326
 20
91.476990
 11
26.892326
 21
84.522858
  0
LINE
  8
0
 10
26.092323
 20
91.476990
 11
26.092323
 21
84.522858
  0
LINE
  8
0
 62
     4
 10
4.500011
 20
81.605392
 11
4.500011
 21
78.399948
  0
LINE
  8
0
 62
     4
 10
26.500011
 20
81.605362
 11
26.500011
 21
78.399918
  0
LINE
  8
0
 62
     4
 10
5.465792
 20
79.297928
 11
7.202067
 21
81.034203
  0
LINE
  8
0
 62
     4
 10
5.823720
 20
78.948723
 11
7.551272
 21
80.676270
  0
LINE
  8
0
 62
     4
 10
26.500019
 20
81.300003
 11
43.249470
 21
81.300003
  0
LINE
  8
0
 62
     4
 10
26.500011
 20
78.699997
 11
44.750584
 21
78.699997
  0
LINE
  8
0
 62
     1
 10
42.749992
 20
82.165009
 11
45.249985
 21
77.834877
  0
LINE
  8
0
 10
34.000008
 20
78.699913
 11
34.000008
 21
63.999916
  0
LINE
  8
0
 10
-32.999989
 20
-73.999992
 11
-32.999989
 21
-85.999992
  0
LINE
  8
0
 10
-35.999989
 20
-77.999992
 11
-35.999989
 21
-81.999992
  0
LINE
  8
0
 10
-22.999989
 20
-63.999992
 11
-22.999989
 21
-66.499992
  0
LINE
  8
0
 10
-35.499985
 20
-77.499992
 11
-32.999985
 21
-77.499992
  0
LINE
  8
0
 10
-35.499992
 20
-82.499992
 11
-32.999992
 21
-82.499992
  0
LINE
  8
0
 10
34.000008
 20
-64.000015
 11
34.000008
 21
-78.394562
  0
LINE
  8
0
 10
-9.999990
 20
-64.000000
 11
-9.999990
 21
-95.999992
  0
LINE
  8
0
 10
-29.999989
 20
-66.499992
 11
-29.999989
 21
-73.599991
  0
LINE
  8
0
 10
-22.999994
 20
-95.999985
 11
34.000008
 21
-95.999985
  0
LINE
  8
0
 10
-22.999983
 20
-63.999992
 11
34.000027
 21
-63.999992
  0
LINE
  8
0
  6
CENTER
 62
     2
 10
-38.209133
 20
-79.999992
 11
47.000011
 21
-79.999992
  0
LINE
  8
0
 10
3.500004
 20
-82.499992
 11
34.000011
 21
-82.499992
  0
LINE
  8
0
 10
3.500011
 20
-77.499992
 11
34.000011
 21
-77.499992
  0
LINE
  8
0
 10
-29.999994
 20
-93.499985
 11
-19.999994
 21
-93.499985
  0
LINE
  8
0
 10
-29.999983
 20
-66.499992
 11
-19.999983
 21
-66.499992
  0
LINE
  8
0
 10
-19.999989
 20
-66.500000
 11
-19.999989
 21
-93.499992
  0
LINE
  8
0
 10
2.596237
 20
-78.394539
 11
34.000011
 21
-78.394539
  0
LINE
  8
0
 10
2.583931
 20
-81.599991
 11
34.000011
 21
-81.599991
  0
LINE
  8
0
 10
-32.999992
 20
-85.999992
 11
-28.999990
 21
-85.999992
  0
LINE
  8
0
 10
-32.999985
 20
-73.999992
 11
-28.999987
 21
-73.999992
  0
LINE
  8
0
 10
-35.499977
 20
-77.500015
 11
-35.999977
 21
-78.000015
  0
LINE
  8
0
 10
-36.000027
 20
-82.000023
 11
-35.500027
 21
-82.500023
  0
LINE
  8
0
 10
-35.499989
 20
-77.499992
 11
-35.499989
 21
-82.499992
  0
LINE
  8
0
 10
-22.999989
 20
-93.499985
 11
-22.999989
 21
-95.999985
  0
LINE
  8
0
 10
-9.999994
 20
-93.029999
 11
34.000008
 21
-93.029999
  0
LINE
  8
0
 10
-9.999983
 20
-66.969986
 11
34.000027
 21
-66.969986
  0
LINE
  8
0
 10
-22.999994
 20
-93.959991
 11
-9.999994
 21
-93.959991
  0
LINE
  8
0
 10
-25.499989
 20
-73.599991
 11
-25.499989
 21
-86.399986
  0
LINE
  8
0
 10
-25.999989
 20
-73.999992
 11
-25.999989
 21
-85.999992
  0
LINE
  8
0
 10
-29.999990
 20
-86.399986
 11
-29.249990
 21
-86.399986
  0
LINE
  8
0
 10
-29.999987
 20
-73.599991
 11
-29.249987
 21
-73.599991
  0
LINE
  8
0
 10
-26.749990
 20
-86.399986
 11
-25.499990
 21
-86.399986
  0
LINE
  8
0
 10
-26.749987
 20
-73.599991
 11
-25.499987
 21
-73.599991
  0
LINE
  8
0
 10
-29.999989
 20
-86.399986
 11
-29.999989
 21
-93.499985
  0
LINE
  8
0
 10
-31.999989
 20
-73.999992
 11
-31.999989
 21
-85.999992
  0
LINE
  8
0
 10
-28.999989
 20
-73.599991
 11
-28.999989
 21
-73.999992
  0
LINE
  8
0
 10
-26.999989
 20
-73.599991
 11
-26.999989
 21
-73.999992
  0
LINE
  8
0
 10
-26.999987
 20
-73.999992
 11
-25.999987
 21
-73.999992
  0
LINE
  8
0
 10
-28.999989
 20
-85.999992
 11
-28.999989
 21
-86.399986
  0
LINE
  8
0
 10
-26.999989
 20
-85.999992
 11
-26.999989
 21
-86.399986
  0
LINE
  8
0
 10
-26.999990
 20
-85.999992
 11
-25.999990
 21
-85.999992
  0
LINE
  8
0
  6
CENTER
 62
     2
 10
10.000004
 20
-85.410706
 11
10.000004
 21
-92.613251
  0
LINE
  8
0
  6
CENTER
 62
     2
 10
5.803135
 20
-89.000000
 11
13.763836
 21
-89.000000
  0
LINE
  8
0
  6
CENTER
 62
     2
 10
10.000004
 20
-74.589302
 11
10.000004
 21
-67.386757
  0
LINE
  8
0
  6
CENTER
 62
     2
 10
5.803143
 20
-70.999992
 11
13.763844
 21
-70.999992
  0
LINE
  8
0
 62
     4
 10
34.000011
 20
-82.049995
 11
36.000011
 21
-82.049995
  0
LINE
  8
0
 62
     4
 10
34.000011
 20
-77.949989
 11
36.000011
 21
-77.949989
  0
LINE
  8
0
 62
     4
 10
14.000011
 20
-78.394554
 11
14.000011
 21
-81.600006
  0
LINE
  8
0
 62
     4
 10
36.000011
 20
-77.950020
 11
36.000011
 21
-82.050026
  0
LINE
  8
0
 62
     4
 10
14.965819
 20
-80.702065
 11
16.702095
 21
-78.965790
  0
LINE
  8
0
 62
     4
 10
15.323730
 20
-81.051254
 11
17.051279
 21
-79.323708
  0
LINE
  8
0
 62
     4
 10
36.000011
 20
-78.699989
 11
43.249462
 21
-78.699989
  0
LINE
  8
0
 62
     4
 10
36.000011
 20
-81.299995
 11
44.750576
 21
-81.299995
  0
LINE
  8
0
 62
     1
 10
42.750008
 20
-77.834915
 11
45.250008
 21
-82.165047
  0
LINE
  8
0
 62
     4
 10
34.000011
 20
-78.394539
 11
36.000011
 21
-78.394539
  0
LINE
  8
0
 62
     4
 10
34.000011
 20
-81.605446
 11
36.000011
 21
-81.605446
  0
LINE
  8
0
 10
34.000008
 20
-81.605469
 11
34.000008
 21
-96.000008
  0
LINE
  8
0
 10
-22.999983
 20
-66.039993
 11
-9.999983
 21
-66.039993
  0
LINE
  8
0
 10
-194.250000
 20
132.600006
 11
194.800003
 21
132.600006
  0
LINE
  8
0
 10
194.800003
 20
132.600006
 11
194.800003
 21
-133.500000
  0
LINE
  8
0
 10
-194.250000
 20
132.600006
 11
-194.250000
 21
-133.500000
  0
LINE
  8
0
 10
-194.250000
 20
-133.500000
 11
194.800003
 21
-133.500000
  0
LINE
  8
0
 10
109.800003
 20
-118.500000
 11
109.800003
 21
-133.500000
  0
LINE
  8
0
 10
109.800003
 20
-118.500000
 11
194.800003
 21
-118.500000
  0
LINE
  8
0
 10
109.800003
 20
132.600006
 11
109.800003
 21
117.600006
  0
LINE
  8
0
 10
109.800003
 20
117.600006
 11
194.800003
 21
117.600006
  0
LINE
  8
0
 10
-194.250000
 20
117.600006
 11
-109.250000
 21
117.600006
  0
LINE
  8
0
 10
-109.250000
 20
132.600006
 11
-109.250000
 21
117.600006
  0
CIRCLE
  8
0
 10
12.999996
 20
8.499995
 40
2.100000
  0
CIRCLE
  8
0
 10
-16.082394
 20
-20.000002
 40
1.650000
  0
CIRCLE
  8
0
 10
26.499996
 20
-8.500003
 40
2.100000
  0
CIRCLE
  8
0
 10
4.000000
 20
14.999995
 40
2.100000
  0
CIRCLE
  8
0
 10
-16.082390
 20
19.999998
 40
1.650000
  0
CIRCLE
  8
0
 10
3.999996
 20
-15.000001
 40
2.100000
  0
ARC
  8
0
 10
10.500000
 20
24.499996
 40
1.000000
 50
90.000000
 51
180.000000
  0
ARC
  8
0
 10
29.000000
 20
24.499996
 40
1.000000
 50
0.000000
 51
90.000000
  0
CIRCLE
  8
0
  6
DASHED
 62
     2
 10
4.000000
 20
14.999997
 40
2.500000
  0
ARC
  8
0
 10
15.500000
 20
24.499996
 40
1.000000
 50
0.000000
 51
90.000000
  0
CIRCLE
  8
0
 10
12.999996
 20
8.499995
 40
4.250000
  0
CIRCLE
  8
0
 62
     2
 10
12.999996
 20
8.499995
 40
2.500000
  0
CIRCLE
  8
0
 10
-5.700003
 20
-11.000001
 40
2.000000
  0
CIRCLE
  8
0
 10
26.499996
 20
-8.500003
 40
4.250000
  0
CIRCLE
  8
0
 62
     2
 10
26.499996
 20
-8.500003
 40
2.500000
  0
CIRCLE
  8
0
 62
     2
 10
-16.082390
 20
19.999998
 40
2.000000
  0
CIRCLE
  8
0
 62
     2
 10
-16.082390
 20
-20.000000
 40
2.000000
  0
CIRCLE
  8
0
  6
DASHED
 62
     2
 10
3.999996
 20
-15.000001
 40
2.500000
  0
ARC
  8
0
 10
24.000000
 20
24.499994
 40
1.000000
 50
90.000000
 51
180.000000
  0
CIRCLE
  8
0
 10
-5.700001
 20
10.999999
 40
2.000000
  0
CIRCLE
  8
0
 10
-130.000000
 20
-23.000002
 40
2.100000
  0
ARC
  8
0
 10
-130.000000
 20
-0.000003
 40
34.000000
 50
114.249619
 51
118.072464
  0
CIRCLE
  8
0
 10
-130.000000
 20
22.999994
 40
2.100000
  0
ARC
  8
0
 10
-130.000000
 20
-0.000003
 40
33.999996
 50
61.927525
 51
65.750381
  0
CIRCLE
  8
0
 10
-130.000000
 20
-15.000003
 40
2.500000
  0
CIRCLE
  8
0
 62
     2
 10
-130.000000
 20
-23.000002
 40
2.500000
  0
ARC
  8
0
 10
-130.000000
 20
-0.000003
 40
34.000000
 50
241.927521
 51
245.750381
  0
ARC
  8
0
 10
-130.000000
 20
-0.000003
 40
34.000000
 50
294.249634
 51
298.072479
  0
CIRCLE
  8
0
 10
-130.000000
 20
14.999995
 40
2.500000
  0
CIRCLE
  8
0
 62
     2
 10
-130.000000
 20
22.999994
 40
2.500000
  0
ARC
  8
0
 10
140.000000
 20
27.000000
 40
3.500000
 50
0.000000
 51
205.376938
  0
ARC
  8
0
 10
120.000000
 20
27.000000
 40
2.980003
 50
329.777740
 51
239.843063
  0
ARC
  8
0
 10
140.000000
 20
27.000000
 40
2.979998
 50
300.156769
 51
210.222305
  0
ARC
  8
0
 10
130.000000
 20
-15.000001
 40
2.499999
 50
306.869904
 51
233.130112
  0
ARC
  8
0
 62
     4
 10
130.000000
 20
-14.750028
 40
2.050003
 50
0.000053
 51
180.000046
  0
CIRCLE
  8
0
 62
     4
 10
130.000000
 20
-15.000001
 40
1.300000
  0
ARC
  8
0
 10
140.500000
 20
24.500000
 40
1.000000
 50
0.000000
 51
90.000000
  0
ARC
  8
0
 10
135.500000
 20
24.499998
 40
1.000000
 50
90.000000
 51
179.999893
  0
ARC
  8
0
 10
130.000000
 20
-0.000000
 40
26.000000
 50
120.073334
 51
127.979874
  0
ARC
  8
0
 10
130.000000
 20
-0.000000
 40
34.000000
 50
114.249619
 51
118.072472
  0
CIRCLE
  8
0
 62
     2
 10
121.999992
 20
17.499998
 40
2.500000
  0
ARC
  8
0
 10
130.000000
 20
-0.000000
 40
25.999998
 50
232.020126
 51
239.926651
  0
ARC
  8
0
 10
130.000000
 20
-0.000000
 40
34.000000
 50
241.927505
 51
245.750381
  0
ARC
  8
0
 10
130.000000
 20
-0.000000
 40
25.999998
 50
52.020126
 51
59.926666
  0
ARC
  8
0
 10
130.000000
 20
-0.000000
 40
34.000000
 50
61.927513
 51
65.750381
  0
ARC
  8
0
 10
130.000000
 20
-0.000000
 40
26.000006
 50
300.073364
 51
307.979889
  0
ARC
  8
0
 10
130.000000
 20
-0.000000
 40
34.000004
 50
294.249634
 51
298.072479
  0
CIRCLE
  8
0
 62
     2
 10
138.000000
 20
-17.499998
 40
2.500000
  0
CIRCLE
  8
0
 10
130.000000
 20
-0.000000
 40
10.500000
  0
CIRCLE
  8
0
 62
     2
 10
130.000000
 20
-26.999998
 40
2.000000
  0
CIRCLE
  8
0
 10
130.000000
 20
-26.999998
 40
1.700000
  0
CIRCLE
  8
0
 10
130.000000
 20
26.999998
 40
1.700000
  0
CIRCLE
  8
0
 62
     2
 10
130.000000
 20
26.999998
 40
2.000000
  0
ARC
  8
0
 10
124.499992
 20
24.499998
 40
1.000000
 50
0.000000
 51
90.000000
  0
ARC
  8
0
 10
119.499992
 20
24.499998
 40
1.000000
 50
90.000000
 51
180.000000
  0
CIRCLE
  8
0
 10
122.000000
 20
17.499998
 40
2.100000
  0
CIRCLE
  8
0
 10
138.000000
 20
-17.500002
 40
2.100000
  0
CIRCLE
  8
0
 62
     4
 10
130.000000
 20
15.000001
 40
1.300000
  0
ARC
  8
0
 62
     4
 10
130.000000
 20
14.750028
 40
2.050003
 50
179.999954
 51
0.000000
  0
ARC
  8
0
 10
130.000000
 20
15.000001
 40
2.500001
 50
126.869888
 51
53.130116
  0
CIRCLE
  8
0
 10
120.000000
 20
-27.000000
 40
3.500000
  0
CIRCLE
  8
0
 10
120.000000
 20
-27.000000
 40
2.980000
  0
CIRCLE
  8
0
 10
140.000000
 20
-27.000000
 40
3.500000
  0
CIRCLE
  8
0
 10
140.000000
 20
-27.000000
 40
2.980000
  0
ARC
  8
0
 10
120.000000
 20
27.000000
 40
3.500000
 50
334.623047
 51
244.623062
  0
ARC
  8
0
 10
2.600010
 20
79.999954
 40
1.599998
 50
89.999924
 51
269.999878
  0
ARC
  8
0
 10
3.500011
 20
79.999954
 40
2.500000
 50
89.999916
 51
269.999878
  0
ARC
  8
0
 10
-27.999977
 20
86.399994
 40
1.250000
 50
0.000000
 51
180.000000
  0
ARC
  8
0
 10
-27.999994
 20
73.599998
 40
1.250000
 50
180.000000
 51
359.999664
  0
CIRCLE
  8
0
 62
     4
 10
6.500027
 20
79.999947
 40
1.250000
  0
CIRCLE
  8
0
 62
     4
 10
6.500027
 20
79.999947
 40
1.400000
  0
ARC
  8
0
 10
-27.999994
 20
73.599998
 40
1.000000
 50
180.000000
 51
0.000000
  0
ARC
  8
0
 10
-27.999977
 20
86.399994
 40
1.000000
 50
0.000000
 51
180.000000
  0
CIRCLE
  8
0
 10
13.000004
 20
71.999939
 40
3.500000
  0
CIRCLE
  8
0
 10
26.492336
 20
87.999924
 40
3.500000
  0
CIRCLE
  8
0
 10
13.000004
 20
71.999939
 40
4.250000
  0
CIRCLE
  8
0
 10
26.492336
 20
87.999924
 40
4.250000
  0
ARC
  8
0
 10
-27.999987
 20
-73.599991
 40
1.000000
 50
0.000000
 51
180.000000
  0
ARC
  8
0
 10
-27.999990
 20
-86.399986
 40
1.000000
 50
180.000000
 51
0.000000
  0
CIRCLE
  8
0
 62
     2
 10
10.000000
 20
-89.000015
 40
2.500000
  0
CIRCLE
  8
0
 10
10.000008
 20
-71.000008
 40
2.100000
  0
CIRCLE
  8
0
 62
     4
 10
16.000027
 20
-80.000008
 40
1.250000
  0
CIRCLE
  8
0
 62
     4
 10
16.000027
 20
-80.000008
 40
1.400000
  0
CIRCLE
  8
0
 10
10.000000
 20
-89.000015
 40
2.100000
  0
CIRCLE
  8
0
 62
     2
 10
10.000008
 20
-71.000008
 40
2.500000
  0
ARC
  8
0
 10
3.500004
 20
-80.000008
 40
2.500000
 50
89.999954
 51
269.999939
  0
ARC
  8
0
 10
2.600002
 20
-80.000008
 40
1.599998
 50
89.999954
 51
269.999939
  0
ARC
  8
0
 10
-27.999987
 20
-73.599991
 40
1.250000
 50
0.000000
 51
180.000000
  0
ARC
  8
0
 10
-27.999990
 20
-86.399986
 40
1.250000
 50
180.000000
 51
0.000000
  0
TEXT
  8
0
 10
133.907150
 20
122.050003
 40
4.500000
  1
Ver. 1.0
 50
0.000000
 41
1.052631
 51
0.000000
  7
STANDARD
  0
TEXT
  8
0
 10
113.700279
 20
-130.669998
 40
6.300000
  1
KOGANEI CORP.
 50
0.000000
 41
1.052632
 51
0.000000
  7
STANDARD
  0
TEXT
  8
0
 10
-170.142654
 20
122.050003
 40
4.500000
  1
AIR HAND
 50
0.000000
 41
1.052632
 51
0.000000
  7
STANDARD
  0
TEXT
  8
0
 10
-159.892654
 20
97.550003
 40
4.500000
  1
NHBDRG-20-ZE135A2
 50
0.000000
 41
1.052632
 51
0.000000
  7
STANDARD
  0
TEXT
  8
0
 10
-186.892654
 20
104.550003
 40
4.500000
  1
MODEL:NHBDPG-20-ZE135A2
 50
0.000000
 41
1.052632
 51
0.000000
  7
STANDARD
  0
ENDSEC
  0
EOF
