  0
SECTION
  2
HEADER
  0
ENDSEC
  0
SECTION
  2
TABLES
  0
TABLE
  2
LTYPE
 70
     4
  0
LTYPE
  2
CONTINUOUS
 70
    64
  3
Solid line
 72
    65
 73
     0
 40
0.000000
  0
LTYPE
  2
DASHED
 70
    64
  3
__ __ __ __ __ __ __ __ __ __ __ __ __ __ __
 72
    65
 73
     2
 40
3.500000
 49
2.000000
 49
-1.500000
  0
LTYPE
  2
CENTER
 70
    64
  3
____ _ ____ _ ____ _ ____ _ ____ _ ____ _ ____
 72
    65
 73
     4
 40
17.500000
 49
13.000000
 49
-1.500000
 49
1.500000
 49
-1.500000
  0
LTYPE
  2
PHANTOM
 70
    64
  3
_____ _ _ _____ _ _ _____ _ _ _____ _ _ ____  
 72
    65
 73
     6
 40
15.500000
 49
8.000000
 49
-1.500000
 49
1.500000
 49
-1.500000
 49
1.500000
 49
-1.500000
  0
LTYPE
  2
DASHED1
 70
    64
  3
__ __ __ __ __ __ __ __ __ __ __ __ __ __ __
 72
    65
 73
     2
 40
1.500000
 49
1.000000
 49
-0.500000
  0
LTYPE
  2
DASHED2
 70
    64
  3
__ __ __ __ __ __ __ __ __ __ __ __ __ __ __
 72
    65
 73
     2
 40
3.500000
 49
2.500000
 49
-1.000000
  0
LTYPE
  2
DASHED3
 70
    64
  3
__ __ __ __ __ __ __ __ __ __ __ __ __ __ __
 72
    65
 73
     2
 40
6.000000
 49
4.000000
 49
-2.000000
  0
LTYPE
  2
DASHED4
 70
    64
  3
__ __ __ __ __ __ __ __ __ __ __ __ __ __ __
 72
    65
 73
     2
 40
12.000000
 49
10.000000
 49
-2.000000
  0
LTYPE
  2
DASHED5
 70
    64
  3
__ __ __ __ __ __ __ __ __ __ __ __ __ __ __
 72
    65
 73
     2
 40
17.000000
 49
15.000000
 49
-2.000000
  0
LTYPE
  2
DASHED6
 70
    64
  3
__ __ __ __ __ __ __ __ __ __ __ __ __ __ __
 72
    65
 73
     2
 40
29.000000
 49
27.000000
 49
-2.000000
  0
LTYPE
  2
PHANTOM1
 70
    64
  3
_____ _ _ _____ _ _ _____ _ _ _____ _ _ ____  
 72
    65
 73
     6
 40
31.000000
 49
25.000000
 49
-1.500000
 49
1.000000
 49
-1.000000
 49
1.000000
 49
-1.500000
  0
LTYPE
  2
PHANTOM2
 70
    64
  3
_____ _ _ _____ _ _ _____ _ _ _____ _ _ ____  
 72
    65
 73
     6
 40
36.000000
 49
27.000000
 49
-1.500000
 49
2.500000
 49
-1.000000
 49
2.500000
 49
-1.500000
  0
LTYPE
  2
PHANTOM3
 70
    64
  3
_____ _ _ _____ _ _ _____ _ _ _____ _ _ ____  
 72
    65
 73
     6
 40
78.000000
 49
64.000000
 49
-2.000000
 49
4.000000
 49
-2.000000
 49
4.000000
 49
-2.000000
  0
LTYPE
  2
CENTER1
 70
    64
  3
____ _ ____ _ ____ _ ____ _ ____ _ ____ _ ____
 72
    65
 73
     4
 40
19.000000
 49
14.000000
 49
-1.000000
 49
3.000000
 49
-1.000000
  0
LTYPE
  2
CENTER2
 70
    64
  3
____ _ ____ _ ____ _ ____ _ ____ _ ____ _ ____
 72
    65
 73
     4
 40
28.500000
 49
25.000000
 49
-1.000000
 49
1.500000
 49
-1.000000
  0
LTYPE
  2
CENTER3
 70
    64
  3
____ _ ____ _ ____ _ ____ _ ____ _ ____ _ ____
 72
    65
 73
     4
 40
31.500000
 49
27.000000
 49
-1.000000
 49
2.500000
 49
-1.000000
  0
LTYPE
  2
CENTER4
 70
    64
  3
____ _ ____ _ ____ _ ____ _ ____ _ ____ _ ____
 72
    65
 73
     4
 40
50.000000
 49
45.000000
 49
-1.000000
 49
3.000000
 49
-1.000000
  0
LTYPE
  2
CENTER5
 70
    64
  3
____ _ ____ _ ____ _ ____ _ ____ _ ____ _ ____
 72
    65
 73
     4
 40
100.000000
 49
92.000000
 49
-2.000000
 49
4.000000
 49
-2.000000
  0
LTYPE
  2
SBK1
 70
    64
  3
______ _ _ _ ______ _ _ _ ______ _ _ _ _____  
 72
    65
 73
     8
 40
60.500000
 49
45.000000
 49
-2.000000
 49
2.500000
 49
-2.000000
 49
2.500000
 49
-2.000000
 49
2.500000
 49
-2.000000
  0
LTYPE
  2
SBK2
 70
    64
  3
______ _ _ _ ______ _ _ _ ______ _ _ _ _____  
 72
    65
 73
     8
 40
84.000000
 49
64.000000
 49
-2.000000
 49
4.000000
 49
-2.000000
 49
4.000000
 49
-2.000000
 49
4.000000
 49
-2.000000
  0
LTYPE
  2
STCH
 70
    64
  3
__ __ __ __ __ __ __ __ __ __ __ __ __ __ __
 72
    65
 73
     2
 40
3.000000
 49
1.000000
 49
-2.000000
  0
LTYPE
  2
MTCH
 70
    64
  3
_____ _ _ _____ _ _ _____ _ _ _____ _ _ ____  
 72
    65
 73
     6
 40
80.000000
 49
66.000000
 49
-2.000000
 49
4.000000
 49
-2.000000
 49
4.000000
 49
-2.000000
  0
ENDTAB
  0
TABLE
  2
LAYER
 70
     1
  0
LAYER
  2
0
 70
     0
 62
     7
  6
CONTINUOUS
  0
ENDTAB
  0
TABLE
  2
STYLE
 70
     1
  0
STYLE
  2
STANDARD
 70
     0
 40
0.000000
 41
1.000000
 50
0.000000
 71
     0
 42
0.200000
  3
txt
  4
BIGFONT
  0
ENDTAB
  0
TABLE
  2
VIEW
 70
     0
  0
ENDTAB
  0
ENDSEC
  0
SECTION
  2
BLOCKS
  0
ENDSEC
  0
SECTION
  2
ENTITIES
  0
LINE
  8
0
 10
-181.250000
 20
195.500000
 11
-181.250000
 21
180.500000
  0
LINE
  8
0
 10
182.099976
 20
195.500000
 11
182.099976
 21
180.500000
  0
LINE
  8
0
 10
-281.250000
 20
180.500000
 11
-181.250000
 21
180.500000
  0
LINE
  8
0
 10
182.099976
 20
180.500000
 11
282.099976
 21
180.500000
  0
LINE
  8
0
 10
169.429993
 20
-175.000000
 11
282.099976
 21
-175.000000
  0
LINE
  8
0
 10
-281.250000
 20
-185.000000
 11
169.429993
 21
-185.000000
  0
LINE
  8
0
 10
-297.000000
 20
210.000000
 11
297.000000
 21
210.000000
  0
LINE
  8
0
 10
-297.000000
 20
-210.000000
 11
297.000000
 21
-210.000000
  0
LINE
  8
0
 10
297.000000
 20
210.000000
 11
297.000000
 21
-210.000000
  0
LINE
  8
0
 10
-297.000000
 20
210.000000
 11
-297.000000
 21
-210.000000
  0
LINE
  8
0
 10
-281.250000
 20
195.500000
 11
282.099976
 21
195.500000
  0
LINE
  8
0
 10
-281.250000
 20
195.500000
 11
-281.250000
 21
-195.000000
  0
LINE
  8
0
 10
282.099976
 20
195.500000
 11
282.099976
 21
-195.000000
  0
LINE
  8
0
 10
-281.250000
 20
-195.000000
 11
282.099976
 21
-195.000000
  0
LINE
  8
0
 10
-281.250000
 20
0.250000
 11
282.099976
 21
0.250000
  0
LINE
  8
0
 10
-281.250000
 20
10.250000
 11
282.099976
 21
10.250000
  0
LINE
  8
0
 10
169.429993
 20
-165.000000
 11
282.099976
 21
-165.000000
  0
LINE
  8
0
 10
-93.466675
 20
0.250000
 11
-93.466675
 21
195.500000
  0
LINE
  8
0
 10
94.316650
 20
0.250000
 11
94.316650
 21
195.500000
  0
LINE
  8
0
 10
169.429993
 20
-195.000000
 11
169.429993
 21
0.250000
  0
LINE
  8
0
 10
19.203339
 20
-195.000000
 11
19.203339
 21
0.250000
  0
LINE
  8
0
 10
-131.023331
 20
-195.000000
 11
-131.023331
 21
0.250000
  0
LINE
  8
0
 10
169.429993
 20
-87.375000
 11
282.099976
 21
-87.375000
  0
LINE
  8
0
 10
169.429993
 20
-77.375000
 11
282.099976
 21
-77.375000
  0
LINE
  8
0
  6
PHANTOM
 10
-201.449554
 20
-136.673584
 11
-201.449554
 21
-150.673584
  0
LINE
  8
0
 10
-216.483887
 20
-143.673584
 11
-141.947830
 21
-143.673584
  0
LINE
  8
0
  6
PHANTOM
 10
-205.499542
 20
-139.054794
 11
-205.499542
 21
-148.292389
  0
LINE
  8
0
  6
PHANTOM
 10
-211.899551
 20
-139.054794
 11
-211.899551
 21
-148.292389
  0
LINE
  8
0
  6
PHANTOM
 10
-208.699554
 20
-148.292389
 11
-208.699554
 21
-139.054794
  0
LINE
  8
0
  6
PHANTOM
 10
-201.449554
 20
-46.673584
 11
-201.449554
 21
-60.673584
  0
LINE
  8
0
 10
-216.998947
 20
-53.673584
 11
-143.317551
 21
-53.673584
  0
LINE
  8
0
  6
PHANTOM
 10
-208.699554
 20
-57.673584
 11
-208.699554
 21
-49.673584
  0
LINE
  8
0
  6
PHANTOM
 10
-211.653931
 20
-53.673584
 11
-208.945175
 21
-53.673584
  0
LINE
  8
0
  6
PHANTOM
 10
-205.745178
 20
-53.673584
 11
-208.453934
 21
-53.673584
  0
LINE
  8
0
  6
PHANTOM
 10
-197.749557
 20
-133.858627
 11
-197.749557
 21
-153.488541
  0
LINE
  8
0
  6
PHANTOM
 10
-197.749557
 20
-45.173584
 11
-197.749557
 21
-62.173584
  0
LINE
  8
0
  6
PHANTOM
 10
-197.200836
 20
-53.673584
 11
-194.298279
 21
-53.673584
  0
LINE
  8
0
  6
PHANTOM
 10
-215.449554
 20
-141.173584
 11
-211.899551
 21
-141.173584
  0
LINE
  8
0
  6
PHANTOM
 10
-215.449554
 20
-146.173584
 11
-211.899551
 21
-146.173584
  0
LINE
  8
0
  6
PHANTOM
 10
-215.449554
 20
-141.173584
 11
-215.449554
 21
-146.173584
  0
LINE
  8
0
  6
PHANTOM
 10
-205.499542
 20
-146.173584
 11
-201.949554
 21
-146.173584
  0
LINE
  8
0
  6
PHANTOM
 10
-205.499542
 20
-141.173584
 11
-201.949554
 21
-141.173584
  0
LINE
  8
0
  6
PHANTOM
 10
-201.449554
 20
-136.673584
 11
-197.749557
 21
-136.673584
  0
LINE
  8
0
  6
PHANTOM
 10
-201.449554
 20
-150.673584
 11
-197.749557
 21
-150.673584
  0
LINE
  8
0
  6
PHANTOM
 10
-215.449554
 20
-51.173584
 11
-215.449554
 21
-56.173584
  0
LINE
  8
0
  6
PHANTOM
 10
-215.449554
 20
-51.173584
 11
-211.899551
 21
-51.173584
  0
LINE
  8
0
  6
PHANTOM
 10
-215.449554
 20
-56.173584
 11
-211.899551
 21
-56.173584
  0
LINE
  8
0
  6
PHANTOM
 10
-211.899551
 20
-49.673584
 11
-211.899551
 21
-57.673584
  0
LINE
  8
0
  6
PHANTOM
 10
-205.499542
 20
-49.673584
 11
-205.499542
 21
-57.673584
  0
LINE
  8
0
  6
PHANTOM
 10
-205.499542
 20
-56.173584
 11
-201.949554
 21
-56.173584
  0
LINE
  8
0
  6
PHANTOM
 10
-205.499542
 20
-51.173584
 11
-201.949554
 21
-51.173584
  0
LINE
  8
0
  6
PHANTOM
 10
-203.449554
 20
-141.173584
 11
-203.449554
 21
-146.173584
  0
LINE
  8
0
  6
PHANTOM
 10
-201.449554
 20
-46.673584
 11
-197.749557
 21
-46.673584
  0
LINE
  8
0
  6
PHANTOM
 10
-201.449554
 20
-60.673584
 11
-197.749557
 21
-60.673584
  0
LINE
  8
0
  6
PHANTOM
 10
-197.749557
 20
-153.488541
 11
-193.749557
 21
-153.488541
  0
LINE
  8
0
  6
PHANTOM
 10
-197.749557
 20
-133.858627
 11
-193.749557
 21
-133.858627
  0
LINE
  8
0
  6
PHANTOM
 10
-211.899551
 20
-139.054794
 11
-205.499542
 21
-139.054794
  0
LINE
  8
0
  6
PHANTOM
 10
-211.899551
 20
-148.292389
 11
-205.499542
 21
-148.292389
  0
LINE
  8
0
  6
PHANTOM
 10
-197.749557
 20
-62.173584
 11
-193.749557
 21
-62.173584
  0
LINE
  8
0
  6
PHANTOM
 10
-197.749557
 20
-45.173584
 11
-193.749557
 21
-45.173584
  0
LINE
  8
0
  6
PHANTOM
 10
-211.899551
 20
-49.673584
 11
-205.499542
 21
-49.673584
  0
LINE
  8
0
  6
PHANTOM
 10
-211.899551
 20
-57.673584
 11
-205.499542
 21
-57.673584
  0
LINE
  8
0
  6
PHANTOM
 10
-201.949570
 20
-141.173599
 11
-201.449570
 21
-140.673584
  0
LINE
  8
0
  6
PHANTOM
 10
-201.949524
 20
-146.173553
 11
-201.449524
 21
-146.673553
  0
LINE
  8
0
  6
PHANTOM
 10
-201.949554
 20
-141.173584
 11
-201.949554
 21
-146.173584
  0
LINE
  8
0
  6
PHANTOM
 10
-201.949570
 20
-51.173615
 11
-201.449554
 21
-50.673603
  0
LINE
  8
0
  6
PHANTOM
 10
-201.949585
 20
-56.173653
 11
-201.449600
 21
-56.673656
  0
LINE
  8
0
  6
PHANTOM
 10
-201.949554
 20
-51.173584
 11
-201.949554
 21
-56.173584
  0
LINE
  8
0
  6
PHANTOM
 10
-145.949554
 20
-43.673584
 11
-145.949554
 21
-63.673584
  0
LINE
  8
0
  6
PHANTOM
 10
-191.449554
 20
-43.673584
 11
-145.949554
 21
-43.673584
  0
LINE
  8
0
  6
PHANTOM
 10
-191.449554
 20
-63.673584
 11
-145.949554
 21
-63.673584
  0
LINE
  8
0
  6
PHANTOM
 10
-145.949554
 20
-127.673584
 11
-145.949554
 21
-153.173584
  0
LINE
  8
0
  6
PHANTOM
 10
-191.449554
 20
-133.673584
 11
-145.949554
 21
-133.673584
  0
LINE
  8
0
  6
PHANTOM
 10
-191.449554
 20
-153.173584
 11
-145.949554
 21
-153.173584
  0
LINE
  8
0
  6
PHANTOM
 10
-191.449554
 20
-127.673584
 11
-145.949554
 21
-127.673584
  0
LINE
  8
0
  6
PHANTOM
 10
-191.449554
 20
-129.173584
 11
-145.949554
 21
-129.173584
  0
LINE
  8
0
  6
PHANTOM
 10
-191.449554
 20
-132.673584
 11
-191.449554
 21
-127.673584
  0
LINE
  8
0
  6
PHANTOM
 10
-40.473289
 20
-127.673592
 11
-40.473289
 21
-132.673584
  0
LINE
  8
0
  6
PHANTOM
 10
-50.473289
 20
-136.673584
 11
-50.473289
 21
-150.673584
  0
LINE
  8
0
 10
-65.507614
 20
-143.673584
 11
7.250839
 21
-143.673584
  0
LINE
  8
0
  6
PHANTOM
 10
-54.523285
 20
-139.054794
 11
-54.523285
 21
-148.292389
  0
LINE
  8
0
  6
PHANTOM
 10
-60.923283
 20
-139.054794
 11
-60.923283
 21
-148.292389
  0
LINE
  8
0
  6
PHANTOM
 10
-57.723289
 20
-148.292389
 11
-57.723289
 21
-139.054794
  0
LINE
  8
0
  6
PHANTOM
 10
-50.473289
 20
-46.673592
 11
-50.473289
 21
-60.673592
  0
LINE
  8
0
  6
PHANTOM
 10
-57.723289
 20
-57.673592
 11
-57.723289
 21
-49.673592
  0
LINE
  8
0
  6
PHANTOM
 10
-46.773293
 20
-133.858643
 11
-46.773293
 21
-153.488556
  0
LINE
  8
0
  6
PHANTOM
 10
-46.773293
 20
-45.173592
 11
-46.773293
 21
-62.173592
  0
LINE
  8
0
  6
PHANTOM
 10
-64.473289
 20
-141.173584
 11
-60.923283
 21
-141.173584
  0
LINE
  8
0
  6
PHANTOM
 10
-64.473289
 20
-146.173584
 11
-60.923283
 21
-146.173584
  0
LINE
  8
0
  6
PHANTOM
 10
-64.473289
 20
-141.173584
 11
-64.473289
 21
-146.173584
  0
LINE
  8
0
  6
PHANTOM
 10
-54.523285
 20
-146.173584
 11
-50.473289
 21
-146.173584
  0
LINE
  8
0
  6
PHANTOM
 10
-54.523285
 20
-141.173584
 11
-50.473289
 21
-141.173584
  0
LINE
  8
0
  6
PHANTOM
 10
-50.473289
 20
-136.673584
 11
-46.773293
 21
-136.673584
  0
LINE
  8
0
  6
PHANTOM
 10
-50.473289
 20
-150.673584
 11
-46.773293
 21
-150.673584
  0
LINE
  8
0
  6
PHANTOM
 10
5.026711
 20
-127.673592
 11
5.026711
 21
-153.173584
  0
LINE
  8
0
  6
PHANTOM
 10
-64.473289
 20
-51.173592
 11
-64.473289
 21
-56.173592
  0
LINE
  8
0
  6
PHANTOM
 10
5.026711
 20
-43.673592
 11
5.026711
 21
-63.673592
  0
LINE
  8
0
  6
PHANTOM
 10
-64.473289
 20
-51.173592
 11
-60.923283
 21
-51.173592
  0
LINE
  8
0
  6
PHANTOM
 10
-64.473289
 20
-56.173592
 11
-60.923283
 21
-56.173592
  0
LINE
  8
0
  6
PHANTOM
 10
-60.923283
 20
-49.673592
 11
-60.923283
 21
-57.673592
  0
LINE
  8
0
  6
PHANTOM
 10
-54.523285
 20
-49.673592
 11
-54.523285
 21
-57.673592
  0
LINE
  8
0
  6
PHANTOM
 10
-54.523285
 20
-56.173592
 11
-50.473289
 21
-56.173592
  0
LINE
  8
0
  6
PHANTOM
 10
-54.523285
 20
-51.173592
 11
-50.473289
 21
-51.173592
  0
LINE
  8
0
  6
PHANTOM
 10
-50.473289
 20
-46.673592
 11
-46.773293
 21
-46.673592
  0
LINE
  8
0
  6
PHANTOM
 10
-50.473289
 20
-60.673592
 11
-46.773293
 21
-60.673592
  0
LINE
  8
0
 10
-97.473289
 20
-129.264099
 11
-97.473289
 21
-155.188553
  0
LINE
  8
0
  6
PHANTOM
 10
-40.473289
 20
-133.673584
 11
5.026711
 21
-133.673584
  0
LINE
  8
0
  6
PHANTOM
 10
-40.473289
 20
-153.173584
 11
5.026711
 21
-153.173584
  0
LINE
  8
0
  6
PHANTOM
 10
-46.773293
 20
-153.488556
 11
-42.773293
 21
-153.488556
  0
LINE
  8
0
  6
PHANTOM
 10
-46.773293
 20
-133.858643
 11
-42.773293
 21
-133.858643
  0
LINE
  8
0
  6
PHANTOM
 10
-60.923283
 20
-139.054794
 11
-54.523285
 21
-139.054794
  0
LINE
  8
0
  6
PHANTOM
 10
-60.923283
 20
-148.292389
 11
-54.523285
 21
-148.292389
  0
LINE
  8
0
  6
PHANTOM
 10
-46.773293
 20
-62.173592
 11
-42.773293
 21
-62.173592
  0
LINE
  8
0
  6
PHANTOM
 10
-46.773293
 20
-45.173592
 11
-42.773293
 21
-45.173592
  0
LINE
  8
0
  6
PHANTOM
 10
-60.923283
 20
-49.673592
 11
-54.523285
 21
-49.673592
  0
LINE
  8
0
  6
PHANTOM
 10
-60.923283
 20
-57.673592
 11
-54.523285
 21
-57.673592
  0
LINE
  8
0
  6
PHANTOM
 10
-40.473289
 20
-43.673592
 11
5.026711
 21
-43.673592
  0
LINE
  8
0
  6
PHANTOM
 10
-40.473289
 20
-63.673592
 11
5.026711
 21
-63.673592
  0
LINE
  8
0
  6
PHANTOM
 10
-40.473289
 20
-127.673592
 11
5.026711
 21
-127.673592
  0
LINE
  8
0
  6
PHANTOM
 10
-40.473289
 20
-129.173584
 11
5.026711
 21
-129.173584
  0
LINE
  8
0
 10
-67.674149
 20
-53.673592
 11
9.633934
 21
-53.673592
  0
LINE
  8
0
  6
PHANTOM
 10
89.289314
 20
-127.673592
 11
89.289314
 21
-153.173599
  0
LINE
  8
0
  6
PHANTOM
 10
79.289314
 20
-136.673584
 11
79.289314
 21
-150.673599
  0
LINE
  8
0
  6
PHANTOM
 10
75.239319
 20
-139.054794
 11
75.239319
 21
-148.292404
  0
LINE
  8
0
  6
PHANTOM
 10
68.839325
 20
-139.054794
 11
68.839325
 21
-148.292404
  0
LINE
  8
0
  6
PHANTOM
 10
72.039314
 20
-148.292404
 11
72.039314
 21
-139.054794
  0
LINE
  8
0
  6
PHANTOM
 10
89.289314
 20
-49.673592
 11
140.789322
 21
-49.673592
  0
LINE
  8
0
  6
PHANTOM
 10
89.289314
 20
-57.673592
 11
140.789322
 21
-57.673592
  0
LINE
  8
0
  6
PHANTOM
 10
79.289314
 20
-46.673592
 11
79.289314
 21
-60.673592
  0
LINE
  8
0
  6
PHANTOM
 10
72.039314
 20
-57.673592
 11
72.039314
 21
-49.673592
  0
LINE
  8
0
  6
PHANTOM
 10
75.239319
 20
-53.673592
 11
68.839325
 21
-53.673592
  0
LINE
  8
0
  6
PHANTOM
 10
89.289314
 20
-43.673592
 11
89.289314
 21
-63.673592
  0
LINE
  8
0
  6
PHANTOM
 10
86.039314
 20
-133.858643
 11
86.039314
 21
-153.488556
  0
LINE
  8
0
  6
PHANTOM
 10
82.039314
 20
-133.858643
 11
82.039314
 21
-153.488556
  0
LINE
  8
0
  6
PHANTOM
 10
86.039314
 20
-45.173592
 11
86.039314
 21
-62.173592
  0
LINE
  8
0
  6
PHANTOM
 10
82.039314
 20
-45.173592
 11
82.039314
 21
-62.173592
  0
LINE
  8
0
  6
PHANTOM
 10
82.039314
 20
-53.673592
 11
86.039314
 21
-53.673592
  0
LINE
  8
0
  6
PHANTOM
 10
65.289322
 20
-141.173584
 11
68.839325
 21
-141.173584
  0
LINE
  8
0
  6
PHANTOM
 10
65.289322
 20
-146.173599
 11
68.839325
 21
-146.173599
  0
LINE
  8
0
  6
PHANTOM
 10
65.289322
 20
-141.173584
 11
65.289322
 21
-146.173599
  0
LINE
  8
0
  6
PHANTOM
 10
75.239319
 20
-146.173599
 11
78.789314
 21
-146.173599
  0
LINE
  8
0
  6
PHANTOM
 10
75.239319
 20
-141.173584
 11
78.789314
 21
-141.173584
  0
LINE
  8
0
  6
PHANTOM
 10
79.289314
 20
-136.673584
 11
82.039314
 21
-136.673584
  0
LINE
  8
0
  6
PHANTOM
 10
79.289314
 20
-150.673599
 11
82.039314
 21
-150.673599
  0
LINE
  8
0
  6
PHANTOM
 10
86.039314
 20
-150.673599
 11
89.289314
 21
-150.673599
  0
LINE
  8
0
  6
PHANTOM
 10
86.039314
 20
-136.673584
 11
89.289314
 21
-136.673584
  0
LINE
  8
0
  6
PHANTOM
 10
140.789322
 20
-127.673592
 11
140.789322
 21
-153.173599
  0
LINE
  8
0
  6
PHANTOM
 10
65.289322
 20
-51.173592
 11
65.289322
 21
-56.173592
  0
LINE
  8
0
  6
PHANTOM
 10
140.789322
 20
-43.673592
 11
140.789322
 21
-63.673592
  0
LINE
  8
0
  6
PHANTOM
 10
89.289314
 20
-43.673592
 11
140.789322
 21
-43.673592
  0
LINE
  8
0
  6
PHANTOM
 10
89.289314
 20
-63.673592
 11
140.789322
 21
-63.673592
  0
LINE
  8
0
  6
PHANTOM
 10
65.289322
 20
-51.173592
 11
68.839325
 21
-51.173592
  0
LINE
  8
0
  6
PHANTOM
 10
65.289322
 20
-56.173592
 11
68.839325
 21
-56.173592
  0
LINE
  8
0
  6
PHANTOM
 10
68.839325
 20
-49.673592
 11
68.839325
 21
-57.673592
  0
LINE
  8
0
  6
PHANTOM
 10
75.239319
 20
-49.673592
 11
75.239319
 21
-57.673592
  0
LINE
  8
0
  6
PHANTOM
 10
75.239319
 20
-56.173592
 11
78.789314
 21
-56.173592
  0
LINE
  8
0
  6
PHANTOM
 10
75.239319
 20
-51.173592
 11
78.789314
 21
-51.173592
  0
LINE
  8
0
  6
PHANTOM
 10
86.039314
 20
-46.673592
 11
89.289314
 21
-46.673592
  0
LINE
  8
0
  6
PHANTOM
 10
79.289314
 20
-46.673592
 11
82.039314
 21
-46.673592
  0
LINE
  8
0
  6
PHANTOM
 10
86.039314
 20
-60.673592
 11
89.289314
 21
-60.673592
  0
LINE
  8
0
  6
PHANTOM
 10
79.289314
 20
-60.673592
 11
82.039314
 21
-60.673592
  0
LINE
  8
0
  6
PHANTOM
 10
89.289314
 20
-127.673592
 11
140.789322
 21
-127.673592
  0
LINE
  8
0
  6
PHANTOM
 10
89.289314
 20
-128.673584
 11
140.789322
 21
-128.673584
  0
LINE
  8
0
  6
PHANTOM
 10
89.289314
 20
-133.673584
 11
140.789322
 21
-133.673584
  0
LINE
  8
0
  6
PHANTOM
 10
89.289314
 20
-153.173599
 11
140.789322
 21
-153.173599
  0
LINE
  8
0
  6
PHANTOM
 10
82.039314
 20
-153.488556
 11
86.039314
 21
-153.488556
  0
LINE
  8
0
  6
PHANTOM
 10
82.039314
 20
-133.858643
 11
86.039314
 21
-133.858643
  0
LINE
  8
0
  6
PHANTOM
 10
75.239319
 20
-139.054794
 11
68.839325
 21
-139.054794
  0
LINE
  8
0
  6
PHANTOM
 10
75.239319
 20
-148.292404
 11
68.839325
 21
-148.292404
  0
LINE
  8
0
  6
PHANTOM
 10
82.039314
 20
-62.173592
 11
86.039314
 21
-62.173592
  0
LINE
  8
0
  6
PHANTOM
 10
82.039314
 20
-45.173592
 11
86.039314
 21
-45.173592
  0
LINE
  8
0
  6
PHANTOM
 10
68.839325
 20
-49.673592
 11
75.239319
 21
-49.673592
  0
LINE
  8
0
  6
PHANTOM
 10
68.839325
 20
-57.673592
 11
75.239319
 21
-57.673592
  0
LINE
  8
0
  6
PHANTOM
 10
127.789314
 20
-42.673592
 11
139.789322
 21
-42.673592
  0
LINE
  8
0
  6
PHANTOM
 10
127.789314
 20
-64.673592
 11
139.789322
 21
-64.673592
  0
LINE
  8
0
  6
PHANTOM
 10
127.789314
 20
-42.673592
 11
127.789314
 21
-43.673592
  0
LINE
  8
0
  6
PHANTOM
 10
139.789322
 20
-42.673592
 11
139.789322
 21
-43.673592
  0
LINE
  8
0
  6
PHANTOM
 10
127.789314
 20
-63.673592
 11
127.789314
 21
-64.673592
  0
LINE
  8
0
  6
PHANTOM
 10
139.789322
 20
-63.673592
 11
139.789322
 21
-64.673592
  0
LINE
  8
0
  6
PHANTOM
 10
158.789307
 20
-164.673599
 11
158.789307
 21
-122.673592
  0
LINE
  8
0
  6
PHANTOM
 10
156.489319
 20
-164.673599
 11
156.489319
 21
-122.673592
  0
LINE
  8
0
  6
PHANTOM
 10
156.489319
 20
-122.673592
 11
158.789322
 21
-122.673592
  0
LINE
  8
0
  6
PHANTOM
 10
156.489319
 20
-164.673599
 11
158.789322
 21
-164.673599
  0
LINE
  8
0
 10
153.427963
 20
-129.173584
 11
161.685593
 21
-129.173584
  0
LINE
  8
0
 10
153.185089
 20
-158.173599
 11
161.685593
 21
-158.173599
  0
LINE
  8
0
  6
PHANTOM
 10
156.489334
 20
-164.673599
 11
129.763275
 21
-154.946106
  0
LINE
  8
0
  6
PHANTOM
 10
129.763245
 20
-132.401062
 11
156.489304
 21
-122.673569
  0
LINE
  8
0
  6
PHANTOM
 10
156.489319
 20
-155.423599
 11
158.789322
 21
-155.423599
  0
LINE
  8
0
  6
PHANTOM
 10
156.489319
 20
-160.923599
 11
158.789322
 21
-160.923599
  0
LINE
  8
0
  6
PHANTOM
 10
156.489319
 20
-131.923584
 11
158.789322
 21
-131.923584
  0
LINE
  8
0
  6
PHANTOM
 10
156.489319
 20
-126.423592
 11
158.789322
 21
-126.423592
  0
LINE
  8
0
  6
PHANTOM
 10
127.789307
 20
-152.127029
 11
127.789307
 21
-135.220154
  0
LINE
  8
0
  6
PHANTOM
 10
78.789337
 20
-56.173592
 11
79.289330
 21
-56.673592
  0
LINE
  8
0
  6
PHANTOM
 10
78.789314
 20
-51.173588
 11
79.289314
 21
-50.673588
  0
LINE
  8
0
  6
PHANTOM
 10
78.789314
 20
-56.173592
 11
78.789314
 21
-51.173592
  0
LINE
  8
0
  6
PHANTOM
 10
78.789322
 20
-146.173584
 11
79.289322
 21
-146.673584
  0
LINE
  8
0
  6
PHANTOM
 10
78.789330
 20
-141.173599
 11
79.289330
 21
-140.673599
  0
LINE
  8
0
  6
PHANTOM
 10
78.789314
 20
-146.173599
 11
78.789314
 21
-141.173584
  0
LINE
  8
0
 10
64.254990
 20
-143.673584
 11
149.946442
 21
-143.673584
  0
LINE
  8
0
 10
133.789322
 20
-152.843658
 11
133.789322
 21
-134.219727
  0
ARC
  8
0
  6
PHANTOM
 10
130.789307
 20
-152.127029
 40
3.000000
 50
180.000000
 51
249.999969
  0
ARC
  8
0
  6
PHANTOM
 10
130.789307
 20
-135.220154
 40
2.999999
 50
110.000038
 51
180.000000
  0
TEXT
  8
0
 10
188.021667
 20
183.779999
 40
5.800000
  1
DATE: MAY ,1992
 50
0.000000
 41
1.052632
 51
0.000000
  7
STANDARD
  0
TEXT
  8
0
 10
178.000870
 20
-190.300003
 40
7.000000
  1
ＫＯＧＡＮＥＩ，ＣＯＲＰ．
 50
0.000000
 41
0.902367
 51
15.000000
  7
STANDARD
  0
TEXT
  8
0
 10
172.800919
 20
-85.875000
 40
5.000000
  1
MODEL:KNUCKLE Y-NDA16
 50
0.000000
 41
1.052632
 51
0.000000
  7
STANDARD
  0
TEXT
  8
0
 10
172.800919
 20
-173.500000
 40
5.000000
  1
MODEL:KNUCKLE I-NDA16
 50
0.000000
 41
1.052632
 51
0.000000
  7
STANDARD
  0
TEXT
  8
0
 10
-274.100708
 20
-193.500000
 40
5.000000
  1
MODEL:FOOT BRACKET 1A-NDA16
 50
0.000000
 41
1.052632
 51
0.000000
  7
STANDARD
  0
TEXT
  8
0
 10
-106.374062
 20
-193.500000
 40
5.000000
  1
MODEL:FLANGE 3-NDA16
 50
0.000000
 41
1.052632
 51
0.000000
  7
STANDARD
  0
TEXT
  8
0
 10
21.352604
 20
-193.500000
 40
5.000000
  1
MODEL:I TYPE BRACKET 8E-NDA16
 50
0.000000
 41
1.052632
 51
0.000000
  7
STANDARD
  0
TEXT
  8
0
 10
-285.774231
 20
183.779999
 40
5.800000
  1
KNOCK CYLINDER
 50
0.000000
 41
1.213749
 51
0.000000
  7
STANDARD
  0
TEXT
  8
0
 10
-232.822403
 20
1.750000
 40
5.000000
  1
MODEL:NDA16*ST(20)
 50
0.000000
 41
1.052632
 51
0.000000
  7
STANDARD
  0
TEXT
  8
0
 10
-47.539074
 20
1.750000
 40
5.000000
  1
MODEL:NDAS16*ST(20)
 50
0.000000
 41
1.052632
 51
0.000000
  7
STANDARD
  0
TEXT
  8
0
 10
137.744247
 20
1.750000
 40
5.000000
  1
MODEL:NDA16*ST(20)-8
 50
0.000000
 41
1.052632
 51
0.000000
  7
STANDARD
  0
POINT
  8
0
 10
-170.956970
 20
49.762611
  0
POINT
  8
0
 10
-130.456970
 20
49.762611
  0
LINE
  8
0
 10
-170.956970
 20
65.762611
 11
-170.956970
 21
40.262611
  0
LINE
  8
0
 10
-180.956970
 20
56.262611
 11
-180.956970
 21
43.262611
  0
LINE
  8
0
 10
-195.991302
 20
49.762611
 11
-128.232849
 21
49.762611
  0
LINE
  8
0
 10
-185.006958
 20
53.955978
 11
-185.006958
 21
45.569221
  0
LINE
  8
0
 10
-191.406967
 20
53.955994
 11
-191.406967
 21
45.569214
  0
LINE
  8
0
 10
-188.206970
 20
45.569218
 11
-188.206970
 21
53.955994
  0
LINE
  8
0
 10
-180.456970
 20
56.762611
 11
-180.456970
 21
42.762611
  0
LINE
  8
0
 10
-174.206970
 20
58.538330
 11
-174.206970
 21
40.986889
  0
LINE
  8
0
 10
-178.206970
 20
58.627167
 11
-178.206970
 21
40.898052
  0
LINE
  8
0
 10
-194.456970
 20
52.262611
 11
-191.406967
 21
52.262611
  0
LINE
  8
0
 10
-194.456970
 20
47.262611
 11
-191.406967
 21
47.262611
  0
LINE
  8
0
 10
-194.956970
 20
51.762611
 11
-194.956970
 21
47.762611
  0
LINE
  8
0
 10
-194.456909
 20
52.262527
 11
-194.956909
 21
51.762531
  0
LINE
  8
0
 10
-194.956970
 20
47.762615
 11
-194.456970
 21
47.262627
  0
LINE
  8
0
 10
-194.456970
 20
52.262611
 11
-194.456970
 21
47.262611
  0
LINE
  8
0
 10
-194.806976
 20
47.612610
 11
-191.406967
 21
47.612610
  0
LINE
  8
0
 10
-194.806976
 20
51.912613
 11
-191.406967
 21
51.912613
  0
LINE
  8
0
 10
-185.006958
 20
47.262611
 11
-181.456970
 21
47.262611
  0
LINE
  8
0
 10
-185.006958
 20
47.612610
 11
-182.956970
 21
47.612610
  0
LINE
  8
0
 10
-185.006958
 20
52.262611
 11
-181.456970
 21
52.262611
  0
LINE
  8
0
 10
-185.006958
 20
51.912613
 11
-182.956970
 21
51.912613
  0
LINE
  8
0
 10
-180.456970
 20
56.762611
 11
-178.206970
 21
56.762611
  0
LINE
  8
0
 10
-180.456970
 20
42.762611
 11
-178.206970
 21
42.762611
  0
LINE
  8
0
 10
-180.956970
 20
56.262611
 11
-178.206970
 21
56.262611
  0
LINE
  8
0
 10
-180.956970
 20
43.262611
 11
-178.206970
 21
43.262611
  0
LINE
  8
0
 10
-180.956970
 20
43.262630
 11
-180.456970
 21
42.762630
  0
LINE
  8
0
 10
-180.956940
 20
56.262581
 11
-180.456940
 21
56.762569
  0
LINE
  8
0
 10
-174.206970
 20
43.262611
 11
-172.456970
 21
43.262611
  0
LINE
  8
0
 10
-174.206970
 20
42.762611
 11
-170.956970
 21
42.762611
  0
LINE
  8
0
 10
-174.206970
 20
56.762611
 11
-170.956970
 21
56.762611
  0
LINE
  8
0
 10
-174.206970
 20
56.262611
 11
-172.456970
 21
56.262611
  0
LINE
  8
0
 10
-130.456970
 20
65.762611
 11
-130.456970
 21
40.262611
  0
LINE
  8
0
 10
-182.956970
 20
52.262611
 11
-182.956970
 21
47.262611
  0
LINE
  8
0
 10
-182.956985
 20
47.612583
 11
-182.606995
 21
47.262589
  0
LINE
  8
0
 10
-182.957016
 20
51.912647
 11
-182.607010
 21
52.262646
  0
LINE
  8
0
 10
-172.456970
 20
56.762611
 11
-172.456970
 21
42.762611
  0
LINE
  8
0
 10
-172.457016
 20
56.262638
 11
-171.957016
 21
56.762638
  0
LINE
  8
0
 10
-172.457001
 20
43.262604
 11
-171.956985
 21
42.762592
  0
LINE
  8
0
 10
-170.956970
 20
65.762611
 11
-130.456970
 21
65.762611
  0
LINE
  8
0
 10
-170.956970
 20
64.762611
 11
-130.456970
 21
64.762611
  0
LINE
  8
0
 10
-170.956970
 20
59.762611
 11
-130.456970
 21
59.762611
  0
LINE
  8
0
 10
-170.956970
 20
40.262611
 11
-130.456970
 21
40.262611
  0
LINE
  8
0
 10
-177.658264
 20
39.947651
 11
-174.806976
 21
39.947651
  0
LINE
  8
0
 10
-177.658249
 20
44.855129
 11
-174.806976
 21
44.855129
  0
LINE
  8
0
 10
-177.658264
 20
54.670090
 11
-174.806976
 21
54.670090
  0
LINE
  8
0
 10
-177.658264
 20
59.577568
 11
-174.806976
 21
59.577568
  0
LINE
  8
0
 10
-178.206985
 20
40.898041
 11
-177.658279
 21
39.947639
  0
LINE
  8
0
 10
-174.807007
 20
59.577560
 11
-174.207001
 21
58.538319
  0
LINE
  8
0
 10
-178.207001
 20
58.627174
 11
-177.658279
 21
59.577576
  0
LINE
  8
0
 10
-174.806976
 20
39.947651
 11
-174.206970
 21
40.986885
  0
LINE
  8
0
 10
-191.161346
 20
54.381409
 11
-188.452576
 21
54.381409
  0
LINE
  8
0
 10
-191.161346
 20
52.072002
 11
-188.452576
 21
52.072002
  0
LINE
  8
0
 10
-191.161346
 20
47.453205
 11
-188.452576
 21
47.453205
  0
LINE
  8
0
 10
-191.161346
 20
45.143806
 11
-188.452576
 21
45.143806
  0
LINE
  8
0
 10
-191.406967
 20
45.569191
 11
-191.161362
 21
45.143791
  0
LINE
  8
0
 10
-188.452606
 20
54.381374
 11
-188.206985
 21
53.955971
  0
LINE
  8
0
 10
-191.407013
 20
53.955986
 11
-191.161407
 21
54.381401
  0
LINE
  8
0
 10
-188.452621
 20
45.143814
 11
-188.207001
 21
45.569225
  0
LINE
  8
0
 10
-187.961380
 20
45.143810
 11
-188.206985
 21
45.569225
  0
LINE
  8
0
 10
-185.252594
 20
54.381409
 11
-187.961365
 21
54.381409
  0
LINE
  8
0
 10
-185.252594
 20
52.072002
 11
-187.961365
 21
52.072002
  0
LINE
  8
0
 10
-185.252594
 20
47.453205
 11
-187.961365
 21
47.453205
  0
LINE
  8
0
 10
-185.252594
 20
45.143806
 11
-187.961365
 21
45.143806
  0
LINE
  8
0
 10
-185.007019
 20
45.569248
 11
-185.252640
 21
45.143833
  0
LINE
  8
0
 10
-187.961304
 20
54.381374
 11
-188.206909
 21
53.955963
  0
LINE
  8
0
 10
-185.006943
 20
53.956017
 11
-185.252563
 21
54.381439
  0
LINE
  8
0
 10
-181.457001
 20
52.262627
 11
-180.957016
 21
52.762623
  0
LINE
  8
0
 10
-181.457001
 20
47.262592
 11
-180.956985
 21
46.762581
  0
LINE
  8
0
 10
-181.456970
 20
52.262611
 11
-181.456970
 21
47.262611
  0
ARC
  8
0
 10
-172.446289
 20
57.123825
 40
5.760674
 50
154.789413
 51
205.210556
  0
ARC
  8
0
 10
-179.524292
 20
57.123825
 40
5.317323
 50
332.518494
 51
27.481459
  0
ARC
  8
0
 10
-155.987320
 20
49.762611
 40
22.219654
 50
167.240372
 51
192.759644
  0
ARC
  8
0
 10
-194.576263
 20
49.762611
 40
20.369291
 50
346.058838
 51
13.941171
  0
ARC
  8
0
 10
-172.446289
 20
42.401390
 40
5.760675
 50
154.789368
 51
205.210556
  0
ARC
  8
0
 10
-179.524292
 20
42.401390
 40
5.317321
 50
332.518555
 51
27.481459
  0
ARC
  8
0
 10
-188.569824
 20
53.226704
 40
2.837147
 50
155.983871
 51
204.016068
  0
ARC
  8
0
 10
-191.044067
 20
53.226704
 40
2.837105
 50
335.983490
 51
24.016508
  0
ARC
  8
0
 10
-180.426819
 20
49.762604
 40
10.980136
 50
167.858612
 51
192.141373
  0
ARC
  8
0
 10
-199.186935
 20
49.762604
 40
10.979971
 50
347.858459
 51
12.141571
  0
ARC
  8
0
 10
-188.569839
 20
46.298508
 40
2.837133
 50
155.983749
 51
204.016190
  0
ARC
  8
0
 10
-191.044067
 20
46.298508
 40
2.837105
 50
335.983490
 51
24.016579
  0
ARC
  8
0
 10
-177.227005
 20
49.762604
 40
10.979971
 50
167.858444
 51
192.141571
  0
ARC
  8
0
 10
-187.844116
 20
53.226704
 40
2.837145
 50
335.983948
 51
24.016132
  0
ARC
  8
0
 10
-185.369873
 20
53.226704
 40
2.837105
 50
155.983490
 51
204.016571
  0
ARC
  8
0
 10
-185.369873
 20
46.298508
 40
2.837106
 50
155.983429
 51
204.016510
  0
ARC
  8
0
 10
-187.844101
 20
46.298508
 40
2.837131
 50
335.983826
 51
24.016258
  0
ARC
  8
0
 10
-195.987122
 20
49.762604
 40
10.980134
 50
347.858643
 51
12.141406
  0
POINT
  8
0
 10
-245.956970
 20
49.762611
  0
POINT
  8
0
 10
-235.956970
 20
49.762611
  0
LINE
  8
0
 10
-257.456970
 20
49.762611
 11
-234.456970
 21
49.762611
  0
LINE
  8
0
 10
-245.956970
 20
67.935387
 11
-245.956970
 21
38.247654
  0
LINE
  8
0
 10
-249.956970
 20
65.762611
 11
-241.956970
 21
65.762611
  0
LINE
  8
0
 10
-252.956970
 20
40.262611
 11
-246.502487
 21
40.262611
  0
LINE
  8
0
 10
-254.956970
 20
59.762611
 11
-249.456970
 21
59.762611
  0
LINE
  8
0
 10
-249.956970
 20
64.762611
 11
-249.456970
 21
64.762611
  0
LINE
  8
0
 10
-242.456970
 20
64.762611
 11
-242.456970
 21
59.762611
  0
LINE
  8
0
 10
-249.456970
 20
64.762611
 11
-249.456970
 21
59.762611
  0
LINE
  8
0
 10
-241.956970
 20
65.762611
 11
-241.956970
 21
64.762611
  0
LINE
  8
0
 10
-249.956970
 20
65.762611
 11
-249.956970
 21
64.762611
  0
LINE
  8
0
 10
-255.956970
 20
58.762611
 11
-255.956970
 21
43.262611
  0
LINE
  8
0
 10
-235.956970
 20
58.762611
 11
-235.956970
 21
43.262611
  0
LINE
  8
0
 10
-242.456970
 20
64.762611
 11
-241.956970
 21
64.762611
  0
LINE
  8
0
 10
-242.456970
 20
59.762611
 11
-236.956970
 21
59.762611
  0
LINE
  8
0
 10
-245.956970
 20
54.381416
 11
-249.956970
 21
52.072014
  0
LINE
  8
0
 10
-249.956970
 20
52.072014
 11
-249.956970
 21
47.453213
  0
LINE
  8
0
 10
-249.956940
 20
47.453285
 11
-245.956940
 21
45.143883
  0
LINE
  8
0
 10
-245.956985
 20
45.143841
 11
-241.957001
 21
47.453236
  0
LINE
  8
0
 10
-241.956970
 20
47.453209
 11
-241.956970
 21
52.072010
  0
LINE
  8
0
 10
-241.956970
 20
52.072002
 11
-245.956970
 21
54.381405
  0
LINE
  8
0
 10
-254.456970
 20
54.670090
 11
-254.456970
 21
44.855133
  0
LINE
  8
0
 10
-237.456970
 20
54.670090
 11
-237.456970
 21
44.855133
  0
LINE
  8
0
 10
-245.956985
 20
39.947662
 11
-237.456985
 21
44.855141
  0
LINE
  8
0
 10
-254.457001
 20
54.670120
 11
-245.957001
 21
59.577599
  0
LINE
  8
0
 10
-245.956970
 20
59.577560
 11
-237.456970
 21
54.670082
  0
LINE
  8
0
 10
-254.456985
 20
44.855114
 11
-245.956985
 21
39.947636
  0
LINE
  8
0
 10
-245.411453
 20
40.262611
 11
-238.956970
 21
40.262611
  0
ARC
  8
0
 10
-254.956970
 20
58.762611
 40
1.000000
 50
90.000000
 51
180.000000
  0
ARC
  8
0
 10
-236.956970
 20
58.762611
 40
1.000000
 50
0.000000
 51
90.000000
  0
CIRCLE
  8
0
 10
-245.956970
 20
49.762611
 40
7.000000
  0
CIRCLE
  8
0
 10
-245.956970
 20
49.762611
 40
6.499999
  0
CIRCLE
  8
0
 10
-245.956970
 20
49.762611
 40
3.999905
  0
CIRCLE
  8
0
 10
-245.956970
 20
49.762611
 40
2.500000
  0
CIRCLE
  8
0
 10
-245.956970
 20
49.762611
 40
8.500000
  0
CIRCLE
  8
0
 10
-245.956970
 20
49.762611
 40
2.100000
  0
CIRCLE
  8
0
 10
-245.956970
 20
49.762611
 40
6.375000
  0
ARC
  8
0
 10
-252.956970
 20
43.262611
 40
3.000000
 50
180.000000
 51
270.000000
  0
ARC
  8
0
 10
-238.956970
 20
43.262611
 40
3.000000
 50
270.000000
 51
0.000000
  0
POINT
  8
0
 10
-130.456970
 20
139.762604
  0
POINT
  8
0
 10
-170.956970
 20
139.762604
  0
LINE
  8
0
 10
-170.956970
 20
143.762604
 11
-130.456970
 21
143.762604
  0
LINE
  8
0
 10
-170.956970
 20
135.762604
 11
-130.456970
 21
135.762604
  0
LINE
  8
0
 10
-137.456970
 20
143.512604
 11
-137.456970
 21
136.012604
  0
LINE
  8
0
 10
-164.956970
 20
143.512604
 11
-164.956970
 21
136.012604
  0
LINE
  8
0
 10
-145.956970
 20
142.262604
 11
-145.956970
 21
137.262604
  0
LINE
  8
0
 10
-156.456970
 20
142.262604
 11
-156.456970
 21
137.262604
  0
LINE
  8
0
 10
-180.956970
 20
146.262604
 11
-180.956970
 21
133.262604
  0
LINE
  8
0
 10
-172.456970
 20
146.762604
 11
-172.456970
 21
132.762604
  0
LINE
  8
0
 10
-196.506363
 20
139.762604
 11
-129.956970
 21
139.762604
  0
LINE
  8
0
 10
-188.206970
 20
135.762604
 11
-188.206970
 21
143.762604
  0
LINE
  8
0
 10
-180.456970
 20
146.762604
 11
-180.456970
 21
132.762604
  0
LINE
  8
0
 10
-191.161346
 20
139.762604
 11
-188.452591
 21
139.762604
  0
LINE
  8
0
 10
-185.252594
 20
139.762604
 11
-187.961349
 21
139.762604
  0
LINE
  8
0
 10
-170.956970
 20
149.762604
 11
-170.956970
 21
129.762604
  0
LINE
  8
0
 10
-174.206970
 20
148.262604
 11
-174.206970
 21
131.262604
  0
LINE
  8
0
 10
-178.206970
 20
148.262604
 11
-178.206970
 21
131.262604
  0
LINE
  8
0
 10
-177.658249
 20
139.762604
 11
-174.755692
 21
139.762604
  0
LINE
  8
0
 10
-194.956970
 20
141.762604
 11
-194.956970
 21
137.762604
  0
LINE
  8
0
 10
-130.456970
 20
149.762604
 11
-130.456970
 21
129.762604
  0
LINE
  8
0
 10
-194.456970
 20
142.262604
 11
-191.406967
 21
142.262604
  0
LINE
  8
0
 10
-194.456970
 20
137.262604
 11
-191.406967
 21
137.262604
  0
LINE
  8
0
 10
-194.806976
 20
137.612610
 11
-191.406967
 21
137.612610
  0
LINE
  8
0
 10
-194.806976
 20
141.912613
 11
-191.406967
 21
141.912613
  0
LINE
  8
0
 10
-194.456955
 20
142.262589
 11
-194.956955
 21
141.762589
  0
LINE
  8
0
 10
-194.457001
 20
137.262604
 11
-194.956985
 21
137.762589
  0
LINE
  8
0
 10
-194.456970
 20
142.262604
 11
-194.456970
 21
137.262604
  0
LINE
  8
0
 10
-182.956970
 20
142.262604
 11
-182.956970
 21
137.262604
  0
LINE
  8
0
 10
-182.956955
 20
137.612640
 11
-182.606964
 21
137.262650
  0
LINE
  8
0
 10
-182.956985
 20
141.912628
 11
-182.606979
 21
142.262634
  0
LINE
  8
0
 10
-191.406967
 20
143.762604
 11
-191.406967
 21
135.762604
  0
LINE
  8
0
 10
-185.006958
 20
143.762604
 11
-185.006958
 21
135.762604
  0
LINE
  8
0
 10
-185.006958
 20
137.262604
 11
-181.456970
 21
137.262604
  0
LINE
  8
0
 10
-185.006958
 20
137.612610
 11
-182.956970
 21
137.612610
  0
LINE
  8
0
 10
-185.006958
 20
141.912613
 11
-182.956970
 21
141.912613
  0
LINE
  8
0
 10
-185.006958
 20
142.262604
 11
-181.456970
 21
142.262604
  0
LINE
  8
0
 10
-174.206970
 20
146.762604
 11
-170.956970
 21
146.762604
  0
LINE
  8
0
 10
-180.456970
 20
146.762604
 11
-178.206970
 21
146.762604
  0
LINE
  8
0
 10
-174.206970
 20
132.762604
 11
-170.956970
 21
132.762604
  0
LINE
  8
0
 10
-180.456970
 20
132.762604
 11
-178.206970
 21
132.762604
  0
LINE
  8
0
 10
-174.206970
 20
133.262604
 11
-172.456970
 21
133.262604
  0
LINE
  8
0
 10
-180.956970
 20
133.262604
 11
-178.206970
 21
133.262604
  0
LINE
  8
0
 10
-180.956970
 20
146.262604
 11
-178.206970
 21
146.262604
  0
LINE
  8
0
 10
-174.206970
 20
146.262604
 11
-172.456970
 21
146.262604
  0
LINE
  8
0
 10
-172.456985
 20
133.262634
 11
-171.956970
 21
132.762619
  0
LINE
  8
0
 10
-172.457031
 20
146.262680
 11
-171.957031
 21
146.762680
  0
LINE
  8
0
 10
-180.956985
 20
133.262558
 11
-180.456970
 21
132.762543
  0
LINE
  8
0
 10
-180.956955
 20
146.262589
 11
-180.456955
 21
146.762589
  0
LINE
  8
0
 10
-178.206970
 20
131.262604
 11
-174.206970
 21
131.262604
  0
LINE
  8
0
 10
-178.206970
 20
148.262604
 11
-174.206970
 21
148.262604
  0
LINE
  8
0
 10
-191.406967
 20
143.762604
 11
-185.006958
 21
143.762604
  0
LINE
  8
0
 10
-191.406967
 20
135.762604
 11
-185.006958
 21
135.762604
  0
LINE
  8
0
 10
-170.956970
 20
149.762604
 11
-130.456970
 21
149.762604
  0
LINE
  8
0
 10
-170.956970
 20
129.762604
 11
-130.456970
 21
129.762604
  0
LINE
  8
0
 10
-181.456970
 20
137.262634
 11
-180.956970
 21
136.762619
  0
LINE
  8
0
 10
-181.457001
 20
142.262650
 11
-180.957001
 21
142.762650
  0
LINE
  8
0
 10
-181.456970
 20
142.262604
 11
-181.456970
 21
137.262604
  0
CIRCLE
  8
0
 10
-137.456970
 20
139.762604
 40
2.500000
  0
CIRCLE
  8
0
 10
-137.456970
 20
139.762604
 40
2.100000
  0
CIRCLE
  8
0
 10
-164.956970
 20
139.762604
 40
2.500000
  0
CIRCLE
  8
0
 10
-164.956970
 20
139.762604
 40
2.100000
  0
CIRCLE
  8
0
 10
-164.956970
 20
139.762604
 40
0.300000
  0
CIRCLE
  8
0
 10
-145.956970
 20
139.762604
 40
1.500000
  0
CIRCLE
  8
0
 10
-145.956970
 20
139.762604
 40
1.250000
  0
CIRCLE
  8
0
 10
-156.456970
 20
139.762604
 40
1.500000
  0
CIRCLE
  8
0
 10
-156.456970
 20
139.762604
 40
1.250000
  0
ARC
  8
0
 10
-161.473892
 20
144.012604
 40
16.733078
 50
165.286377
 51
194.713577
  0
ARC
  8
0
 10
-190.940048
 20
144.012604
 40
16.733078
 50
345.286377
 51
14.713624
  0
ARC
  8
0
 10
-161.473892
 20
135.512604
 40
16.733078
 50
165.286377
 51
194.713577
  0
ARC
  8
0
 10
-190.940048
 20
135.512604
 40
16.733078
 50
345.286377
 51
14.713624
  0
ARC
  8
0
 10
-183.141525
 20
137.762604
 40
8.265442
 50
165.997086
 51
194.002914
  0
ARC
  8
0
 10
-196.472412
 20
137.762604
 40
8.265442
 50
345.997070
 51
14.002919
  0
ARC
  8
0
 10
-196.472412
 20
141.762604
 40
8.265442
 50
345.997070
 51
14.002919
  0
ARC
  8
0
 10
-183.141525
 20
141.762604
 40
8.265442
 50
165.997086
 51
194.002914
  0
ARC
  8
0
 10
-179.941528
 20
141.762604
 40
8.265442
 50
165.997086
 51
194.002914
  0
ARC
  8
0
 10
-193.272171
 20
141.762604
 40
8.265190
 50
345.996643
 51
14.003354
  0
ARC
  8
0
 10
-193.272171
 20
137.762604
 40
8.265190
 50
345.996643
 51
14.003354
  0
ARC
  8
0
 10
-179.941528
 20
137.762604
 40
8.265442
 50
165.997086
 51
194.002914
  0
CIRCLE
  8
0
 10
-137.456970
 20
139.762604
 40
0.300000
  0
POINT
  8
0
 10
13.614243
 20
40.504448
  0
POINT
  8
0
 10
59.114243
 20
40.504448
  0
LINE
  8
0
 10
13.614243
 20
56.504448
 11
13.614243
 21
31.004448
  0
LINE
  8
0
 10
3.614243
 20
47.004448
 11
3.614243
 21
34.004448
  0
LINE
  8
0
 10
-11.420082
 20
40.504448
 11
63.614243
 21
40.504448
  0
LINE
  8
0
 10
-0.435753
 20
44.697815
 11
-0.435753
 21
36.311058
  0
LINE
  8
0
 10
-6.835751
 20
44.697830
 11
-6.835751
 21
36.311050
  0
LINE
  8
0
 10
-3.635757
 20
36.311050
 11
-3.635757
 21
44.697830
  0
LINE
  8
0
 10
4.114243
 20
47.504448
 11
4.114243
 21
33.504448
  0
LINE
  8
0
 10
10.364243
 20
49.280167
 11
10.364243
 21
31.728725
  0
LINE
  8
0
 10
6.364243
 20
49.369003
 11
6.364243
 21
31.639889
  0
LINE
  8
0
 10
-9.885757
 20
43.004448
 11
-6.835751
 21
43.004448
  0
LINE
  8
0
 10
-9.885757
 20
38.004448
 11
-6.835751
 21
38.004448
  0
LINE
  8
0
 10
-10.385757
 20
42.504448
 11
-10.385757
 21
38.504448
  0
LINE
  8
0
 10
-9.885771
 20
43.004467
 11
-10.385773
 21
42.504467
  0
LINE
  8
0
 10
-10.385761
 20
38.504440
 11
-9.885759
 21
38.004440
  0
LINE
  8
0
 10
-9.885765
 20
43.004448
 11
-9.885765
 21
38.004448
  0
LINE
  8
0
 10
-10.235760
 20
38.354446
 11
-6.835751
 21
38.354446
  0
LINE
  8
0
 10
-10.235756
 20
42.654449
 11
-6.835751
 21
42.654449
  0
LINE
  8
0
 10
-0.435753
 20
38.004448
 11
3.114243
 21
38.004448
  0
LINE
  8
0
 10
-0.435753
 20
38.354446
 11
1.614243
 21
38.354446
  0
LINE
  8
0
 10
-0.435753
 20
43.004448
 11
3.114243
 21
43.004448
  0
LINE
  8
0
 10
-0.435753
 20
42.654449
 11
1.614243
 21
42.654449
  0
LINE
  8
0
 10
4.114243
 20
47.504448
 11
6.364243
 21
47.504448
  0
LINE
  8
0
 10
4.114243
 20
33.504448
 11
6.364243
 21
33.504448
  0
LINE
  8
0
 10
3.614243
 20
47.004448
 11
6.364243
 21
47.004448
  0
LINE
  8
0
 10
3.614243
 20
34.004448
 11
6.364243
 21
34.004448
  0
LINE
  8
0
 10
3.614232
 20
34.004448
 11
4.114232
 21
33.504448
  0
LINE
  8
0
 10
3.614245
 20
47.004456
 11
4.114241
 21
47.504452
  0
LINE
  8
0
 10
10.364243
 20
34.004448
 11
12.114243
 21
34.004448
  0
LINE
  8
0
 10
10.364243
 20
33.504448
 11
13.614243
 21
33.504448
  0
LINE
  8
0
 10
10.364243
 20
47.504448
 11
13.614243
 21
47.504448
  0
LINE
  8
0
 10
10.364243
 20
47.004448
 11
12.114243
 21
47.004448
  0
LINE
  8
0
 10
1.614243
 20
43.004448
 11
1.614243
 21
38.004448
  0
LINE
  8
0
 10
1.614249
 20
38.354454
 11
1.964248
 21
38.004456
  0
LINE
  8
0
 10
1.614244
 20
42.654442
 11
1.964243
 21
43.004440
  0
LINE
  8
0
 10
12.114243
 20
47.504448
 11
12.114243
 21
33.504448
  0
LINE
  8
0
 10
12.114250
 20
47.004444
 11
12.614251
 21
47.504448
  0
LINE
  8
0
 10
12.114252
 20
34.004463
 11
12.614253
 21
33.504463
  0
LINE
  8
0
 10
6.912956
 20
30.689487
 11
9.764236
 21
30.689487
  0
LINE
  8
0
 10
6.912964
 20
35.596966
 11
9.764236
 21
35.596966
  0
LINE
  8
0
 10
6.912956
 20
45.411926
 11
9.764236
 21
45.411926
  0
LINE
  8
0
 10
6.912956
 20
50.319405
 11
9.764236
 21
50.319405
  0
LINE
  8
0
 10
6.364242
 20
31.639885
 11
6.912956
 21
30.689486
  0
LINE
  8
0
 10
9.764258
 20
50.319405
 11
10.364264
 21
49.280167
  0
LINE
  8
0
 10
6.364241
 20
49.368999
 11
6.912959
 21
50.319405
  0
LINE
  8
0
 10
9.764252
 20
30.689480
 11
10.364254
 21
31.728714
  0
LINE
  8
0
 10
-6.590137
 20
45.123245
 11
-3.881371
 21
45.123245
  0
LINE
  8
0
 10
-6.590141
 20
42.813843
 11
-3.881371
 21
42.813843
  0
LINE
  8
0
 10
-6.590141
 20
38.195038
 11
-3.881371
 21
38.195038
  0
LINE
  8
0
 10
-6.590141
 20
35.885643
 11
-3.881367
 21
35.885643
  0
LINE
  8
0
 10
-6.835743
 20
36.311058
 11
-6.590134
 21
35.885651
  0
LINE
  8
0
 10
-3.881367
 20
45.123241
 11
-3.635756
 21
44.697830
  0
LINE
  8
0
 10
-6.835754
 20
44.697826
 11
-6.590141
 21
45.123241
  0
LINE
  8
0
 10
-3.881365
 20
35.885647
 11
-3.635756
 21
36.311054
  0
LINE
  8
0
 10
-3.390152
 20
35.885639
 11
-3.635761
 21
36.311050
  0
LINE
  8
0
 10
-0.681381
 20
45.123245
 11
-3.390144
 21
45.123245
  0
LINE
  8
0
 10
-0.681374
 20
42.813843
 11
-3.390144
 21
42.813843
  0
LINE
  8
0
 10
-0.681374
 20
38.195038
 11
-3.390144
 21
38.195038
  0
LINE
  8
0
 10
-0.681374
 20
35.885643
 11
-3.390148
 21
35.885643
  0
LINE
  8
0
 10
-0.435748
 20
36.311062
 11
-0.681365
 21
35.885647
  0
LINE
  8
0
 10
-3.390150
 20
45.123253
 11
-3.635765
 21
44.697842
  0
LINE
  8
0
 10
-0.435768
 20
44.697803
 11
-0.681397
 21
45.123230
  0
LINE
  8
0
 10
3.114261
 20
43.004444
 11
3.614256
 21
43.504436
  0
LINE
  8
0
 10
3.114244
 20
38.004459
 11
3.614245
 21
37.504459
  0
LINE
  8
0
 10
3.114243
 20
43.004448
 11
3.114243
 21
38.004448
  0
LINE
  8
0
 10
59.114243
 20
56.504448
 11
59.114243
 21
54.004448
  0
LINE
  8
0
 10
13.614243
 20
50.504448
 11
59.114243
 21
50.504448
  0
LINE
  8
0
 10
13.614243
 20
31.004448
 11
59.114243
 21
31.004448
  0
LINE
  8
0
 10
13.614243
 20
56.504448
 11
25.114243
 21
56.504448
  0
LINE
  8
0
 10
13.614243
 20
55.004448
 11
25.114243
 21
55.004448
  0
LINE
  8
0
 10
31.114243
 20
56.504448
 11
40.614243
 21
56.504448
  0
LINE
  8
0
 10
31.114243
 20
55.004448
 11
40.614243
 21
55.004448
  0
LINE
  8
0
 10
46.614246
 20
56.504448
 11
59.114243
 21
56.504448
  0
LINE
  8
0
 10
46.614246
 20
55.004448
 11
59.114243
 21
55.004448
  0
LINE
  8
0
 10
46.414249
 20
59.176270
 11
46.414249
 21
58.504448
  0
LINE
  8
0
 10
40.814240
 20
59.176270
 11
40.814240
 21
58.504448
  0
LINE
  8
0
 10
28.114243
 20
61.404449
 11
28.114243
 21
52.504448
  0
LINE
  8
0
 10
43.614246
 20
61.404449
 11
43.614246
 21
52.504448
  0
LINE
  8
0
 10
25.114243
 20
53.504448
 11
31.114243
 21
53.504448
  0
LINE
  8
0
 10
30.914246
 20
59.176270
 11
30.914246
 21
58.504448
  0
LINE
  8
0
 10
25.314240
 20
59.176270
 11
25.314240
 21
58.504448
  0
LINE
  8
0
 10
25.114243
 20
58.504448
 11
31.114243
 21
58.504448
  0
LINE
  8
0
 10
31.114243
 20
58.504448
 11
31.114243
 21
53.504448
  0
LINE
  8
0
 10
25.114243
 20
58.504448
 11
25.114243
 21
53.504448
  0
LINE
  8
0
 10
46.614246
 20
58.504448
 11
46.614246
 21
53.504448
  0
LINE
  8
0
 10
40.614243
 20
58.504448
 11
40.614243
 21
53.504448
  0
LINE
  8
0
 10
40.614243
 20
58.504448
 11
46.614246
 21
58.504448
  0
LINE
  8
0
 10
40.614243
 20
53.504448
 11
46.614246
 21
53.504448
  0
LINE
  8
0
 10
26.114243
 20
58.004448
 11
30.114243
 21
58.004448
  0
LINE
  8
0
 10
41.614246
 20
58.004448
 11
45.614246
 21
58.004448
  0
LINE
  8
0
 10
26.114243
 20
58.504448
 11
26.114243
 21
58.004448
  0
LINE
  8
0
 10
30.114243
 20
58.504448
 11
30.114243
 21
58.004448
  0
LINE
  8
0
 10
45.614246
 20
58.504448
 11
45.614246
 21
58.004448
  0
LINE
  8
0
 10
41.614246
 20
58.504448
 11
41.614246
 21
58.004448
  0
LINE
  8
0
 10
36.614243
 20
54.504448
 11
36.614243
 21
50.504448
  0
LINE
  8
0
 10
58.614243
 20
54.504448
 11
58.614243
 21
50.504448
  0
LINE
  8
0
 10
58.614243
 20
51.004448
 11
66.114243
 21
51.004448
  0
LINE
  8
0
 10
37.614243
 20
54.504448
 11
37.614243
 21
50.504448
  0
LINE
  8
0
 10
35.614243
 20
52.504448
 11
67.114243
 21
52.504448
  0
LINE
  8
0
 10
36.614243
 20
54.504448
 11
40.614243
 21
54.504448
  0
LINE
  8
0
 10
58.614243
 20
54.004448
 11
66.114243
 21
54.004448
  0
LINE
  8
0
 10
46.614246
 20
54.504448
 11
58.614243
 21
54.504448
  0
LINE
  8
0
 10
59.114243
 20
51.004448
 11
59.114243
 21
31.004448
  0
ARC
  8
0
 10
12.124916
 20
47.865662
 40
5.760675
 50
154.789413
 51
205.210541
  0
ARC
  8
0
 10
5.046928
 20
47.865662
 40
5.317316
 50
332.518463
 51
27.481491
  0
ARC
  8
0
 10
28.583893
 20
40.504448
 40
22.219646
 50
167.240372
 51
192.759644
  0
ARC
  8
0
 10
-10.005043
 20
40.504448
 40
20.369284
 50
346.058838
 51
13.941166
  0
ARC
  8
0
 10
12.124916
 20
33.143227
 40
5.760674
 50
154.789368
 51
205.210541
  0
ARC
  8
0
 10
5.046928
 20
33.143227
 40
5.317315
 50
332.518494
 51
27.481491
  0
ARC
  8
0
 10
-3.998604
 20
43.968536
 40
2.837147
 50
155.983871
 51
204.016129
  0
ARC
  8
0
 10
-6.472862
 20
43.968536
 40
2.837105
 50
335.983490
 51
24.016493
  0
ARC
  8
0
 10
4.144386
 20
40.504440
 40
10.980134
 50
167.858612
 51
192.141373
  0
ARC
  8
0
 10
-14.615726
 20
40.504440
 40
10.979967
 50
347.858459
 51
12.141575
  0
ARC
  8
0
 10
-3.998623
 20
37.040344
 40
2.837129
 50
155.983719
 51
204.016220
  0
ARC
  8
0
 10
-6.472862
 20
37.040344
 40
2.837107
 50
335.983521
 51
24.016579
  0
ARC
  8
0
 10
7.344208
 20
40.504440
 40
10.979967
 50
167.858444
 51
192.141571
  0
ARC
  8
0
 10
-3.272911
 20
43.968536
 40
2.837146
 50
335.983948
 51
24.016140
  0
ARC
  8
0
 10
-0.798653
 20
43.968536
 40
2.837107
 50
155.983505
 51
204.016571
  0
ARC
  8
0
 10
-0.798653
 20
37.040344
 40
2.837106
 50
155.983429
 51
204.016510
  0
ARC
  8
0
 10
-3.272892
 20
37.040344
 40
2.837128
 50
335.983795
 51
24.016296
  0
ARC
  8
0
 10
-11.415901
 20
40.504440
 40
10.980135
 50
347.858643
 51
12.141408
  0
ARC
  8
0
 10
66.426743
 20
51.754448
 40
0.812500
 50
112.619865
 51
247.380142
  0
ARC
  8
0
 10
28.114243
 20
55.404449
 40
5.000000
 50
60.507656
 51
119.492340
  0
ARC
  8
0
 10
25.980911
 20
59.176270
 40
0.666666
 50
119.492393
 51
180.000000
  0
ARC
  8
0
 10
65.801743
 20
51.754448
 40
0.812500
 50
292.619873
 51
67.380135
  0
ARC
  8
0
 10
65.801743
 20
53.254448
 40
0.812500
 50
292.619873
 51
67.380135
  0
ARC
  8
0
 10
45.747578
 20
59.176270
 40
0.666668
 50
0.000000
 51
60.507607
  0
ARC
  8
0
 10
43.614246
 20
55.404449
 40
5.000000
 50
60.507656
 51
119.492340
  0
ARC
  8
0
 10
41.480915
 20
59.176270
 40
0.666666
 50
119.492393
 51
180.000000
  0
ARC
  8
0
 10
30.247574
 20
59.176270
 40
0.666666
 50
0.000000
 51
60.507607
  0
POINT
  8
0
 10
-51.385757
 20
40.504448
  0
POINT
  8
0
 10
-41.385757
 20
40.504448
  0
LINE
  8
0
 10
-62.885757
 20
40.504448
 11
-39.885757
 21
40.504448
  0
LINE
  8
0
 10
-51.385757
 20
61.830902
 11
-51.385757
 21
28.989491
  0
LINE
  8
0
 10
-58.385757
 20
31.004448
 11
-51.931274
 21
31.004448
  0
LINE
  8
0
 10
-61.385757
 20
49.504448
 11
-61.385757
 21
34.004448
  0
LINE
  8
0
 10
-41.385757
 20
49.504448
 11
-41.385757
 21
34.004448
  0
LINE
  8
0
 10
-51.385761
 20
45.123249
 11
-55.385757
 21
42.813850
  0
LINE
  8
0
 10
-55.385757
 20
42.813850
 11
-55.385757
 21
38.195053
  0
LINE
  8
0
 10
-55.385742
 20
38.195091
 11
-51.385738
 21
35.885685
  0
LINE
  8
0
 10
-51.385773
 20
35.885685
 11
-47.385777
 21
38.195087
  0
LINE
  8
0
 10
-47.385757
 20
38.195045
 11
-47.385757
 21
42.813843
  0
LINE
  8
0
 10
-47.385761
 20
42.813839
 11
-51.385761
 21
45.123245
  0
LINE
  8
0
 10
-59.885757
 20
45.411926
 11
-59.885757
 21
35.596970
  0
LINE
  8
0
 10
-42.885757
 20
45.411926
 11
-42.885757
 21
35.596970
  0
LINE
  8
0
 10
-51.385754
 20
30.689495
 11
-42.885750
 21
35.596973
  0
LINE
  8
0
 10
-59.885757
 20
45.411972
 11
-51.385761
 21
50.319443
  0
LINE
  8
0
 10
-51.385754
 20
50.319416
 11
-42.885746
 21
45.411934
  0
LINE
  8
0
 10
-59.885773
 20
35.596947
 11
-51.385765
 21
30.689468
  0
LINE
  8
0
 10
-50.840240
 20
31.004448
 11
-44.385757
 21
31.004448
  0
LINE
  8
0
 10
-60.385757
 20
50.504448
 11
-54.993454
 21
50.504448
  0
LINE
  8
0
 10
-47.778061
 20
50.504448
 11
-42.385757
 21
50.504448
  0
LINE
  8
0
 10
-47.385757
 20
56.504448
 11
-47.385757
 21
55.004448
  0
LINE
  8
0
 10
-55.385757
 20
56.504448
 11
-55.385757
 21
55.004448
  0
LINE
  8
0
 10
-54.885757
 20
55.004448
 11
-54.885757
 21
50.504448
  0
LINE
  8
0
 10
-47.885757
 20
55.004448
 11
-47.885757
 21
50.504448
  0
LINE
  8
0
 10
-55.685776
 20
56.504448
 11
-47.085770
 21
56.504448
  0
LINE
  8
0
 10
-55.385773
 20
55.004448
 11
-54.885773
 21
55.004448
  0
LINE
  8
0
 10
-47.885773
 20
55.004448
 11
-47.385773
 21
55.004448
  0
LINE
  8
0
 10
-55.685776
 20
56.504448
 11
-55.685776
 21
54.504448
  0
LINE
  8
0
 10
-59.135773
 20
54.504448
 11
-54.885773
 21
54.504448
  0
LINE
  8
0
 10
-59.885757
 20
58.304443
 11
-59.885757
 21
53.504448
  0
LINE
  8
0
 10
-59.135757
 20
54.504448
 11
-59.135757
 21
53.504448
  0
LINE
  8
0
 10
-59.885773
 20
53.504448
 11
-59.135773
 21
53.504448
  0
LINE
  8
0
 10
-58.885757
 20
54.504448
 11
-58.885757
 21
50.504448
  0
LINE
  8
0
 10
-47.085770
 20
56.504448
 11
-47.085770
 21
54.504448
  0
LINE
  8
0
 10
-42.885773
 20
58.304451
 11
-59.885773
 21
58.304451
  0
LINE
  8
0
 10
-42.885757
 20
58.304443
 11
-42.885757
 21
53.504448
  0
LINE
  8
0
 10
-42.885773
 20
53.504448
 11
-43.635773
 21
53.504448
  0
LINE
  8
0
 10
-43.635757
 20
54.504448
 11
-43.635757
 21
53.504448
  0
LINE
  8
0
 10
-43.635773
 20
54.504448
 11
-47.885773
 21
54.504448
  0
LINE
  8
0
 10
-43.885757
 20
54.504448
 11
-43.885757
 21
50.504448
  0
LINE
  8
0
 10
-54.385757
 20
58.304443
 11
-54.385757
 21
57.804451
  0
LINE
  8
0
 10
-48.385757
 20
58.304443
 11
-48.385757
 21
57.804451
  0
LINE
  8
0
 10
-54.185760
 20
58.976273
 11
-54.185760
 21
58.304443
  0
LINE
  8
0
 10
-48.585754
 20
58.976273
 11
-48.585754
 21
58.304443
  0
LINE
  8
0
 10
-48.385757
 20
57.804451
 11
-54.385757
 21
57.804451
  0
ARC
  8
0
 10
-60.385757
 20
49.504448
 40
1.000000
 50
90.000000
 51
180.000000
  0
ARC
  8
0
 10
-42.385757
 20
49.504448
 40
1.000000
 50
0.000000
 51
90.000000
  0
CIRCLE
  8
0
 10
-51.385757
 20
40.504448
 40
7.000000
  0
CIRCLE
  8
0
 10
-51.385757
 20
40.504448
 40
6.499999
  0
CIRCLE
  8
0
 10
-51.385757
 20
40.504448
 40
3.999905
  0
CIRCLE
  8
0
 10
-51.385757
 20
40.504448
 40
2.500000
  0
CIRCLE
  8
0
 10
-51.385757
 20
40.504448
 40
8.500000
  0
CIRCLE
  8
0
 10
-51.385757
 20
40.504448
 40
2.100000
  0
CIRCLE
  8
0
 10
-51.385757
 20
40.504448
 40
6.375000
  0
ARC
  8
0
 10
-58.385757
 20
34.004448
 40
3.000000
 50
180.000000
 51
270.000000
  0
ARC
  8
0
 10
-44.385757
 20
34.004448
 40
3.000000
 50
270.000000
 51
0.000000
  0
ARC
  8
0
 10
-53.519089
 20
58.976273
 40
0.666666
 50
119.492393
 51
180.000000
  0
ARC
  8
0
 10
-49.252426
 20
58.976273
 40
0.666668
 50
0.000000
 51
60.507607
  0
ARC
  8
0
 10
-51.385757
 20
55.204445
 40
5.000000
 50
60.507656
 51
119.492340
  0
POINT
  8
0
 10
59.114243
 20
130.504456
  0
POINT
  8
0
 10
13.614243
 20
130.504456
  0
LINE
  8
0
 10
3.614243
 20
137.004456
 11
3.614243
 21
124.004463
  0
LINE
  8
0
 10
12.114243
 20
137.504456
 11
12.114243
 21
123.504463
  0
LINE
  8
0
 10
-11.935154
 20
130.504456
 11
61.947571
 21
130.504456
  0
LINE
  8
0
 10
-3.635757
 20
126.504463
 11
-3.635757
 21
134.504456
  0
LINE
  8
0
 10
4.114243
 20
137.504456
 11
4.114243
 21
123.504463
  0
LINE
  8
0
 10
-6.590130
 20
130.504456
 11
-3.881378
 21
130.504456
  0
LINE
  8
0
 10
-0.681381
 20
130.504456
 11
-3.390137
 21
130.504456
  0
LINE
  8
0
 10
13.614243
 20
140.504456
 11
13.614243
 21
120.504463
  0
LINE
  8
0
 10
10.364243
 20
139.004456
 11
10.364243
 21
122.004463
  0
LINE
  8
0
 10
6.364243
 20
139.004456
 11
6.364243
 21
122.004463
  0
LINE
  8
0
 10
6.912964
 20
130.504456
 11
9.815521
 21
130.504456
  0
LINE
  8
0
 10
-10.385757
 20
132.504456
 11
-10.385757
 21
128.504456
  0
LINE
  8
0
 10
-9.885757
 20
133.004456
 11
-6.835751
 21
133.004456
  0
LINE
  8
0
 10
-9.885757
 20
128.004456
 11
-6.835751
 21
128.004456
  0
LINE
  8
0
 10
-10.235756
 20
128.354431
 11
-6.835751
 21
128.354431
  0
LINE
  8
0
 10
-10.235756
 20
132.654449
 11
-6.835751
 21
132.654449
  0
LINE
  8
0
 10
-9.885790
 20
128.004410
 11
-10.385792
 21
128.504410
  0
LINE
  8
0
 10
-9.885757
 20
133.004456
 11
-9.885757
 21
128.004456
  0
LINE
  8
0
 10
1.614243
 20
133.004456
 11
1.614243
 21
128.004456
  0
LINE
  8
0
 10
1.614282
 20
128.354492
 11
1.964274
 21
128.004486
  0
LINE
  8
0
 10
1.614229
 20
132.654480
 11
1.964222
 21
133.004471
  0
LINE
  8
0
 10
-6.835751
 20
134.504456
 11
-6.835751
 21
126.504463
  0
LINE
  8
0
 10
-0.435753
 20
134.504456
 11
-0.435753
 21
126.504463
  0
LINE
  8
0
 10
-0.435753
 20
128.004456
 11
3.114243
 21
128.004456
  0
LINE
  8
0
 10
-0.435753
 20
128.354431
 11
1.614243
 21
128.354431
  0
LINE
  8
0
 10
-0.435753
 20
132.654449
 11
1.614243
 21
132.654449
  0
LINE
  8
0
 10
-0.435753
 20
133.004456
 11
3.114243
 21
133.004456
  0
LINE
  8
0
 10
10.364243
 20
137.504456
 11
13.614243
 21
137.504456
  0
LINE
  8
0
 10
4.114243
 20
137.504456
 11
6.364243
 21
137.504456
  0
LINE
  8
0
 10
10.364243
 20
123.504463
 11
13.614243
 21
123.504463
  0
LINE
  8
0
 10
4.114250
 20
123.504463
 11
6.364243
 21
123.504463
  0
LINE
  8
0
 10
10.364243
 20
124.004463
 11
12.114243
 21
124.004463
  0
LINE
  8
0
 10
3.614243
 20
124.004463
 11
6.364243
 21
124.004463
  0
LINE
  8
0
 10
3.614243
 20
137.004456
 11
6.364243
 21
137.004456
  0
LINE
  8
0
 10
10.364243
 20
137.004456
 11
12.114243
 21
137.004456
  0
LINE
  8
0
 10
12.114273
 20
124.004456
 11
12.614273
 21
123.504456
  0
LINE
  8
0
 10
12.114230
 20
137.004456
 11
12.614242
 21
137.504456
  0
LINE
  8
0
 10
3.614150
 20
124.004372
 11
4.114155
 21
123.504372
  0
LINE
  8
0
 10
3.614249
 20
137.004440
 11
4.114249
 21
137.504440
  0
LINE
  8
0
 10
6.364243
 20
122.004463
 11
10.364243
 21
122.004463
  0
LINE
  8
0
 10
6.364243
 20
139.004456
 11
10.364243
 21
139.004456
  0
LINE
  8
0
 10
-6.835751
 20
134.504456
 11
-0.435753
 21
134.504456
  0
LINE
  8
0
 10
-6.835751
 20
126.504463
 11
-0.435753
 21
126.504463
  0
LINE
  8
0
 10
3.114273
 20
128.004471
 11
3.614273
 21
127.504471
  0
LINE
  8
0
 10
3.114243
 20
133.004456
 11
3.614244
 21
133.504456
  0
LINE
  8
0
 10
3.114250
 20
133.004456
 11
3.114250
 21
128.004456
  0
LINE
  8
0
 10
52.114246
 20
134.254456
 11
52.114246
 21
126.754463
  0
LINE
  8
0
 10
19.614243
 20
134.254456
 11
19.614243
 21
126.754463
  0
LINE
  8
0
 10
59.114243
 20
140.504456
 11
59.114243
 21
137.504456
  0
LINE
  8
0
 10
13.614243
 20
140.504456
 11
59.114243
 21
140.504456
  0
LINE
  8
0
 10
13.614243
 20
120.504463
 11
59.114243
 21
120.504463
  0
LINE
  8
0
 10
43.614246
 20
133.004456
 11
43.614246
 21
128.004456
  0
LINE
  8
0
 10
28.114243
 20
133.004456
 11
28.114243
 21
128.004456
  0
LINE
  8
0
 10
58.614243
 20
126.504463
 11
58.614243
 21
123.004463
  0
LINE
  8
0
 10
26.614243
 20
130.204437
 11
27.214249
 21
130.204437
  0
LINE
  8
0
 10
26.614243
 20
130.804443
 11
27.214249
 21
130.804443
  0
LINE
  8
0
 10
28.114243
 20
140.004456
 11
28.114243
 21
121.004463
  0
LINE
  8
0
 10
27.814240
 20
131.404449
 11
27.814240
 21
132.004456
  0
LINE
  8
0
 10
29.014244
 20
130.204437
 11
29.614243
 21
130.204437
  0
LINE
  8
0
 10
25.114243
 20
139.004456
 11
25.114243
 21
122.004463
  0
LINE
  8
0
 10
31.114243
 20
139.004456
 11
31.114243
 21
122.004463
  0
LINE
  8
0
 10
25.114243
 20
139.004456
 11
31.114243
 21
139.004456
  0
LINE
  8
0
 10
25.114243
 20
122.004463
 11
31.114243
 21
122.004463
  0
LINE
  8
0
 10
28.414238
 20
131.404449
 11
28.414238
 21
132.004425
  0
LINE
  8
0
 10
29.014244
 20
130.804443
 11
29.614243
 21
130.804443
  0
LINE
  8
0
 10
25.114243
 20
127.504463
 11
26.114243
 21
127.504463
  0
LINE
  8
0
 10
25.114243
 20
133.504456
 11
26.114243
 21
133.504456
  0
LINE
  8
0
 10
30.114243
 20
139.004456
 11
30.114243
 21
133.504456
  0
LINE
  8
0
 10
26.114243
 20
139.004456
 11
26.114243
 21
133.504456
  0
LINE
  8
0
 10
26.114243
 20
127.504463
 11
26.114243
 21
122.004463
  0
LINE
  8
0
 10
30.114243
 20
127.504463
 11
30.114243
 21
122.004463
  0
LINE
  8
0
 10
30.114243
 20
133.504456
 11
31.114243
 21
133.504456
  0
LINE
  8
0
 10
30.114243
 20
127.504463
 11
31.114243
 21
127.504463
  0
LINE
  8
0
 10
26.114243
 20
123.004463
 11
30.114243
 21
123.004463
  0
LINE
  8
0
 10
26.614243
 20
138.004456
 11
29.614243
 21
138.004456
  0
LINE
  8
0
 10
29.614243
 20
138.004456
 11
29.614243
 21
137.504456
  0
LINE
  8
0
 10
26.614243
 20
138.004456
 11
26.614243
 21
137.504456
  0
LINE
  8
0
 10
26.114243
 20
137.504456
 11
26.614243
 21
137.504456
  0
LINE
  8
0
 10
29.614243
 20
137.504456
 11
30.114243
 21
137.504456
  0
LINE
  8
0
 10
26.614235
 20
130.204437
 11
26.614235
 21
130.804443
  0
LINE
  8
0
 10
29.614243
 20
130.204437
 11
29.614243
 21
130.804443
  0
LINE
  8
0
 10
27.814240
 20
129.004456
 11
27.814240
 21
129.604431
  0
LINE
  8
0
 10
28.414238
 20
129.004425
 11
28.414238
 21
129.604431
  0
LINE
  8
0
 10
27.814240
 20
129.004456
 11
28.414246
 21
129.004456
  0
LINE
  8
0
 10
27.814240
 20
132.004456
 11
28.414246
 21
132.004456
  0
LINE
  8
0
 10
29.614243
 20
137.504456
 11
30.114243
 21
137.504456
  0
LINE
  8
0
 10
26.114243
 20
137.504456
 11
26.614243
 21
137.504456
  0
LINE
  8
0
 10
43.614246
 20
120.987923
 11
43.614246
 21
142.666687
  0
LINE
  8
0
 10
46.614246
 20
122.004463
 11
46.614246
 21
139.004425
  0
LINE
  8
0
 10
46.614246
 20
122.004433
 11
40.614243
 21
122.004433
  0
LINE
  8
0
 10
46.614246
 20
139.004425
 11
40.614243
 21
139.004425
  0
LINE
  8
0
 10
46.614246
 20
133.504425
 11
45.614246
 21
133.504425
  0
LINE
  8
0
 10
46.614246
 20
127.504433
 11
45.614246
 21
127.504433
  0
LINE
  8
0
 10
41.614246
 20
122.004463
 11
41.614246
 21
127.504463
  0
LINE
  8
0
 10
45.614246
 20
122.004463
 11
45.614246
 21
127.504463
  0
LINE
  8
0
 10
45.614246
 20
133.504456
 11
45.614246
 21
139.004456
  0
LINE
  8
0
 10
41.614246
 20
133.504456
 11
41.614246
 21
139.004456
  0
LINE
  8
0
 10
41.614246
 20
127.504433
 11
40.614243
 21
127.504433
  0
LINE
  8
0
 10
41.614246
 20
133.504425
 11
40.614243
 21
133.504425
  0
LINE
  8
0
 10
45.114246
 20
123.004433
 11
42.114246
 21
123.004433
  0
LINE
  8
0
 10
42.114246
 20
123.004463
 11
42.114246
 21
123.504463
  0
LINE
  8
0
 10
45.114246
 20
123.004463
 11
45.114246
 21
123.504463
  0
LINE
  8
0
 10
45.614246
 20
123.504433
 11
45.114246
 21
123.504433
  0
LINE
  8
0
 10
42.114246
 20
123.504433
 11
41.614246
 21
123.504433
  0
LINE
  8
0
 10
45.114246
 20
130.804443
 11
45.114246
 21
130.204437
  0
LINE
  8
0
 10
42.114246
 20
130.804443
 11
42.114246
 21
130.204437
  0
LINE
  8
0
 10
43.914249
 20
132.004456
 11
43.914249
 21
131.404449
  0
LINE
  8
0
 10
43.314259
 20
132.004456
 11
43.314259
 21
131.404449
  0
LINE
  8
0
 10
43.914249
 20
132.004425
 11
43.314243
 21
132.004425
  0
LINE
  8
0
 10
43.914249
 20
129.004425
 11
43.314243
 21
129.004425
  0
LINE
  8
0
 10
45.114246
 20
130.804443
 11
44.514240
 21
130.804443
  0
LINE
  8
0
 10
45.114246
 20
130.204437
 11
44.514240
 21
130.204437
  0
LINE
  8
0
 10
43.914249
 20
129.604431
 11
43.914249
 21
129.004456
  0
LINE
  8
0
 10
43.314259
 20
129.604431
 11
43.314259
 21
129.004456
  0
LINE
  8
0
 10
42.714237
 20
130.804443
 11
42.114246
 21
130.804443
  0
LINE
  8
0
 10
42.714237
 20
130.204437
 11
42.114246
 21
130.204437
  0
LINE
  8
0
 10
45.114246
 20
123.504463
 11
45.614246
 21
123.504463
  0
LINE
  8
0
 10
41.614246
 20
123.504463
 11
42.114246
 21
123.504463
  0
LINE
  8
0
 10
40.614243
 20
122.004463
 11
40.614243
 21
139.004456
  0
LINE
  8
0
 10
45.614246
 20
138.004425
 11
41.614246
 21
138.004425
  0
LINE
  8
0
 10
38.614243
 20
126.504463
 11
38.614243
 21
124.004463
  0
LINE
  8
0
 10
38.114243
 20
137.504456
 11
40.614243
 21
137.504456
  0
LINE
  8
0
 10
17.864243
 20
137.004456
 11
17.864243
 21
134.504456
  0
LINE
  8
0
 10
16.114243
 20
138.004456
 11
25.114243
 21
138.004456
  0
LINE
  8
0
 10
37.864243
 20
126.504463
 11
37.864243
 21
123.004463
  0
LINE
  8
0
 10
58.614243
 20
126.504463
 11
66.114243
 21
126.504463
  0
LINE
  8
0
 10
58.614243
 20
123.504463
 11
66.114243
 21
123.504463
  0
LINE
  8
0
 10
16.114243
 20
138.004456
 11
16.114243
 21
134.504456
  0
LINE
  8
0
 10
17.114243
 20
138.004456
 11
17.114243
 21
134.504456
  0
LINE
  8
0
 10
38.114243
 20
138.004456
 11
38.114243
 21
134.504456
  0
LINE
  8
0
 10
46.614246
 20
134.504456
 11
65.614243
 21
134.504456
  0
LINE
  8
0
 10
46.614246
 20
137.504456
 11
65.614243
 21
137.504456
  0
LINE
  8
0
 10
31.114243
 20
138.004456
 11
38.114243
 21
138.004456
  0
LINE
  8
0
 10
13.614243
 20
126.504463
 11
25.114243
 21
126.504463
  0
LINE
  8
0
 10
57.864243
 20
126.504463
 11
57.864243
 21
124.004463
  0
LINE
  8
0
 10
37.114243
 20
137.004456
 11
37.114243
 21
134.504456
  0
LINE
  8
0
 10
15.119225
 20
136.004456
 11
66.414978
 21
136.004456
  0
LINE
  8
0
 10
35.114243
 20
125.004463
 11
66.614243
 21
125.004463
  0
LINE
  8
0
 10
36.614243
 20
126.504463
 11
36.614243
 21
123.004463
  0
LINE
  8
0
 10
36.614243
 20
123.004463
 11
40.614243
 21
123.004463
  0
LINE
  8
0
 10
13.614243
 20
134.504456
 11
25.114243
 21
134.504456
  0
LINE
  8
0
 10
31.114243
 20
126.504463
 11
40.614243
 21
126.504463
  0
LINE
  8
0
 10
46.614246
 20
126.504463
 11
58.614243
 21
126.504463
  0
LINE
  8
0
 10
31.114243
 20
134.504456
 11
40.614243
 21
134.504456
  0
LINE
  8
0
 10
46.614246
 20
123.004463
 11
58.614243
 21
123.004463
  0
LINE
  8
0
 10
59.114243
 20
134.504456
 11
59.114243
 21
126.504463
  0
LINE
  8
0
 10
59.114243
 20
123.504463
 11
59.114243
 21
120.504463
  0
ARC
  8
0
 10
23.097321
 20
134.754456
 40
16.733082
 50
165.286377
 51
194.713562
  0
ARC
  8
0
 10
-6.368835
 20
134.754456
 40
16.733080
 50
345.286377
 51
14.713622
  0
ARC
  8
0
 10
23.097321
 20
126.254463
 40
16.733080
 50
165.286407
 51
194.713593
  0
ARC
  8
0
 10
-6.368835
 20
126.254463
 40
16.733080
 50
345.286377
 51
14.713597
  0
ARC
  8
0
 10
1.429688
 20
128.504456
 40
8.265446
 50
165.997086
 51
194.002853
  0
ARC
  8
0
 10
-11.901203
 20
128.504456
 40
8.265446
 50
345.997101
 51
14.002913
  0
ARC
  8
0
 10
-11.901203
 20
132.504456
 40
8.265446
 50
345.997101
 51
14.002913
  0
ARC
  8
0
 10
1.429688
 20
132.504456
 40
8.265446
 50
165.997086
 51
194.002914
  0
ARC
  8
0
 10
4.629684
 20
132.504456
 40
8.265446
 50
165.997086
 51
194.002914
  0
ARC
  8
0
 10
-8.700954
 20
132.504456
 40
8.265197
 50
345.996643
 51
14.003343
  0
ARC
  8
0
 10
-8.700954
 20
128.504456
 40
8.265197
 50
345.996643
 51
14.003343
  0
ARC
  8
0
 10
4.629684
 20
128.504456
 40
8.265446
 50
165.997086
 51
194.002853
  0
CIRCLE
  8
0
 10
52.114246
 20
130.504456
 40
2.500000
  0
CIRCLE
  8
0
 10
52.114246
 20
130.504456
 40
2.100000
  0
CIRCLE
  8
0
 10
19.614243
 20
130.504456
 40
2.500000
  0
CIRCLE
  8
0
 10
19.614243
 20
130.504456
 40
2.100000
  0
CIRCLE
  8
0
 10
19.614243
 20
130.504456
 40
0.300000
  0
CIRCLE
  8
0
 10
52.114246
 20
130.504456
 40
0.300000
  0
ARC
  8
0
 10
65.926743
 20
135.254456
 40
0.812500
 50
112.619865
 51
247.380142
  0
ARC
  8
0
 10
42.714252
 20
129.604431
 40
0.600002
 50
0.000000
 51
90.000000
  0
ARC
  8
0
 10
44.514240
 20
131.404449
 40
0.600002
 50
180.000000
 51
270.000000
  0
ARC
  8
0
 10
27.214241
 20
129.604431
 40
0.600000
 50
0.000000
 51
90.000000
  0
ARC
  8
0
 10
66.426743
 20
124.254463
 40
0.812500
 50
112.619865
 51
247.380142
  0
ARC
  8
0
 10
65.801743
 20
125.754463
 40
0.812500
 50
292.619873
 51
67.380135
  0
ARC
  8
0
 10
42.714252
 20
131.404449
 40
0.600006
 50
270.000000
 51
0.000000
  0
ARC
  8
0
 10
29.014244
 20
131.404449
 40
0.600000
 50
180.000000
 51
270.000000
  0
ARC
  8
0
 10
65.301743
 20
135.254456
 40
0.812500
 50
292.619873
 51
67.380135
  0
ARC
  8
0
 10
65.801743
 20
124.254463
 40
0.812500
 50
292.619873
 51
67.380135
  0
ARC
  8
0
 10
65.301743
 20
136.754456
 40
0.812500
 50
292.619873
 51
67.380135
  0
ARC
  8
0
 10
27.214241
 20
131.404449
 40
0.600006
 50
270.000000
 51
0.000000
  0
CIRCLE
  8
0
 10
43.614246
 20
130.504456
 40
2.800000
  0
CIRCLE
  8
0
 10
28.114243
 20
130.504456
 40
2.800000
  0
ARC
  8
0
 10
44.514240
 20
129.604431
 40
0.600006
 50
90.000000
 51
180.000000
  0
ARC
  8
0
 10
29.014244
 20
129.604431
 40
0.600006
 50
90.000000
 51
180.000000
  0
POLYLINE
  8
0
 66
     1
  0
VERTEX
  8
0
 10
38.614243
 20
124.004463
  0
VERTEX
  8
0
 10
39.218922
 20
123.626823
  0
VERTEX
  8
0
 10
39.832993
 20
123.504463
  0
VERTEX
  8
0
 10
40.234844
 20
123.662704
  0
VERTEX
  8
0
 10
40.616016
 20
123.882111
  0
SEQEND
  0
POLYLINE
  8
0
 66
     1
  0
VERTEX
  8
0
 10
17.864243
 20
137.004456
  0
VERTEX
  8
0
 10
18.441877
 20
137.386856
  0
VERTEX
  8
0
 10
19.082993
 20
137.504456
  0
VERTEX
  8
0
 10
19.700800
 20
137.219177
  0
VERTEX
  8
0
 10
20.301743
 20
137.004456
  0
VERTEX
  8
0
 10
20.909132
 20
137.263153
  0
VERTEX
  8
0
 10
21.520493
 20
137.504456
  0
VERTEX
  8
0
 10
22.126007
 20
137.255005
  0
VERTEX
  8
0
 10
22.739243
 20
137.004456
  0
VERTEX
  8
0
 10
23.390860
 20
137.259445
  0
VERTEX
  8
0
 10
24.020493
 20
137.504456
  0
VERTEX
  8
0
 10
24.568569
 20
137.269913
  0
VERTEX
  8
0
 10
25.114220
 20
137.009506
  0
SEQEND
  0
POLYLINE
  8
0
 66
     1
  0
VERTEX
  8
0
 10
31.115763
 20
137.495880
  0
VERTEX
  8
0
 10
31.670233
 20
137.226013
  0
VERTEX
  8
0
 10
32.239243
 20
137.004456
  0
VERTEX
  8
0
 10
32.848007
 20
137.251907
  0
VERTEX
  8
0
 10
33.457993
 20
137.504456
  0
VERTEX
  8
0
 10
34.069649
 20
137.263962
  0
VERTEX
  8
0
 10
34.676743
 20
137.004456
  0
VERTEX
  8
0
 10
35.277607
 20
137.218964
  0
VERTEX
  8
0
 10
35.895493
 20
137.504456
  0
VERTEX
  8
0
 10
36.536625
 20
137.386887
  0
VERTEX
  8
0
 10
37.114243
 20
137.004456
  0
SEQEND
  0
POLYLINE
  8
0
 66
     1
  0
VERTEX
  8
0
 10
46.615326
 20
123.572960
  0
VERTEX
  8
0
 10
46.692745
 20
123.525787
  0
VERTEX
  8
0
 10
46.895496
 20
123.504463
  0
VERTEX
  8
0
 10
47.505196
 20
123.753563
  0
VERTEX
  8
0
 10
48.114246
 20
124.004463
  0
VERTEX
  8
0
 10
48.723530
 20
123.754715
  0
VERTEX
  8
0
 10
49.332996
 20
123.504463
  0
VERTEX
  8
0
 10
49.942406
 20
123.754349
  0
VERTEX
  8
0
 10
50.551746
 20
124.004463
  0
VERTEX
  8
0
 10
51.161072
 20
123.754662
  0
VERTEX
  8
0
 10
51.770496
 20
123.504463
  0
VERTEX
  8
0
 10
52.380035
 20
123.753777
  0
VERTEX
  8
0
 10
52.989246
 20
124.004463
  0
VERTEX
  8
0
 10
53.598007
 20
123.757011
  0
VERTEX
  8
0
 10
54.207993
 20
123.504463
  0
VERTEX
  8
0
 10
54.819649
 20
123.744957
  0
VERTEX
  8
0
 10
55.426743
 20
124.004463
  0
VERTEX
  8
0
 10
56.027607
 20
123.789948
  0
VERTEX
  8
0
 10
56.645493
 20
123.504463
  0
VERTEX
  8
0
 10
57.286625
 20
123.622025
  0
VERTEX
  8
0
 10
57.864243
 20
124.004463
  0
SEQEND
  0
POINT
  8
0
 10
196.577164
 20
40.504448
  0
POINT
  8
0
 10
248.077148
 20
40.504448
  0
LINE
  8
0
 10
196.577164
 20
56.504448
 11
196.577164
 21
31.004448
  0
LINE
  8
0
 10
186.577164
 20
47.004456
 11
186.577164
 21
34.004448
  0
LINE
  8
0
 10
171.542847
 20
40.504448
 11
250.301270
 21
40.504448
  0
LINE
  8
0
 10
182.527161
 20
44.697815
 11
182.527161
 21
36.311058
  0
LINE
  8
0
 10
176.127167
 20
44.697830
 11
176.127167
 21
36.311050
  0
LINE
  8
0
 10
179.327164
 20
36.311054
 11
179.327164
 21
44.697830
  0
LINE
  8
0
 10
187.077164
 20
47.504448
 11
187.077164
 21
33.504448
  0
LINE
  8
0
 10
193.327164
 20
49.280167
 11
193.327164
 21
31.728725
  0
LINE
  8
0
 10
189.327164
 20
49.369003
 11
189.327164
 21
31.639889
  0
LINE
  8
0
 10
173.077164
 20
43.004448
 11
176.127167
 21
43.004448
  0
LINE
  8
0
 10
173.077164
 20
38.004448
 11
176.127167
 21
38.004448
  0
LINE
  8
0
 10
172.577164
 20
42.504448
 11
172.577164
 21
38.504448
  0
LINE
  8
0
 10
173.077087
 20
43.004517
 11
172.577072
 21
42.504517
  0
LINE
  8
0
 10
172.577164
 20
38.504433
 11
173.077164
 21
38.004433
  0
LINE
  8
0
 10
173.077148
 20
43.004448
 11
173.077148
 21
38.004448
  0
LINE
  8
0
 10
172.727158
 20
38.354446
 11
176.127167
 21
38.354446
  0
LINE
  8
0
 10
172.727173
 20
42.654449
 11
176.127167
 21
42.654449
  0
LINE
  8
0
 10
182.527161
 20
38.004448
 11
186.077164
 21
38.004448
  0
LINE
  8
0
 10
182.527161
 20
38.354446
 11
184.577164
 21
38.354446
  0
LINE
  8
0
 10
182.527161
 20
43.004448
 11
186.077164
 21
43.004448
  0
LINE
  8
0
 10
182.527161
 20
42.654449
 11
184.577164
 21
42.654449
  0
LINE
  8
0
 10
187.077164
 20
47.504448
 11
189.327164
 21
47.504448
  0
LINE
  8
0
 10
187.077164
 20
33.504448
 11
189.327164
 21
33.504448
  0
LINE
  8
0
 10
186.577164
 20
47.004448
 11
189.327164
 21
47.004448
  0
LINE
  8
0
 10
186.577164
 20
34.004448
 11
189.327164
 21
34.004448
  0
LINE
  8
0
 10
186.577164
 20
34.004429
 11
187.077148
 21
33.504436
  0
LINE
  8
0
 10
186.577148
 20
47.004463
 11
187.077148
 21
47.504463
  0
LINE
  8
0
 10
193.327164
 20
34.004448
 11
195.077164
 21
34.004448
  0
LINE
  8
0
 10
193.327164
 20
33.504448
 11
196.577164
 21
33.504448
  0
LINE
  8
0
 10
193.327164
 20
47.504448
 11
196.577164
 21
47.504448
  0
LINE
  8
0
 10
193.327164
 20
47.004448
 11
195.077164
 21
47.004448
  0
LINE
  8
0
 10
248.077148
 20
56.504448
 11
248.077148
 21
31.004448
  0
LINE
  8
0
 10
184.577164
 20
43.004448
 11
184.577164
 21
38.004448
  0
LINE
  8
0
 10
184.577179
 20
38.354485
 11
184.927170
 21
38.004494
  0
LINE
  8
0
 10
184.577179
 20
42.654400
 11
184.927185
 21
43.004402
  0
LINE
  8
0
 10
195.077164
 20
47.504448
 11
195.077164
 21
33.504448
  0
LINE
  8
0
 10
195.077179
 20
47.004436
 11
195.577194
 21
47.504448
  0
LINE
  8
0
 10
195.077194
 20
34.004478
 11
195.577194
 21
33.504475
  0
LINE
  8
0
 10
196.577164
 20
56.504448
 11
248.077148
 21
56.504448
  0
LINE
  8
0
 10
196.577164
 20
55.504448
 11
248.077148
 21
55.504448
  0
LINE
  8
0
 10
196.577164
 20
50.504448
 11
248.077148
 21
50.504448
  0
LINE
  8
0
 10
196.577164
 20
31.004448
 11
248.077148
 21
31.004448
  0
LINE
  8
0
 10
189.875885
 20
30.689487
 11
192.727158
 21
30.689487
  0
LINE
  8
0
 10
189.875885
 20
35.596966
 11
192.727158
 21
35.596966
  0
LINE
  8
0
 10
189.875885
 20
45.411926
 11
192.727158
 21
45.411926
  0
LINE
  8
0
 10
189.875885
 20
50.319405
 11
192.727158
 21
50.319405
  0
LINE
  8
0
 10
189.327164
 20
31.639908
 11
189.875885
 21
30.689507
  0
LINE
  8
0
 10
192.727188
 20
50.319443
 11
193.327194
 21
49.280201
  0
LINE
  8
0
 10
189.327209
 20
49.368992
 11
189.875931
 21
50.319405
  0
LINE
  8
0
 10
192.727173
 20
30.689503
 11
193.327179
 21
31.728743
  0
LINE
  8
0
 10
176.372787
 20
45.123245
 11
179.081543
 21
45.123245
  0
LINE
  8
0
 10
176.372772
 20
42.813843
 11
179.081543
 21
42.813843
  0
LINE
  8
0
 10
176.372772
 20
38.195042
 11
179.081543
 21
38.195042
  0
LINE
  8
0
 10
176.372772
 20
35.885643
 11
179.081558
 21
35.885643
  0
LINE
  8
0
 10
176.127167
 20
36.311050
 11
176.372772
 21
35.885643
  0
LINE
  8
0
 10
179.081558
 20
45.123245
 11
179.327164
 21
44.697830
  0
LINE
  8
0
 10
176.127213
 20
44.697834
 11
176.372818
 21
45.123234
  0
LINE
  8
0
 10
179.081573
 20
35.885662
 11
179.327194
 21
36.311077
  0
LINE
  8
0
 10
179.572784
 20
35.885632
 11
179.327164
 21
36.311047
  0
LINE
  8
0
 10
182.281540
 20
45.123245
 11
179.572784
 21
45.123245
  0
LINE
  8
0
 10
182.281555
 20
42.813843
 11
179.572784
 21
42.813843
  0
LINE
  8
0
 10
182.281555
 20
38.195042
 11
179.572784
 21
38.195042
  0
LINE
  8
0
 10
182.281555
 20
35.885643
 11
179.572769
 21
35.885643
  0
LINE
  8
0
 10
182.527176
 20
36.311062
 11
182.281555
 21
35.885647
  0
LINE
  8
0
 10
179.572678
 20
45.123314
 11
179.327072
 21
44.697914
  0
LINE
  8
0
 10
182.527115
 20
44.697769
 11
182.281494
 21
45.123196
  0
LINE
  8
0
 10
241.077148
 20
49.958305
 11
241.077148
 21
31.334381
  0
LINE
  8
0
 10
186.077179
 20
38.004498
 11
186.577179
 21
37.504498
  0
LINE
  8
0
 10
186.077209
 20
43.004417
 11
186.577194
 21
43.504406
  0
LINE
  8
0
 10
186.077164
 20
43.004448
 11
186.077164
 21
38.004448
  0
ARC
  8
0
 10
195.087830
 20
47.865662
 40
5.760674
 50
154.789413
 51
205.210556
  0
ARC
  8
0
 10
188.009857
 20
47.865662
 40
5.317323
 50
332.518494
 51
27.481459
  0
ARC
  8
0
 10
211.546814
 20
40.504448
 40
22.219639
 50
167.240356
 51
192.759644
  0
ARC
  8
0
 10
172.957886
 20
40.504448
 40
20.369291
 50
346.058838
 51
13.941171
  0
ARC
  8
0
 10
195.087830
 20
33.143227
 40
5.760675
 50
154.789368
 51
205.210556
  0
ARC
  8
0
 10
188.009857
 20
33.143227
 40
5.317321
 50
332.518555
 51
27.481459
  0
ARC
  8
0
 10
178.964325
 20
43.968536
 40
2.837147
 50
155.983871
 51
204.016129
  0
ARC
  8
0
 10
176.490051
 20
43.968536
 40
2.837105
 50
335.983490
 51
24.016508
  0
ARC
  8
0
 10
187.107300
 20
40.504440
 40
10.980136
 50
167.858612
 51
192.141373
  0
ARC
  8
0
 10
168.347198
 20
40.504440
 40
10.979971
 50
347.858459
 51
12.141571
  0
ARC
  8
0
 10
178.964294
 20
37.040344
 40
2.837133
 50
155.983749
 51
204.016190
  0
ARC
  8
0
 10
176.490051
 20
37.040344
 40
2.837105
 50
335.983490
 51
24.016579
  0
ARC
  8
0
 10
190.307129
 20
40.504440
 40
10.979971
 50
167.858444
 51
192.141571
  0
ARC
  8
0
 10
179.690002
 20
43.968536
 40
2.837145
 50
335.983948
 51
24.016132
  0
ARC
  8
0
 10
182.164276
 20
43.968536
 40
2.837105
 50
155.983490
 51
204.016571
  0
ARC
  8
0
 10
182.164276
 20
37.040344
 40
2.837106
 50
155.983429
 51
204.016510
  0
ARC
  8
0
 10
179.690033
 20
37.040344
 40
2.837131
 50
335.983826
 51
24.016258
  0
ARC
  8
0
 10
171.547028
 20
40.504440
 40
10.980134
 50
347.858643
 51
12.141406
  0
CIRCLE
  8
0
 10
241.077148
 20
40.504448
 40
3.000000
  0
CIRCLE
  8
0
 10
241.077148
 20
40.504448
 40
6.000000
  0
POINT
  8
0
 10
133.577164
 20
40.504448
  0
POINT
  8
0
 10
144.577164
 20
40.504448
  0
LINE
  8
0
 10
122.077164
 20
40.504448
 11
145.077164
 21
40.504448
  0
LINE
  8
0
 10
133.577164
 20
58.677223
 11
133.577164
 21
28.989491
  0
LINE
  8
0
 10
129.577164
 20
56.504448
 11
137.577164
 21
56.504448
  0
LINE
  8
0
 10
126.577164
 20
31.004448
 11
133.031647
 21
31.004448
  0
LINE
  8
0
 10
124.577164
 20
50.504448
 11
130.077164
 21
50.504448
  0
LINE
  8
0
 10
129.577164
 20
55.504448
 11
130.077164
 21
55.504448
  0
LINE
  8
0
 10
137.077164
 20
55.504448
 11
137.077164
 21
50.504448
  0
LINE
  8
0
 10
130.077164
 20
55.504448
 11
130.077164
 21
50.504448
  0
LINE
  8
0
 10
137.577164
 20
56.504448
 11
137.577164
 21
55.504448
  0
LINE
  8
0
 10
129.577164
 20
56.504448
 11
129.577164
 21
55.504448
  0
LINE
  8
0
 10
123.577164
 20
49.504448
 11
123.577164
 21
34.004448
  0
LINE
  8
0
 10
143.577164
 20
49.504448
 11
143.577164
 21
34.004448
  0
LINE
  8
0
 10
137.077164
 20
55.504448
 11
137.577164
 21
55.504448
  0
LINE
  8
0
 10
137.077164
 20
50.504448
 11
142.577164
 21
50.504448
  0
LINE
  8
0
 10
133.577164
 20
45.123253
 11
129.577164
 21
42.813850
  0
LINE
  8
0
 10
129.577164
 20
42.813850
 11
129.577164
 21
38.195049
  0
LINE
  8
0
 10
129.577148
 20
38.195023
 11
133.577148
 21
35.885620
  0
LINE
  8
0
 10
133.577164
 20
35.885590
 11
137.577148
 21
38.194984
  0
LINE
  8
0
 10
137.577164
 20
38.195045
 11
137.577164
 21
42.813843
  0
LINE
  8
0
 10
137.577209
 20
42.813896
 11
133.577194
 21
45.123299
  0
LINE
  8
0
 10
125.077164
 20
45.411926
 11
125.077164
 21
35.596970
  0
LINE
  8
0
 10
142.077164
 20
45.411926
 11
142.077164
 21
35.596970
  0
LINE
  8
0
 10
133.577148
 20
30.689449
 11
142.077133
 21
35.596920
  0
LINE
  8
0
 10
125.077156
 20
45.411926
 11
133.577148
 21
50.319397
  0
LINE
  8
0
 10
133.577209
 20
50.319450
 11
142.077209
 21
45.411976
  0
LINE
  8
0
 10
125.077202
 20
35.596981
 11
133.577209
 21
30.689503
  0
LINE
  8
0
 10
134.122681
 20
31.004448
 11
140.577164
 21
31.004448
  0
LINE
  8
0
 10
122.577164
 20
46.504448
 11
122.577164
 21
34.504448
  0
LINE
  8
0
 10
144.577164
 20
46.504448
 11
144.577164
 21
34.504448
  0
LINE
  8
0
 10
122.577164
 20
46.504448
 11
123.577164
 21
46.504448
  0
LINE
  8
0
 10
122.577164
 20
34.504448
 11
123.577164
 21
34.504448
  0
LINE
  8
0
 10
143.577164
 20
46.504448
 11
144.577164
 21
46.504448
  0
LINE
  8
0
 10
143.577164
 20
34.504448
 11
144.577164
 21
34.504448
  0
ARC
  8
0
 10
124.577164
 20
49.504448
 40
1.000000
 50
90.000000
 51
180.000000
  0
ARC
  8
0
 10
142.577164
 20
49.504448
 40
1.000000
 50
0.000000
 51
90.000000
  0
CIRCLE
  8
0
 10
133.577164
 20
40.504448
 40
7.000000
  0
CIRCLE
  8
0
 10
133.577164
 20
40.504448
 40
6.499999
  0
CIRCLE
  8
0
 10
133.577164
 20
40.504448
 40
3.999905
  0
CIRCLE
  8
0
 10
133.577164
 20
40.504448
 40
2.500000
  0
CIRCLE
  8
0
 10
133.577164
 20
40.504448
 40
8.500000
  0
CIRCLE
  8
0
 10
133.577164
 20
40.504448
 40
2.100000
  0
CIRCLE
  8
0
 10
133.577164
 20
40.504448
 40
6.375000
  0
ARC
  8
0
 10
126.577164
 20
34.004448
 40
3.000000
 50
180.000000
 51
270.000000
  0
ARC
  8
0
 10
140.577164
 20
34.004448
 40
3.000000
 50
270.000000
 51
0.000000
  0
POINT
  8
0
 10
196.577164
 20
130.504456
  0
POINT
  8
0
 10
248.077148
 20
130.504456
  0
LINE
  8
0
 10
196.577164
 20
134.504456
 11
248.077148
 21
134.504456
  0
LINE
  8
0
 10
196.577164
 20
126.504456
 11
248.077148
 21
126.504456
  0
LINE
  8
0
 10
230.077148
 20
134.254456
 11
230.077148
 21
126.754456
  0
LINE
  8
0
 10
202.577164
 20
134.254456
 11
202.577164
 21
126.754456
  0
LINE
  8
0
 10
186.577164
 20
137.004456
 11
186.577164
 21
124.004456
  0
LINE
  8
0
 10
195.077164
 20
137.504456
 11
195.077164
 21
123.504456
  0
LINE
  8
0
 10
171.027771
 20
130.504456
 11
248.577148
 21
130.504456
  0
LINE
  8
0
 10
179.327164
 20
126.504456
 11
179.327164
 21
134.504456
  0
LINE
  8
0
 10
187.077164
 20
137.504456
 11
187.077164
 21
123.504456
  0
LINE
  8
0
 10
176.372787
 20
130.504456
 11
179.081543
 21
130.504456
  0
LINE
  8
0
 10
182.281540
 20
130.504456
 11
179.572784
 21
130.504456
  0
LINE
  8
0
 10
196.577164
 20
140.504456
 11
196.577164
 21
120.504456
  0
LINE
  8
0
 10
193.327164
 20
139.004456
 11
193.327164
 21
122.004456
  0
LINE
  8
0
 10
189.327164
 20
139.004456
 11
189.327164
 21
122.004456
  0
LINE
  8
0
 10
189.875885
 20
130.504456
 11
192.778442
 21
130.504456
  0
LINE
  8
0
 10
172.577164
 20
132.504456
 11
172.577164
 21
128.504456
  0
LINE
  8
0
 10
248.077148
 20
140.504456
 11
248.077148
 21
120.504456
  0
LINE
  8
0
 10
196.577164
 20
140.504456
 11
248.077148
 21
140.504456
  0
LINE
  8
0
 10
196.577164
 20
120.504456
 11
248.077148
 21
120.504456
  0
LINE
  8
0
 10
172.577164
 20
132.504456
 11
176.127167
 21
132.504456
  0
LINE
  8
0
 10
172.577164
 20
128.504456
 11
176.127167
 21
128.504456
  0
LINE
  8
0
 10
173.077164
 20
133.004456
 11
173.077164
 21
128.004456
  0
LINE
  8
0
 10
184.577164
 20
133.004456
 11
184.577164
 21
128.004456
  0
LINE
  8
0
 10
176.127167
 20
134.504456
 11
176.127167
 21
126.504456
  0
LINE
  8
0
 10
182.527161
 20
134.504456
 11
182.527161
 21
126.504456
  0
LINE
  8
0
 10
182.527161
 20
128.504456
 11
184.577164
 21
128.504456
  0
LINE
  8
0
 10
182.527161
 20
132.504456
 11
184.577164
 21
132.504456
  0
LINE
  8
0
 10
193.327164
 20
137.504456
 11
196.577164
 21
137.504456
  0
LINE
  8
0
 10
187.077164
 20
137.504456
 11
189.327164
 21
137.504456
  0
LINE
  8
0
 10
193.327164
 20
123.504456
 11
196.577164
 21
123.504456
  0
LINE
  8
0
 10
187.077179
 20
123.504456
 11
189.327164
 21
123.504456
  0
LINE
  8
0
 10
193.327164
 20
124.004456
 11
195.077164
 21
124.004456
  0
LINE
  8
0
 10
186.577164
 20
124.004456
 11
189.327164
 21
124.004456
  0
LINE
  8
0
 10
186.577164
 20
137.004456
 11
189.327164
 21
137.004456
  0
LINE
  8
0
 10
193.327164
 20
137.004456
 11
195.077164
 21
137.004456
  0
LINE
  8
0
 10
195.077240
 20
124.004478
 11
195.577240
 21
123.504478
  0
LINE
  8
0
 10
195.077164
 20
137.004456
 11
195.577148
 21
137.504456
  0
LINE
  8
0
 10
186.576996
 20
124.004272
 11
187.076996
 21
123.504280
  0
LINE
  8
0
 10
186.577179
 20
137.004456
 11
187.077179
 21
137.504456
  0
LINE
  8
0
 10
189.327164
 20
122.004456
 11
193.327164
 21
122.004456
  0
LINE
  8
0
 10
189.327164
 20
139.004456
 11
193.327164
 21
139.004456
  0
LINE
  8
0
 10
176.127167
 20
134.504456
 11
182.527161
 21
134.504456
  0
LINE
  8
0
 10
176.127167
 20
126.504456
 11
182.527161
 21
126.504456
  0
LINE
  8
0
 10
235.077148
 20
141.504456
 11
247.077148
 21
141.504456
  0
LINE
  8
0
 10
235.077148
 20
119.504456
 11
247.077148
 21
119.504456
  0
LINE
  8
0
 10
241.077148
 20
143.285126
 11
241.077148
 21
117.605316
  0
LINE
  8
0
 10
235.077148
 20
141.504456
 11
235.077148
 21
140.504456
  0
LINE
  8
0
 10
247.077148
 20
141.504456
 11
247.077148
 21
140.504456
  0
LINE
  8
0
 10
235.077148
 20
120.504456
 11
235.077148
 21
119.504456
  0
LINE
  8
0
 10
247.077148
 20
120.504456
 11
247.077148
 21
119.504456
  0
LINE
  8
0
 10
173.077164
 20
133.004456
 11
176.127167
 21
133.004456
  0
LINE
  8
0
 10
173.077164
 20
128.004456
 11
176.127167
 21
128.004456
  0
LINE
  8
0
 10
172.577148
 20
132.504456
 11
173.077148
 21
133.004456
  0
LINE
  8
0
 10
172.577209
 20
128.504486
 11
173.077209
 21
128.004486
  0
LINE
  8
0
 10
184.577240
 20
128.504517
 11
185.077240
 21
128.004517
  0
LINE
  8
0
 10
186.077225
 20
128.004517
 11
186.577225
 21
127.504517
  0
LINE
  8
0
 10
186.077164
 20
133.004471
 11
186.577164
 21
133.504456
  0
LINE
  8
0
 10
184.577164
 20
132.504425
 11
185.077179
 21
133.004440
  0
LINE
  8
0
 10
186.077179
 20
133.004456
 11
186.077179
 21
128.004456
  0
LINE
  8
0
 10
182.527161
 20
133.004456
 11
186.077164
 21
133.004456
  0
LINE
  8
0
 10
182.527161
 20
128.004456
 11
186.077164
 21
128.004456
  0
CIRCLE
  8
0
 10
230.077148
 20
130.504456
 40
2.500000
  0
CIRCLE
  8
0
 10
230.077148
 20
130.504456
 40
2.100000
  0
CIRCLE
  8
0
 10
202.577164
 20
130.504456
 40
2.500000
  0
CIRCLE
  8
0
 10
202.577164
 20
130.504456
 40
2.100000
  0
CIRCLE
  8
0
 10
202.577164
 20
130.504456
 40
0.300000
  0
ARC
  8
0
 10
206.060242
 20
134.754456
 40
16.733078
 50
165.286377
 51
194.713577
  0
ARC
  8
0
 10
176.594086
 20
134.754456
 40
16.733078
 50
345.286377
 51
14.713624
  0
ARC
  8
0
 10
206.060242
 20
126.254456
 40
16.733078
 50
165.286377
 51
194.713593
  0
ARC
  8
0
 10
176.594086
 20
126.254456
 40
16.733078
 50
345.286377
 51
14.713624
  0
ARC
  8
0
 10
184.392609
 20
128.504456
 40
8.265442
 50
165.997086
 51
194.002869
  0
ARC
  8
0
 10
171.061722
 20
128.504456
 40
8.265442
 50
345.997070
 51
14.002919
  0
ARC
  8
0
 10
171.061722
 20
132.504456
 40
8.265442
 50
345.997070
 51
14.002919
  0
ARC
  8
0
 10
184.392609
 20
132.504456
 40
8.265442
 50
165.997086
 51
194.002914
  0
ARC
  8
0
 10
187.592606
 20
132.504456
 40
8.265442
 50
165.997086
 51
194.002914
  0
ARC
  8
0
 10
174.261963
 20
132.504456
 40
8.265190
 50
345.996643
 51
14.003354
  0
ARC
  8
0
 10
174.261963
 20
128.504456
 40
8.265190
 50
345.996643
 51
14.003354
  0
ARC
  8
0
 10
187.592606
 20
128.504456
 40
8.265442
 50
165.997086
 51
194.002869
  0
CIRCLE
  8
0
 10
230.077148
 20
130.504456
 40
0.300000
  0
POINT
  8
0
 10
-191.449554
 20
-143.673584
  0
POINT
  8
0
 10
-145.949554
 20
-143.673584
  0
LINE
  8
0
 10
-191.449554
 20
-132.673584
 11
-191.449554
 21
-157.373581
  0
LINE
  8
0
 10
-193.749557
 20
-132.673584
 11
-193.749557
 21
-157.373581
  0
LINE
  8
0
 10
-193.749557
 20
-132.673584
 11
-191.449554
 21
-132.673584
  0
LINE
  8
0
 10
-189.449554
 20
-161.673584
 11
-177.749557
 21
-161.673584
  0
LINE
  8
0
 10
-189.449554
 20
-159.373581
 11
-177.749557
 21
-159.373581
  0
LINE
  8
0
 10
-177.749557
 20
-159.373581
 11
-177.749557
 21
-161.673584
  0
LINE
  8
0
 10
-183.749557
 20
-157.193207
 11
-183.749557
 21
-164.368439
  0
LINE
  8
0
  6
DASHED
 10
-186.499557
 20
-159.373581
 11
-186.499557
 21
-161.673584
  0
LINE
  8
0
  6
DASHED
 10
-180.999557
 20
-159.373581
 11
-180.999557
 21
-161.673584
  0
ARC
  8
0
 10
-189.449554
 20
-157.373581
 40
2.000000
 50
180.000000
 51
270.000000
  0
ARC
  8
0
 10
-189.449554
 20
-157.373581
 40
4.300003
 50
180.000000
 51
270.000000
  0
POINT
  8
0
 10
-248.449554
 20
-143.673584
  0
POINT
  8
0
 10
-231.156357
 20
-143.673584
  0
LINE
  8
0
 10
-269.165649
 20
-143.673584
 11
-227.007324
 21
-143.673584
  0
LINE
  8
0
 10
-248.449554
 20
-121.314110
 11
-248.449554
 21
-164.383026
  0
LINE
  8
0
 10
-269.949554
 20
-161.673584
 11
-226.949554
 21
-161.673584
  0
LINE
  8
0
 10
-260.493347
 20
-132.673584
 11
-236.405777
 21
-132.673584
  0
LINE
  8
0
  6
DASHED
 10
-269.949554
 20
-159.373581
 11
-226.949554
 21
-159.373581
  0
LINE
  8
0
 10
-226.949554
 20
-159.373596
 11
-226.949554
 21
-161.673584
  0
LINE
  8
0
 10
-269.949554
 20
-159.373581
 11
-269.949554
 21
-161.673584
  0
LINE
  8
0
 10
-263.449554
 20
-157.684402
 11
-263.449554
 21
-163.276825
  0
LINE
  8
0
 10
-233.449554
 20
-157.561493
 11
-233.449554
 21
-163.215378
  0
LINE
  8
0
  6
DASHED
 10
-230.699554
 20
-159.373581
 11
-230.699554
 21
-161.673584
  0
LINE
  8
0
  6
DASHED
 10
-236.199554
 20
-159.373581
 11
-236.199554
 21
-161.673584
  0
LINE
  8
0
  6
DASHED
 10
-260.699554
 20
-159.373581
 11
-260.699554
 21
-161.673584
  0
LINE
  8
0
  6
DASHED
 10
-266.199554
 20
-159.373581
 11
-266.199554
 21
-161.673584
  0
LINE
  8
0
 10
-269.949524
 20
-159.373596
 11
-263.391083
 21
-134.897141
  0
LINE
  8
0
 10
-233.507996
 20
-134.897156
 11
-226.949539
 21
-159.373611
  0
ARC
  8
0
 10
-260.493347
 20
-135.673584
 40
3.000000
 50
90.000000
 51
164.999908
  0
ARC
  8
0
 10
-236.405777
 20
-135.673584
 40
3.000004
 50
15.000010
 51
90.000000
  0
POINT
  8
0
 10
-145.949554
 20
-53.673584
  0
POINT
  8
0
 10
-191.449554
 20
-53.673584
  0
LINE
  8
0
 10
-191.449554
 20
-32.173584
 11
-191.449554
 21
-75.173584
  0
LINE
  8
0
 10
-193.749557
 20
-32.173584
 11
-193.749557
 21
-75.173584
  0
LINE
  8
0
 10
-177.749557
 20
-35.173584
 11
-177.749557
 21
-43.673584
  0
LINE
  8
0
 10
-183.749557
 20
-33.204636
 11
-183.749557
 21
-43.796417
  0
LINE
  8
0
 10
-189.298431
 20
-38.673584
 11
-178.498962
 21
-38.673584
  0
LINE
  8
0
 10
-189.090759
 20
-68.673584
 11
-178.395126
 21
-68.673584
  0
LINE
  8
0
 10
-193.749557
 20
-32.173584
 11
-180.749557
 21
-32.173584
  0
LINE
  8
0
 10
-193.749557
 20
-75.173584
 11
-180.749557
 21
-75.173584
  0
LINE
  8
0
 10
-183.749557
 20
-63.318527
 11
-183.749557
 21
-74.014153
  0
LINE
  8
0
 10
-177.749557
 20
-63.673584
 11
-177.749557
 21
-72.173584
  0
ARC
  8
0
 10
-180.749557
 20
-35.173584
 40
3.000000
 50
0.000000
 51
90.000000
  0
ARC
  8
0
 10
-180.749557
 20
-72.173584
 40
3.000000
 50
270.000000
 51
0.000000
  0
CIRCLE
  8
0
 10
-183.749557
 20
-38.673584
 40
2.750000
  0
CIRCLE
  8
0
 10
-183.749557
 20
-68.673584
 40
2.750000
  0
POINT
  8
0
 10
-40.473289
 20
-143.673584
  0
POINT
  8
0
 10
5.026711
 20
-143.673584
  0
LINE
  8
0
 10
-42.773293
 20
-132.673584
 11
-42.773293
 21
-154.673584
  0
LINE
  8
0
 10
-42.773293
 20
-154.673584
 11
-40.473289
 21
-154.673584
  0
LINE
  8
0
 10
-42.773293
 20
-132.673584
 11
-40.473289
 21
-132.673584
  0
LINE
  8
0
 10
-40.473289
 20
-132.673584
 11
-40.473289
 21
-154.673584
  0
POINT
  8
0
 10
-97.473289
 20
-143.673584
  0
POINT
  8
0
 10
-72.973289
 20
-143.673584
  0
LINE
  8
0
 10
-125.687820
 20
-143.673584
 11
-69.505630
 21
-143.673584
  0
LINE
  8
0
 10
-118.973289
 20
-132.673584
 11
-75.973289
 21
-132.673584
  0
LINE
  8
0
 10
-118.973289
 20
-154.673584
 11
-75.973289
 21
-154.673584
  0
LINE
  8
0
 10
-121.973289
 20
-135.673584
 11
-121.973289
 21
-151.673584
  0
LINE
  8
0
 10
-72.973289
 20
-135.673584
 11
-72.973289
 21
-151.673584
  0
LINE
  8
0
 10
-79.473289
 20
-137.390793
 11
-79.473289
 21
-149.610413
  0
LINE
  8
0
 10
-115.473289
 20
-137.671692
 11
-115.473289
 21
-149.610413
  0
ARC
  8
0
 10
-118.973289
 20
-135.673584
 40
3.000000
 50
90.000000
 51
180.000000
  0
ARC
  8
0
 10
-118.973289
 20
-151.673584
 40
3.000000
 50
180.000000
 51
270.000000
  0
ARC
  8
0
 10
-75.973289
 20
-135.673584
 40
3.000000
 50
0.000000
 51
90.000000
  0
ARC
  8
0
 10
-75.973289
 20
-151.673584
 40
3.000000
 50
270.000000
 51
0.000000
  0
CIRCLE
  8
0
 10
-79.473289
 20
-143.673584
 40
2.750000
  0
CIRCLE
  8
0
 10
-115.473289
 20
-143.673584
 40
2.750000
  0
POINT
  8
0
 10
-40.473289
 20
-53.673592
  0
POINT
  8
0
 10
5.026711
 20
-53.673592
  0
LINE
  8
0
 10
-40.473289
 20
-29.173592
 11
-40.473289
 21
-78.173592
  0
LINE
  8
0
 10
-42.773293
 20
-29.173592
 11
-42.773293
 21
-78.173592
  0
LINE
  8
0
 10
-42.773293
 20
-29.173592
 11
-40.473289
 21
-29.173592
  0
LINE
  8
0
 10
-42.773293
 20
-78.173592
 11
-40.473289
 21
-78.173592
  0
LINE
  8
0
 10
-49.988075
 20
-71.673592
 11
-35.337486
 21
-71.673592
  0
LINE
  8
0
 10
-49.988075
 20
-35.673592
 11
-34.930527
 21
-35.673592
  0
POINT
  8
0
 10
133.789322
 20
-143.673584
  0
POINT
  8
0
 10
146.527191
 20
-143.673584
  0
LINE
  8
0
  6
DASHED
 10
145.539322
 20
-166.373596
 11
145.539322
 21
-168.673599
  0
LINE
  8
0
 10
125.335884
 20
-137.673584
 11
142.242752
 21
-137.673584
  0
LINE
  8
0
  6
DASHED
 10
151.039322
 20
-166.373596
 11
151.039322
 21
-168.673599
  0
LINE
  8
0
  6
DASHED
 10
116.539314
 20
-166.373596
 11
116.539314
 21
-168.673599
  0
LINE
  8
0
 10
112.789314
 20
-168.673599
 11
154.789322
 21
-168.673599
  0
LINE
  8
0
  6
DASHED
 10
112.789314
 20
-166.373596
 11
154.789322
 21
-166.373596
  0
LINE
  8
0
 10
154.789322
 20
-166.373596
 11
154.789322
 21
-168.673599
  0
LINE
  8
0
 10
112.789314
 20
-166.373581
 11
112.789314
 21
-168.673599
  0
LINE
  8
0
 10
148.289322
 20
-163.312241
 11
148.289322
 21
-171.569855
  0
LINE
  8
0
 10
119.289314
 20
-163.069366
 11
119.289314
 21
-171.569855
  0
LINE
  8
0
 10
112.789314
 20
-166.373596
 11
122.516800
 21
-139.647537
  0
LINE
  8
0
 10
145.061829
 20
-139.647522
 11
154.789307
 21
-166.373581
  0
LINE
  8
0
  6
DASHED
 10
122.039314
 20
-166.373596
 11
122.039314
 21
-168.673599
  0
LINE
  8
0
 10
130.657639
 20
-148.366669
 11
130.810318
 21
-147.796829
  0
LINE
  8
0
 10
132.197342
 20
-149.322952
 11
132.328079
 21
-148.581497
  0
LINE
  8
0
 10
132.453049
 20
-147.872818
 11
132.568298
 21
-147.219162
  0
LINE
  8
0
 10
135.251678
 20
-148.581314
 11
135.382401
 21
-149.322708
  0
LINE
  8
0
 10
136.769165
 20
-147.796524
 11
136.921860
 21
-148.366364
  0
LINE
  8
0
 10
135.011459
 20
-147.218933
 11
135.126724
 21
-147.872620
  0
ARC
  8
0
 10
142.242752
 20
-140.673584
 40
2.999999
 50
20.000036
 51
90.000000
  0
ARC
  8
0
 10
125.335884
 20
-140.673584
 40
3.000000
 50
90.000000
 51
159.999969
  0
ARC
  8
0
 10
133.789322
 20
-143.298584
 40
4.999999
 50
309.563690
 51
230.436935
  0
CIRCLE
  8
0
 10
133.789322
 20
-143.673584
 40
3.750000
  0
CIRCLE
  8
0
 10
133.789322
 20
-143.673584
 40
3.000000
  0
ARC
  8
0
 10
133.821991
 20
-143.300018
 40
6.249992
 50
241.512894
 51
254.908661
  0
ARC
  8
0
 10
130.206589
 20
-147.635040
 40
0.624994
 50
345.000183
 51
50.436394
  0
ARC
  8
0
 10
131.019852
 20
-148.463699
 40
0.375007
 50
164.999649
 51
241.511978
  0
ARC
  8
0
 10
132.285965
 20
-148.208710
 40
0.374998
 50
63.632004
 51
276.366180
  0
ARC
  8
0
 10
137.372086
 20
-147.634995
 40
0.625004
 50
129.563614
 51
194.999802
  0
ARC
  8
0
 10
135.292725
 20
-148.208694
 40
0.375001
 50
263.643341
 51
116.354446
  0
ARC
  8
0
 10
133.756622
 20
-143.300018
 40
6.249992
 50
285.092529
 51
298.487732
  0
ARC
  8
0
 10
136.558823
 20
-148.463669
 40
0.374995
 50
298.488037
 51
15.000347
  0
POINT
  8
0
 10
43.289322
 20
-143.673584
  0
POINT
  8
0
 10
58.839317
 20
-143.673584
  0
LINE
  8
0
 10
25.570187
 20
-143.673584
 11
60.589401
 21
-143.673584
  0
LINE
  8
0
 10
43.289322
 20
-125.500816
 11
43.289322
 21
-170.257370
  0
LINE
  8
0
 10
33.589317
 20
-168.673599
 11
52.989319
 21
-168.673599
  0
LINE
  8
0
 10
56.789322
 20
-137.673584
 11
56.789322
 21
-164.873596
  0
LINE
  8
0
 10
29.789322
 20
-137.673584
 11
29.789322
 21
-164.873596
  0
LINE
  8
0
 10
33.589317
 20
-166.373596
 11
52.989319
 21
-166.373596
  0
LINE
  8
0
 10
32.089317
 20
-137.673584
 11
32.089317
 21
-164.873596
  0
LINE
  8
0
 10
54.489319
 20
-137.673584
 11
54.489319
 21
-164.873596
  0
LINE
  8
0
 10
27.739319
 20
-140.673584
 11
28.739319
 21
-140.673584
  0
LINE
  8
0
 10
27.739319
 20
-146.673599
 11
28.739319
 21
-146.673599
  0
LINE
  8
0
 10
58.839317
 20
-140.673584
 11
58.839317
 21
-146.673599
  0
LINE
  8
0
 10
27.739319
 20
-140.673584
 11
27.739319
 21
-146.673599
  0
LINE
  8
0
 10
57.039322
 20
-139.673584
 11
57.039322
 21
-147.673599
  0
LINE
  8
0
 10
29.539322
 20
-139.673584
 11
29.539322
 21
-147.673599
  0
LINE
  8
0
 10
28.739319
 20
-139.673584
 11
28.739319
 21
-147.673599
  0
LINE
  8
0
 10
57.839317
 20
-139.673584
 11
57.839317
 21
-147.673599
  0
LINE
  8
0
 10
28.739319
 20
-139.673584
 11
29.539318
 21
-139.673584
  0
LINE
  8
0
 10
28.739319
 20
-147.673599
 11
29.539318
 21
-147.673599
  0
LINE
  8
0
 10
57.039318
 20
-139.673584
 11
57.839317
 21
-139.673584
  0
LINE
  8
0
 10
54.289318
 20
-140.673584
 11
54.489319
 21
-140.673584
  0
LINE
  8
0
 10
54.289318
 20
-146.673599
 11
54.489319
 21
-146.673599
  0
LINE
  8
0
 10
57.039318
 20
-147.673599
 11
57.839317
 21
-147.673599
  0
LINE
  8
0
 10
32.089317
 20
-146.673599
 11
32.289318
 21
-146.673599
  0
LINE
  8
0
 10
29.539318
 20
-146.673599
 11
29.789318
 21
-146.673599
  0
LINE
  8
0
 10
29.539318
 20
-140.673584
 11
29.789318
 21
-140.673584
  0
LINE
  8
0
 10
32.089317
 20
-140.673584
 11
32.289318
 21
-140.673584
  0
LINE
  8
0
 10
56.789318
 20
-140.673584
 11
57.039318
 21
-140.673584
  0
LINE
  8
0
 10
57.839317
 20
-140.673584
 11
58.839317
 21
-140.673584
  0
LINE
  8
0
 10
57.839317
 20
-146.673599
 11
58.839317
 21
-146.673599
  0
LINE
  8
0
 10
56.789318
 20
-146.673599
 11
57.039318
 21
-146.673599
  0
LINE
  8
0
 10
29.789318
 20
-137.673584
 11
32.089317
 21
-137.673584
  0
LINE
  8
0
 10
54.489319
 20
-137.673584
 11
56.789318
 21
-137.673584
  0
LINE
  8
0
  6
DASHED
 10
40.539322
 20
-166.373596
 11
40.539322
 21
-168.673599
  0
LINE
  8
0
  6
DASHED
 10
46.039322
 20
-166.373596
 11
46.039322
 21
-168.673599
  0
ARC
  8
0
 10
33.589317
 20
-164.873596
 40
1.500000
 50
180.000000
 51
270.000000
  0
ARC
  8
0
 10
52.989319
 20
-164.873596
 40
1.500000
 50
270.000000
 51
0.000000
  0
ARC
  8
0
 10
33.589317
 20
-164.873596
 40
3.799999
 50
180.000000
 51
270.000000
  0
ARC
  8
0
 10
52.989319
 20
-164.873596
 40
3.800003
 50
270.000000
 51
0.000000
  0
POINT
  8
0
 10
133.789322
 20
-53.673592
  0
POINT
  8
0
 10
154.789322
 20
-53.673592
  0
LINE
  8
0
 10
63.739922
 20
-53.673592
 11
157.581177
 21
-53.673592
  0
LINE
  8
0
 10
133.789322
 20
-36.399910
 11
133.789322
 21
-70.842163
  0
LINE
  8
0
 10
154.789322
 20
-40.173592
 11
154.789322
 21
-67.173592
  0
LINE
  8
0
 10
112.789314
 20
-40.173592
 11
112.789314
 21
-43.673592
  0
LINE
  8
0
 10
112.789314
 20
-67.173592
 11
154.789322
 21
-67.173592
  0
LINE
  8
0
 10
112.789314
 20
-40.173592
 11
154.789322
 21
-40.173592
  0
LINE
  8
0
 10
112.789314
 20
-42.473595
 11
154.789322
 21
-42.473595
  0
LINE
  8
0
 10
112.789314
 20
-64.873596
 11
154.789322
 21
-64.873596
  0
LINE
  8
0
 10
112.789314
 20
-63.673592
 11
112.789314
 21
-67.173592
  0
LINE
  8
0
 10
148.289322
 20
-48.948860
 11
148.289322
 21
-58.234524
  0
LINE
  8
0
 10
136.789322
 20
-38.123589
 11
136.789322
 21
-39.123589
  0
LINE
  8
0
 10
130.789307
 20
-38.123589
 11
130.789307
 21
-39.123589
  0
LINE
  8
0
 10
130.789307
 20
-38.123589
 11
136.789322
 21
-38.123589
  0
LINE
  8
0
 10
130.789307
 20
-69.223587
 11
136.789322
 21
-69.223587
  0
LINE
  8
0
 10
129.789307
 20
-67.423592
 11
137.789322
 21
-67.423592
  0
LINE
  8
0
 10
129.789307
 20
-39.923592
 11
137.789322
 21
-39.923592
  0
LINE
  8
0
 10
129.789307
 20
-68.223587
 11
137.789322
 21
-68.223587
  0
LINE
  8
0
 10
129.789307
 20
-39.123589
 11
137.789322
 21
-39.123589
  0
LINE
  8
0
 10
129.789307
 20
-39.123589
 11
129.789307
 21
-39.923592
  0
LINE
  8
0
 10
137.789322
 20
-39.123589
 11
137.789322
 21
-39.923592
  0
LINE
  8
0
 10
129.789307
 20
-67.423592
 11
129.789307
 21
-68.223587
  0
LINE
  8
0
 10
130.789307
 20
-64.673592
 11
130.789307
 21
-64.873596
  0
LINE
  8
0
 10
136.789322
 20
-64.673592
 11
136.789322
 21
-64.873596
  0
LINE
  8
0
 10
137.789322
 20
-67.423592
 11
137.789322
 21
-68.223587
  0
LINE
  8
0
 10
130.789307
 20
-67.173592
 11
130.789307
 21
-67.423592
  0
LINE
  8
0
 10
130.789307
 20
-68.223587
 11
130.789307
 21
-69.223587
  0
LINE
  8
0
 10
136.789322
 20
-67.173592
 11
136.789322
 21
-67.423592
  0
LINE
  8
0
 10
136.789322
 20
-68.223587
 11
136.789322
 21
-69.223587
  0
LINE
  8
0
 10
136.789322
 20
-42.473595
 11
136.789322
 21
-42.673592
  0
LINE
  8
0
 10
136.789322
 20
-39.923592
 11
136.789322
 21
-40.173592
  0
LINE
  8
0
 10
130.789307
 20
-39.923592
 11
130.789307
 21
-40.173592
  0
LINE
  8
0
 10
130.789307
 20
-42.473595
 11
130.789307
 21
-42.673592
  0
CIRCLE
  8
0
 10
148.289322
 20
-53.673592
 40
2.750000
  0
POINT
  8
0
 10
235.877625
 20
-24.288223
  0
POINT
  8
0
 10
245.877625
 20
-24.288223
  0
LINE
  8
0
 10
235.877625
 20
-18.288208
 11
235.877625
 21
-30.288208
  0
LINE
  8
0
 10
209.485336
 20
-30.288223
 11
235.877640
 21
-30.288223
  0
LINE
  8
0
 10
209.485336
 20
-18.288223
 11
235.877640
 21
-18.288223
  0
LINE
  8
0
  6
DASHED
 10
224.877625
 20
-18.288210
 11
224.877625
 21
-30.288210
  0
LINE
  8
0
 10
214.877625
 20
-12.260075
 11
214.877625
 21
-36.812656
  0
LINE
  8
0
 10
206.479233
 20
-24.288223
 11
237.766251
 21
-24.288223
  0
LINE
  8
0
  6
DASHED
 10
224.877625
 20
-21.788223
 11
235.877625
 21
-21.788223
  0
LINE
  8
0
  6
DASHED
 10
224.877625
 20
-22.188223
 11
235.877625
 21
-22.188223
  0
LINE
  8
0
  6
DASHED
 10
224.877625
 20
-26.388224
 11
235.877625
 21
-26.388224
  0
LINE
  8
0
  6
DASHED
 10
224.877625
 20
-26.788223
 11
235.877625
 21
-26.788223
  0
CIRCLE
  8
0
 10
214.877640
 20
-24.288204
 40
2.550000
  0
ARC
  8
0
 10
219.536301
 20
-24.288223
 40
10.499454
 50
145.148041
 51
214.851959
  0
ARC
  8
0
 10
219.877640
 20
-24.288223
 40
11.999998
 50
150.000000
 51
209.999985
  0
ARC
  8
0
 10
215.877625
 20
-24.288223
 40
11.999999
 50
330.000000
 51
30.000004
  0
POINT
  8
0
 10
245.877625
 20
-58.288231
  0
POINT
  8
0
 10
235.877625
 20
-58.288231
  0
LINE
  8
0
 10
235.877625
 20
-52.288216
 11
235.877625
 21
-64.288208
  0
LINE
  8
0
 10
209.036850
 20
-64.288223
 11
235.877640
 21
-64.288223
  0
LINE
  8
0
 10
209.036850
 20
-52.288231
 11
235.877640
 21
-52.288231
  0
LINE
  8
0
 10
224.877625
 20
-55.038231
 11
224.877625
 21
-61.538227
  0
LINE
  8
0
 10
214.877625
 20
-48.910713
 11
214.877625
 21
-68.400940
  0
LINE
  8
0
 10
200.860733
 20
-58.288231
 11
240.124405
 21
-58.288231
  0
LINE
  8
0
  6
DASHED
 10
224.877625
 20
-60.788231
 11
235.877625
 21
-60.788231
  0
LINE
  8
0
 10
224.877625
 20
-55.788231
 11
235.877625
 21
-55.788231
  0
LINE
  8
0
  6
DASHED
 10
224.877625
 20
-60.388233
 11
235.877625
 21
-60.388233
  0
LINE
  8
0
 10
224.877625
 20
-56.188229
 11
235.877625
 21
-56.188229
  0
LINE
  8
0
 10
217.427643
 20
-52.288231
 11
217.427643
 21
-55.038231
  0
LINE
  8
0
 10
212.327637
 20
-52.288231
 11
212.327637
 21
-55.038231
  0
LINE
  8
0
  6
DASHED
 10
217.427643
 20
-61.538227
 11
217.427643
 21
-64.288223
  0
LINE
  8
0
  6
DASHED
 10
212.327637
 20
-61.538227
 11
212.327637
 21
-64.288223
  0
LINE
  8
0
 10
207.877640
 20
-61.538227
 11
224.877625
 21
-61.538227
  0
LINE
  8
0
 10
207.877640
 20
-55.038231
 11
224.877625
 21
-55.038231
  0
ARC
  8
0
 10
219.429153
 20
-58.288219
 40
12.000001
 50
195.713898
 51
209.999985
  0
ARC
  8
0
 10
219.429153
 20
-58.288219
 40
12.000001
 50
149.999985
 51
164.286209
  0
ARC
  8
0
 10
215.877625
 20
-58.288231
 40
11.999995
 50
330.000031
 51
0.000000
  0
POINT
  8
0
 10
235.877625
 20
-111.690125
  0
POINT
  8
0
 10
245.877625
 20
-111.690125
  0
LINE
  8
0
 10
198.610062
 20
-111.690125
 11
238.358917
 21
-111.690125
  0
LINE
  8
0
 10
210.877625
 20
-101.999207
 11
210.877625
 21
-120.283646
  0
LINE
  8
0
 10
205.485382
 20
-117.690125
 11
235.877655
 21
-117.690125
  0
LINE
  8
0
 10
205.485382
 20
-105.690125
 11
235.877655
 21
-105.690125
  0
LINE
  8
0
 10
235.877625
 20
-105.690109
 11
235.877625
 21
-117.690109
  0
LINE
  8
0
 10
224.877625
 20
-117.690125
 11
224.877625
 21
-105.690125
  0
LINE
  8
0
  6
DASHED
 10
227.877625
 20
-114.190125
 11
235.877625
 21
-114.190125
  0
LINE
  8
0
  6
DASHED
 10
227.877625
 20
-109.190125
 11
235.877625
 21
-109.190125
  0
LINE
  8
0
  6
DASHED
 10
225.877625
 20
-113.790123
 11
235.877625
 21
-113.790123
  0
LINE
  8
0
  6
DASHED
 10
225.877625
 20
-109.590126
 11
235.877625
 21
-109.590126
  0
LINE
  8
0
  6
DASHED
 10
227.877625
 20
-109.190125
 11
227.877625
 21
-114.190125
  0
LINE
  8
0
  6
DASHED
 10
225.877670
 20
-113.790100
 11
224.665237
 21
-111.690094
  0
LINE
  8
0
  6
DASHED
 10
225.877686
 20
-109.590149
 11
224.665253
 21
-111.690132
  0
LINE
  8
0
  6
DASHED
 10
225.877625
 20
-109.590126
 11
225.877625
 21
-113.790123
  0
CIRCLE
  8
0
 10
210.877625
 20
-111.690125
 40
2.550003
  0
ARC
  8
0
 10
215.877655
 20
-111.690109
 40
11.999999
 50
150.000000
 51
209.999969
  0
ARC
  8
0
 10
218.596176
 20
-111.690102
 40
14.418517
 50
155.409439
 51
204.590652
  0
POINT
  8
0
 10
235.877625
 20
-144.690125
  0
POINT
  8
0
 10
245.877625
 20
-144.690125
  0
LINE
  8
0
 10
199.895935
 20
-144.690125
 11
238.460709
 21
-144.690125
  0
LINE
  8
0
 10
210.877625
 20
-138.607559
 11
210.877625
 21
-149.647720
  0
LINE
  8
0
 10
224.877625
 20
-150.690125
 11
235.877655
 21
-150.690125
  0
LINE
  8
0
 10
224.877625
 20
-138.690125
 11
235.877655
 21
-138.690125
  0
LINE
  8
0
 10
235.877625
 20
-138.690125
 11
235.877625
 21
-150.690125
  0
LINE
  8
0
 10
227.877625
 20
-147.190125
 11
235.877625
 21
-147.190125
  0
LINE
  8
0
 10
227.877625
 20
-142.190125
 11
235.877625
 21
-142.190125
  0
LINE
  8
0
 10
225.877625
 20
-146.790131
 11
235.877625
 21
-146.790131
  0
LINE
  8
0
 10
225.877625
 20
-142.590118
 11
235.877625
 21
-142.590118
  0
LINE
  8
0
 10
227.877625
 20
-142.190125
 11
227.877625
 21
-147.190125
  0
LINE
  8
0
 10
225.877686
 20
-146.790115
 11
224.665237
 21
-144.690109
  0
LINE
  8
0
 10
225.877701
 20
-142.590164
 11
224.665268
 21
-144.690155
  0
LINE
  8
0
 10
225.877625
 20
-142.590118
 11
225.877625
 21
-146.790131
  0
LINE
  8
0
 10
224.877625
 20
-138.690125
 11
224.877625
 21
-141.490128
  0
LINE
  8
0
 10
224.877625
 20
-147.890121
 11
224.877625
 21
-150.690125
  0
LINE
  8
0
 10
213.427628
 20
-141.490128
 11
213.427628
 21
-147.890121
  0
LINE
  8
0
 10
208.327621
 20
-141.490128
 11
208.327621
 21
-147.890121
  0
LINE
  8
0
 10
204.312195
 20
-147.890121
 11
224.877625
 21
-147.890121
  0
LINE
  8
0
 10
204.312195
 20
-141.490128
 11
224.877625
 21
-141.490128
  0
ARC
  8
0
 10
215.877655
 20
-144.690125
 40
11.999993
 50
164.533997
 51
195.466003
  0
ENDSEC
  0
EOF
