  0
SECTION
  2
HEADER
  0
ENDSEC
  0
SECTION
  2
TABLES
  0
TABLE
  2
LTYPE
 70
     4
  0
LTYPE
  2
CONTINUOUS
 70
    64
  3
Solid line
 72
    65
 73
     0
 40
0.000000
  0
LTYPE
  2
DASHED
 70
    64
  3
__ __ __ __ __ __ __ __ __ __ __ __ __ __ __
 72
    65
 73
     2
 40
3.500000
 49
2.000000
 49
-1.500000
  0
LTYPE
  2
CENTER
 70
    64
  3
____ _ ____ _ ____ _ ____ _ ____ _ ____ _ ____
 72
    65
 73
     4
 40
17.500000
 49
13.000000
 49
-1.500000
 49
1.500000
 49
-1.500000
  0
LTYPE
  2
PHANTOM
 70
    64
  3
_____ _ _ _____ _ _ _____ _ _ _____ _ _ ____  
 72
    65
 73
     6
 40
15.500000
 49
8.000000
 49
-1.500000
 49
1.500000
 49
-1.500000
 49
1.500000
 49
-1.500000
  0
LTYPE
  2
DASHED1
 70
    64
  3
__ __ __ __ __ __ __ __ __ __ __ __ __ __ __
 72
    65
 73
     2
 40
1.500000
 49
1.000000
 49
-0.500000
  0
LTYPE
  2
DASHED2
 70
    64
  3
__ __ __ __ __ __ __ __ __ __ __ __ __ __ __
 72
    65
 73
     2
 40
3.500000
 49
2.500000
 49
-1.000000
  0
LTYPE
  2
DASHED3
 70
    64
  3
__ __ __ __ __ __ __ __ __ __ __ __ __ __ __
 72
    65
 73
     2
 40
6.000000
 49
4.000000
 49
-2.000000
  0
LTYPE
  2
DASHED4
 70
    64
  3
__ __ __ __ __ __ __ __ __ __ __ __ __ __ __
 72
    65
 73
     2
 40
12.000000
 49
10.000000
 49
-2.000000
  0
LTYPE
  2
DASHED5
 70
    64
  3
__ __ __ __ __ __ __ __ __ __ __ __ __ __ __
 72
    65
 73
     2
 40
17.000000
 49
15.000000
 49
-2.000000
  0
LTYPE
  2
DASHED6
 70
    64
  3
__ __ __ __ __ __ __ __ __ __ __ __ __ __ __
 72
    65
 73
     2
 40
29.000000
 49
27.000000
 49
-2.000000
  0
LTYPE
  2
PHANTOM1
 70
    64
  3
_____ _ _ _____ _ _ _____ _ _ _____ _ _ ____  
 72
    65
 73
     6
 40
31.000000
 49
25.000000
 49
-1.500000
 49
1.000000
 49
-1.000000
 49
1.000000
 49
-1.500000
  0
LTYPE
  2
PHANTOM2
 70
    64
  3
_____ _ _ _____ _ _ _____ _ _ _____ _ _ ____  
 72
    65
 73
     6
 40
36.000000
 49
27.000000
 49
-1.500000
 49
2.500000
 49
-1.000000
 49
2.500000
 49
-1.500000
  0
LTYPE
  2
PHANTOM3
 70
    64
  3
_____ _ _ _____ _ _ _____ _ _ _____ _ _ ____  
 72
    65
 73
     6
 40
78.000000
 49
64.000000
 49
-2.000000
 49
4.000000
 49
-2.000000
 49
4.000000
 49
-2.000000
  0
LTYPE
  2
CENTER1
 70
    64
  3
____ _ ____ _ ____ _ ____ _ ____ _ ____ _ ____
 72
    65
 73
     4
 40
19.000000
 49
14.000000
 49
-1.000000
 49
3.000000
 49
-1.000000
  0
LTYPE
  2
CENTER2
 70
    64
  3
____ _ ____ _ ____ _ ____ _ ____ _ ____ _ ____
 72
    65
 73
     4
 40
28.500000
 49
25.000000
 49
-1.000000
 49
1.500000
 49
-1.000000
  0
LTYPE
  2
CENTER3
 70
    64
  3
____ _ ____ _ ____ _ ____ _ ____ _ ____ _ ____
 72
    65
 73
     4
 40
31.500000
 49
27.000000
 49
-1.000000
 49
2.500000
 49
-1.000000
  0
LTYPE
  2
CENTER4
 70
    64
  3
____ _ ____ _ ____ _ ____ _ ____ _ ____ _ ____
 72
    65
 73
     4
 40
50.000000
 49
45.000000
 49
-1.000000
 49
3.000000
 49
-1.000000
  0
LTYPE
  2
CENTER5
 70
    64
  3
____ _ ____ _ ____ _ ____ _ ____ _ ____ _ ____
 72
    65
 73
     4
 40
100.000000
 49
92.000000
 49
-2.000000
 49
4.000000
 49
-2.000000
  0
LTYPE
  2
SBK1
 70
    64
  3
______ _ _ _ ______ _ _ _ ______ _ _ _ _____  
 72
    65
 73
     8
 40
60.500000
 49
45.000000
 49
-2.000000
 49
2.500000
 49
-2.000000
 49
2.500000
 49
-2.000000
 49
2.500000
 49
-2.000000
  0
LTYPE
  2
SBK2
 70
    64
  3
______ _ _ _ ______ _ _ _ ______ _ _ _ _____  
 72
    65
 73
     8
 40
84.000000
 49
64.000000
 49
-2.000000
 49
4.000000
 49
-2.000000
 49
4.000000
 49
-2.000000
 49
4.000000
 49
-2.000000
  0
LTYPE
  2
STCH
 70
    64
  3
__ __ __ __ __ __ __ __ __ __ __ __ __ __ __
 72
    65
 73
     2
 40
3.000000
 49
1.000000
 49
-2.000000
  0
LTYPE
  2
MTCH
 70
    64
  3
_____ _ _ _____ _ _ _____ _ _ _____ _ _ ____  
 72
    65
 73
     6
 40
80.000000
 49
66.000000
 49
-2.000000
 49
4.000000
 49
-2.000000
 49
4.000000
 49
-2.000000
  0
ENDTAB
  0
TABLE
  2
LAYER
 70
     1
  0
LAYER
  2
0
 70
     0
 62
     7
  6
CONTINUOUS
  0
ENDTAB
  0
TABLE
  2
STYLE
 70
     1
  0
STYLE
  2
STANDARD
 70
     0
 40
0.000000
 41
1.000000
 50
0.000000
 71
     0
 42
0.200000
  3
txt
  4
BIGFONT
  0
ENDTAB
  0
TABLE
  2
VIEW
 70
     0
  0
ENDTAB
  0
ENDSEC
  0
SECTION
  2
BLOCKS
  0
ENDSEC
  0
SECTION
  2
ENTITIES
  0
LINE
  8
0
 10
-181.250000
 20
195.500000
 11
-181.250000
 21
180.500000
  0
LINE
  8
0
 10
182.099976
 20
195.500000
 11
182.099976
 21
180.500000
  0
LINE
  8
0
 10
-281.250000
 20
180.500000
 11
-181.250000
 21
180.500000
  0
LINE
  8
0
 10
182.099976
 20
-175.000000
 11
182.099976
 21
-195.000000
  0
LINE
  8
0
 10
182.099976
 20
180.500000
 11
282.099976
 21
180.500000
  0
LINE
  8
0
 10
169.429993
 20
-175.000000
 11
282.099976
 21
-175.000000
  0
LINE
  8
0
 10
-281.250000
 20
-185.000000
 11
169.429993
 21
-185.000000
  0
LINE
  8
0
 10
-297.000000
 20
210.000000
 11
297.000000
 21
210.000000
  0
LINE
  8
0
 10
-297.000000
 20
-210.000000
 11
297.000000
 21
-210.000000
  0
LINE
  8
0
 10
297.000000
 20
210.000000
 11
297.000000
 21
-210.000000
  0
LINE
  8
0
 10
-297.000000
 20
210.000000
 11
-297.000000
 21
-210.000000
  0
LINE
  8
0
 10
-281.250000
 20
195.500000
 11
282.099976
 21
195.500000
  0
LINE
  8
0
 10
-281.250000
 20
195.500000
 11
-281.250000
 21
-195.000000
  0
LINE
  8
0
 10
282.099976
 20
195.500000
 11
282.099976
 21
-195.000000
  0
LINE
  8
0
 10
-281.250000
 20
-195.000000
 11
282.099976
 21
-195.000000
  0
LINE
  8
0
 10
-281.250000
 20
0.250000
 11
282.099976
 21
0.250000
  0
LINE
  8
0
 10
-281.250000
 20
10.250000
 11
282.099976
 21
10.250000
  0
LINE
  8
0
  6
PHANTOM
 10
-187.750000
 20
-120.000000
 11
-187.750000
 21
-123.000000
  0
LINE
  8
0
  6
PHANTOM
 10
-195.750000
 20
-126.000000
 11
-195.750000
 21
-138.000000
  0
LINE
  8
0
  6
PHANTOM
 10
-198.600006
 20
-127.958549
 11
-198.600006
 21
-136.041443
  0
LINE
  8
0
  6
PHANTOM
 10
-203.399994
 20
-127.958549
 11
-203.399994
 21
-136.041443
  0
LINE
  8
0
  6
PHANTOM
 10
-195.750000
 20
-36.000000
 11
-195.750000
 21
-48.000000
  0
LINE
  8
0
  6
PHANTOM
 10
-201.000000
 20
-45.500000
 11
-201.000000
 21
-38.500000
  0
LINE
  8
0
  6
PHANTOM
 10
-192.350006
 20
-123.917114
 11
-192.350006
 21
-140.082886
  0
LINE
  8
0
  6
PHANTOM
 10
-192.350006
 20
-35.000000
 11
-192.350006
 21
-49.000000
  0
LINE
  8
0
  6
PHANTOM
 10
-207.750000
 20
-130.000000
 11
-203.399994
 21
-130.000000
  0
LINE
  8
0
  6
PHANTOM
 10
-207.750000
 20
-134.000000
 11
-203.399994
 21
-134.000000
  0
LINE
  8
0
  6
PHANTOM
 10
-207.750000
 20
-130.000000
 11
-207.750000
 21
-134.000000
  0
LINE
  8
0
  6
PHANTOM
 10
-203.399994
 20
-136.041443
 11
-198.600006
 21
-136.041443
  0
LINE
  8
0
  6
PHANTOM
 10
-203.399994
 20
-127.958549
 11
-198.600006
 21
-127.958549
  0
LINE
  8
0
  6
PHANTOM
 10
-198.600006
 20
-134.000000
 11
-195.750000
 21
-134.000000
  0
LINE
  8
0
  6
PHANTOM
 10
-198.600006
 20
-130.000000
 11
-195.750000
 21
-130.000000
  0
LINE
  8
0
  6
PHANTOM
 10
-195.750000
 20
-126.000000
 11
-192.350006
 21
-126.000000
  0
LINE
  8
0
  6
PHANTOM
 10
-195.750000
 20
-138.000000
 11
-192.350006
 21
-138.000000
  0
LINE
  8
0
  6
PHANTOM
 10
-192.350006
 20
-140.082886
 11
-189.350006
 21
-140.082886
  0
LINE
  8
0
  6
PHANTOM
 10
-192.350006
 20
-123.917114
 11
-189.350006
 21
-123.917114
  0
LINE
  8
0
  6
PHANTOM
 10
-207.750000
 20
-40.000000
 11
-207.750000
 21
-44.000000
  0
LINE
  8
0
  6
PHANTOM
 10
-207.750000
 20
-40.000000
 11
-203.399994
 21
-40.000000
  0
LINE
  8
0
  6
PHANTOM
 10
-207.750000
 20
-44.000000
 11
-203.399994
 21
-44.000000
  0
LINE
  8
0
  6
PHANTOM
 10
-203.399994
 20
-38.500000
 11
-203.399994
 21
-45.500000
  0
LINE
  8
0
  6
PHANTOM
 10
-198.600006
 20
-38.500000
 11
-198.600006
 21
-45.500000
  0
LINE
  8
0
  6
PHANTOM
 10
-203.399994
 20
-38.500000
 11
-198.600006
 21
-38.500000
  0
LINE
  8
0
  6
PHANTOM
 10
-203.399994
 20
-45.500000
 11
-198.600006
 21
-45.500000
  0
LINE
  8
0
  6
PHANTOM
 10
-198.600006
 20
-44.000000
 11
-195.750000
 21
-44.000000
  0
LINE
  8
0
  6
PHANTOM
 10
-198.600006
 20
-40.000000
 11
-195.750000
 21
-40.000000
  0
LINE
  8
0
  6
PHANTOM
 10
-192.350006
 20
-35.000000
 11
-189.350006
 21
-35.000000
  0
LINE
  8
0
  6
PHANTOM
 10
-192.350006
 20
-49.000000
 11
-189.350006
 21
-49.000000
  0
LINE
  8
0
  6
PHANTOM
 10
-195.750000
 20
-36.000000
 11
-192.350006
 21
-36.000000
  0
LINE
  8
0
  6
PHANTOM
 10
-195.750000
 20
-48.000000
 11
-192.350006
 21
-48.000000
  0
LINE
  8
0
  6
PHANTOM
 10
-187.750000
 20
-139.000000
 11
-142.750000
 21
-139.000000
  0
LINE
  8
0
  6
PHANTOM
 10
-142.750000
 20
-120.000000
 11
-142.750000
 21
-139.000000
  0
LINE
  8
0
  6
PHANTOM
 10
-187.750000
 20
-49.500000
 11
-142.750000
 21
-49.500000
  0
LINE
  8
0
  6
PHANTOM
 10
-142.750000
 20
-34.500000
 11
-142.750000
 21
-49.500000
  0
LINE
  8
0
  6
PHANTOM
 10
-187.750000
 20
-34.500000
 11
-142.750000
 21
-34.500000
  0
LINE
  8
0
  6
PHANTOM
 10
-39.966675
 20
-120.000000
 11
-39.966675
 21
-123.000000
  0
LINE
  8
0
  6
PHANTOM
 10
-47.966675
 20
-126.000000
 11
-47.966675
 21
-138.000000
  0
LINE
  8
0
  6
PHANTOM
 10
-50.816673
 20
-127.958549
 11
-50.816673
 21
-136.041443
  0
LINE
  8
0
  6
PHANTOM
 10
-55.616669
 20
-127.958549
 11
-55.616669
 21
-136.041443
  0
LINE
  8
0
  6
PHANTOM
 10
-53.216675
 20
-136.041443
 11
-53.216675
 21
-127.958549
  0
LINE
  8
0
  6
PHANTOM
 10
-47.966675
 20
-36.000000
 11
-47.966675
 21
-48.000000
  0
LINE
  8
0
  6
PHANTOM
 10
-53.216675
 20
-45.500000
 11
-53.216675
 21
-38.500000
  0
LINE
  8
0
  6
PHANTOM
 10
-44.566673
 20
-123.917114
 11
-44.566673
 21
-140.082886
  0
LINE
  8
0
  6
PHANTOM
 10
-44.566673
 20
-35.000000
 11
-44.566673
 21
-49.000000
  0
LINE
  8
0
  6
PHANTOM
 10
-39.966675
 20
-139.000000
 11
5.033325
 21
-139.000000
  0
LINE
  8
0
  6
PHANTOM
 10
-59.966675
 20
-130.000000
 11
-55.616669
 21
-130.000000
  0
LINE
  8
0
  6
PHANTOM
 10
-59.966675
 20
-134.000000
 11
-55.616669
 21
-134.000000
  0
LINE
  8
0
  6
PHANTOM
 10
-59.966675
 20
-130.000000
 11
-59.966675
 21
-134.000000
  0
LINE
  8
0
  6
PHANTOM
 10
-55.616669
 20
-136.041443
 11
-50.816673
 21
-136.041443
  0
LINE
  8
0
  6
PHANTOM
 10
-55.616669
 20
-127.958549
 11
-50.816673
 21
-127.958549
  0
LINE
  8
0
  6
PHANTOM
 10
-50.816673
 20
-134.000000
 11
-47.966675
 21
-134.000000
  0
LINE
  8
0
  6
PHANTOM
 10
-50.816673
 20
-130.000000
 11
-47.966675
 21
-130.000000
  0
LINE
  8
0
  6
PHANTOM
 10
-47.966675
 20
-126.000000
 11
-44.566673
 21
-126.000000
  0
LINE
  8
0
  6
PHANTOM
 10
-47.966675
 20
-138.000000
 11
-44.566673
 21
-138.000000
  0
LINE
  8
0
  6
PHANTOM
 10
-44.566673
 20
-140.082886
 11
-41.566673
 21
-140.082886
  0
LINE
  8
0
  6
PHANTOM
 10
-44.566673
 20
-123.917114
 11
-41.566673
 21
-123.917114
  0
LINE
  8
0
  6
PHANTOM
 10
5.033325
 20
-120.000000
 11
5.033325
 21
-139.000000
  0
LINE
  8
0
  6
PHANTOM
 10
-59.966675
 20
-40.000000
 11
-59.966675
 21
-44.000000
  0
LINE
  8
0
  6
PHANTOM
 10
-59.966675
 20
-40.000000
 11
-55.616669
 21
-40.000000
  0
LINE
  8
0
  6
PHANTOM
 10
-59.966675
 20
-44.000000
 11
-55.616669
 21
-44.000000
  0
LINE
  8
0
  6
PHANTOM
 10
-55.616669
 20
-38.500000
 11
-55.616669
 21
-45.500000
  0
LINE
  8
0
  6
PHANTOM
 10
-50.816673
 20
-38.500000
 11
-50.816673
 21
-45.500000
  0
LINE
  8
0
  6
PHANTOM
 10
-55.616669
 20
-38.500000
 11
-50.816673
 21
-38.500000
  0
LINE
  8
0
  6
PHANTOM
 10
-55.616669
 20
-45.500000
 11
-50.816673
 21
-45.500000
  0
LINE
  8
0
  6
PHANTOM
 10
-50.816673
 20
-44.000000
 11
-47.966675
 21
-44.000000
  0
LINE
  8
0
  6
PHANTOM
 10
-50.816673
 20
-40.000000
 11
-47.966675
 21
-40.000000
  0
LINE
  8
0
  6
PHANTOM
 10
-44.566673
 20
-35.000000
 11
-41.566673
 21
-35.000000
  0
LINE
  8
0
  6
PHANTOM
 10
-44.566673
 20
-49.000000
 11
-41.566673
 21
-49.000000
  0
LINE
  8
0
  6
PHANTOM
 10
-47.966675
 20
-36.000000
 11
-44.566673
 21
-36.000000
  0
LINE
  8
0
  6
PHANTOM
 10
-47.966675
 20
-48.000000
 11
-44.566673
 21
-48.000000
  0
LINE
  8
0
  6
PHANTOM
 10
-187.750000
 20
-120.000000
 11
-142.750000
 21
-120.000000
  0
LINE
  8
0
  6
PHANTOM
 10
-187.750000
 20
-121.500000
 11
-142.750000
 21
-121.500000
  0
LINE
  8
0
  6
PHANTOM
 10
-39.966675
 20
-49.500000
 11
5.033325
 21
-49.500000
  0
LINE
  8
0
  6
PHANTOM
 10
5.033325
 20
-34.500000
 11
5.033325
 21
-49.500000
  0
LINE
  8
0
  6
PHANTOM
 10
-39.966675
 20
-34.500000
 11
5.033325
 21
-34.500000
  0
LINE
  8
0
  6
PHANTOM
 10
92.816650
 20
-120.000000
 11
92.816650
 21
-139.000000
  0
LINE
  8
0
  6
PHANTOM
 10
84.816650
 20
-126.000000
 11
84.816650
 21
-138.000000
  0
LINE
  8
0
  6
PHANTOM
 10
81.966644
 20
-127.958549
 11
81.966644
 21
-136.041443
  0
LINE
  8
0
  6
PHANTOM
 10
77.166656
 20
-127.958549
 11
77.166656
 21
-136.041443
  0
LINE
  8
0
  6
PHANTOM
 10
79.566650
 20
-136.041443
 11
79.566650
 21
-127.958549
  0
LINE
  8
0
  6
PHANTOM
 10
92.816650
 20
-38.000000
 11
142.816650
 21
-38.000000
  0
LINE
  8
0
  6
PHANTOM
 10
92.816650
 20
-46.000000
 11
142.816650
 21
-46.000000
  0
LINE
  8
0
  6
PHANTOM
 10
84.816650
 20
-36.000000
 11
84.816650
 21
-48.000000
  0
LINE
  8
0
  6
PHANTOM
 10
79.566650
 20
-45.500000
 11
79.566650
 21
-38.500000
  0
LINE
  8
0
  6
PHANTOM
 10
92.816650
 20
-34.500000
 11
92.816650
 21
-49.500000
  0
LINE
  8
0
  6
PHANTOM
 10
89.566650
 20
-123.917114
 11
89.566650
 21
-140.082886
  0
LINE
  8
0
  6
PHANTOM
 10
86.566650
 20
-123.917114
 11
86.566650
 21
-140.082886
  0
LINE
  8
0
  6
PHANTOM
 10
89.566650
 20
-35.000000
 11
89.566650
 21
-49.000000
  0
LINE
  8
0
  6
PHANTOM
 10
86.566650
 20
-35.000000
 11
86.566650
 21
-49.000000
  0
LINE
  8
0
  6
PHANTOM
 10
92.816650
 20
-139.000000
 11
142.816650
 21
-139.000000
  0
LINE
  8
0
  6
PHANTOM
 10
92.816650
 20
-120.000000
 11
142.816650
 21
-120.000000
  0
LINE
  8
0
  6
PHANTOM
 10
92.816650
 20
-126.000000
 11
142.816650
 21
-126.000000
  0
LINE
  8
0
  6
PHANTOM
 10
72.816650
 20
-130.000000
 11
77.166656
 21
-130.000000
  0
LINE
  8
0
  6
PHANTOM
 10
72.816650
 20
-134.000000
 11
77.166656
 21
-134.000000
  0
LINE
  8
0
  6
PHANTOM
 10
72.816650
 20
-129.999969
 11
72.816650
 21
-134.000000
  0
LINE
  8
0
  6
PHANTOM
 10
77.166656
 20
-136.041443
 11
81.966644
 21
-136.041443
  0
LINE
  8
0
  6
PHANTOM
 10
77.166656
 20
-127.958549
 11
81.966644
 21
-127.958549
  0
LINE
  8
0
  6
PHANTOM
 10
81.966644
 20
-134.000000
 11
84.816650
 21
-134.000000
  0
LINE
  8
0
  6
PHANTOM
 10
81.966644
 20
-130.000000
 11
84.816650
 21
-130.000000
  0
LINE
  8
0
  6
PHANTOM
 10
84.816650
 20
-126.000000
 11
86.566650
 21
-126.000000
  0
LINE
  8
0
  6
PHANTOM
 10
84.816650
 20
-138.000000
 11
86.566650
 21
-138.000000
  0
LINE
  8
0
  6
PHANTOM
 10
86.566650
 20
-140.082886
 11
89.566650
 21
-140.082886
  0
LINE
  8
0
  6
PHANTOM
 10
86.566650
 20
-123.917114
 11
89.566650
 21
-123.917114
  0
LINE
  8
0
  6
PHANTOM
 10
89.566650
 20
-138.000000
 11
92.816650
 21
-138.000000
  0
LINE
  8
0
  6
PHANTOM
 10
89.566650
 20
-126.000000
 11
92.816650
 21
-126.000000
  0
LINE
  8
0
  6
PHANTOM
 10
92.816650
 20
-121.500000
 11
142.816650
 21
-121.500000
  0
LINE
  8
0
  6
PHANTOM
 10
142.816650
 20
-120.000000
 11
142.816650
 21
-139.000000
  0
LINE
  8
0
  6
PHANTOM
 10
72.816650
 20
-40.000000
 11
72.816650
 21
-44.000000
  0
LINE
  8
0
  6
PHANTOM
 10
142.816650
 20
-34.500000
 11
142.816650
 21
-49.500000
  0
LINE
  8
0
  6
PHANTOM
 10
92.816650
 20
-34.500000
 11
142.816650
 21
-34.500000
  0
LINE
  8
0
  6
PHANTOM
 10
92.816650
 20
-49.500000
 11
142.816650
 21
-49.500000
  0
LINE
  8
0
  6
PHANTOM
 10
72.816650
 20
-40.000000
 11
77.166656
 21
-40.000000
  0
LINE
  8
0
  6
PHANTOM
 10
72.816650
 20
-44.000000
 11
77.166656
 21
-44.000000
  0
LINE
  8
0
  6
PHANTOM
 10
77.166656
 20
-38.500000
 11
81.966644
 21
-38.500000
  0
LINE
  8
0
  6
PHANTOM
 10
77.166656
 20
-45.500000
 11
81.966644
 21
-45.500000
  0
LINE
  8
0
  6
PHANTOM
 10
81.966644
 20
-44.000000
 11
84.816650
 21
-44.000000
  0
LINE
  8
0
  6
PHANTOM
 10
81.966644
 20
-40.000000
 11
84.816650
 21
-40.000000
  0
LINE
  8
0
  6
PHANTOM
 10
86.566650
 20
-35.000000
 11
89.566650
 21
-35.000000
  0
LINE
  8
0
  6
PHANTOM
 10
89.566650
 20
-36.000000
 11
92.816650
 21
-36.000000
  0
LINE
  8
0
  6
PHANTOM
 10
84.816650
 20
-36.000000
 11
86.566650
 21
-36.000000
  0
LINE
  8
0
  6
PHANTOM
 10
89.566650
 20
-48.000000
 11
92.816650
 21
-48.000000
  0
LINE
  8
0
  6
PHANTOM
 10
84.816650
 20
-48.000000
 11
86.566650
 21
-48.000000
  0
LINE
  8
0
  6
PHANTOM
 10
131.316650
 20
-33.500000
 11
141.316650
 21
-33.500000
  0
LINE
  8
0
  6
PHANTOM
 10
131.316650
 20
-50.500000
 11
141.316650
 21
-50.500000
  0
LINE
  8
0
  6
PHANTOM
 10
141.316650
 20
-33.500000
 11
141.316650
 21
-34.500000
  0
LINE
  8
0
  6
PHANTOM
 10
131.316650
 20
-33.500000
 11
131.316650
 21
-34.500000
  0
LINE
  8
0
  6
PHANTOM
 10
131.316650
 20
-49.500000
 11
131.316650
 21
-50.500000
  0
LINE
  8
0
  6
PHANTOM
 10
141.316650
 20
-49.500000
 11
141.316650
 21
-50.500000
  0
LINE
  8
0
  6
PHANTOM
 10
133.816650
 20
-50.500000
 11
133.816650
 21
-50.650002
  0
LINE
  8
0
  6
PHANTOM
 10
138.816650
 20
-50.500000
 11
138.816650
 21
-50.650002
  0
LINE
  8
0
  6
PHANTOM
 10
133.816650
 20
-33.349998
 11
133.816650
 21
-33.500000
  0
LINE
  8
0
  6
PHANTOM
 10
138.816650
 20
-33.349998
 11
138.816650
 21
-33.500000
  0
LINE
  8
0
  6
PHANTOM
 10
154.716644
 20
-148.500000
 11
156.316650
 21
-148.500000
  0
LINE
  8
0
 10
152.940674
 20
-120.000000
 11
157.913055
 21
-120.000000
  0
LINE
  8
0
  6
PHANTOM
 10
156.316650
 20
-148.500000
 11
156.316650
 21
-115.500000
  0
LINE
  8
0
  6
PHANTOM
 10
154.716644
 20
-146.250000
 11
156.316650
 21
-146.250000
  0
LINE
  8
0
  6
PHANTOM
 10
131.316650
 20
-137.882477
 11
131.316650
 21
-126.117531
  0
LINE
  8
0
  6
PHANTOM
 10
133.290573
 20
-123.298393
 11
154.716629
 21
-115.499947
  0
LINE
  8
0
 10
153.071533
 20
-144.000000
 11
157.978485
 21
-144.000000
  0
LINE
  8
0
  6
PHANTOM
 10
154.716644
 20
-115.500000
 11
156.316650
 21
-115.500000
  0
LINE
  8
0
  6
PHANTOM
 10
154.716644
 20
-141.750000
 11
156.316650
 21
-141.750000
  0
LINE
  8
0
  6
PHANTOM
 10
154.716644
 20
-148.500000
 11
154.716644
 21
-115.500000
  0
LINE
  8
0
  6
PHANTOM
 10
154.716644
 20
-148.500015
 11
133.290573
 21
-140.701553
  0
LINE
  8
0
  6
PHANTOM
 10
154.716644
 20
-117.750000
 11
156.316650
 21
-117.750000
  0
LINE
  8
0
  6
PHANTOM
 10
154.716644
 20
-122.250000
 11
156.316650
 21
-122.250000
  0
LINE
  8
0
  6
PHANTOM
 10
-187.750000
 20
-125.000000
 11
-142.750000
 21
-125.000000
  0
LINE
  8
0
  6
PHANTOM
 10
-201.000000
 20
-127.958549
 11
-201.000000
 21
-136.041443
  0
LINE
  8
0
  6
PHANTOM
 10
-39.966675
 20
-120.000000
 11
5.033325
 21
-120.000000
  0
LINE
  8
0
  6
PHANTOM
 10
-39.966675
 20
-121.500000
 11
5.033325
 21
-121.500000
  0
LINE
  8
0
  6
PHANTOM
 10
77.166656
 20
-38.500000
 11
77.166656
 21
-45.500000
  0
LINE
  8
0
  6
PHANTOM
 10
81.966644
 20
-38.500000
 11
81.966644
 21
-45.500000
  0
LINE
  8
0
  6
PHANTOM
 10
86.566650
 20
-49.000000
 11
89.566650
 21
-49.000000
  0
LINE
  8
0
 10
169.429993
 20
-165.000000
 11
282.099976
 21
-165.000000
  0
LINE
  8
0
 10
-93.466675
 20
0.250000
 11
-93.466675
 21
195.500000
  0
LINE
  8
0
 10
94.316650
 20
0.250000
 11
94.316650
 21
195.500000
  0
LINE
  8
0
 10
169.429993
 20
-195.000000
 11
169.429993
 21
0.250000
  0
LINE
  8
0
 10
19.203339
 20
-195.000000
 11
19.203339
 21
0.250000
  0
LINE
  8
0
 10
-131.023331
 20
-195.000000
 11
-131.023331
 21
0.250000
  0
LINE
  8
0
 10
169.429993
 20
-87.375000
 11
282.099976
 21
-87.375000
  0
LINE
  8
0
 10
169.429993
 20
-77.375000
 11
282.099976
 21
-77.375000
  0
LINE
  8
0
 10
-210.571655
 20
-132.000000
 11
-138.693695
 21
-132.000000
  0
LINE
  8
0
 10
-210.571655
 20
-42.000000
 11
-138.693695
 21
-42.000000
  0
LINE
  8
0
 10
-264.048889
 20
-132.000000
 11
-228.684906
 21
-132.000000
  0
LINE
  8
0
 10
-246.250000
 20
-120.429398
 11
-246.250000
 21
-148.030533
  0
LINE
  8
0
 10
-98.466705
 20
-121.602089
 11
-98.466705
 21
-141.782898
  0
LINE
  8
0
 10
-64.966675
 20
-42.000000
 11
10.249084
 21
-42.000000
  0
LINE
  8
0
 10
-64.966675
 20
-132.000000
 11
10.249084
 21
-132.000000
  0
LINE
  8
0
 10
70.078979
 20
-132.000000
 11
159.316650
 21
-132.000000
  0
LINE
  8
0
 10
136.316650
 20
-124.094429
 11
136.316650
 21
-154.936005
  0
LINE
  8
0
 10
32.467506
 20
-132.000000
 11
62.086807
 21
-132.000000
  0
LINE
  8
0
 10
47.316650
 20
-119.482246
 11
47.316650
 21
-154.140945
  0
LINE
  8
0
 10
136.316650
 20
-28.155674
 11
136.316650
 21
-56.483818
  0
LINE
  8
0
 10
69.848671
 20
-42.000000
 11
161.316650
 21
-42.000000
  0
ARC
  8
0
  6
PHANTOM
 10
134.316650
 20
-137.882477
 40
3.000000
 50
180.000000
 51
249.999969
  0
ARC
  8
0
  6
PHANTOM
 10
134.316650
 20
-126.117531
 40
2.999999
 50
110.000038
 51
180.000000
  0
TEXT
  8
0
 10
188.021667
 20
183.779999
 40
5.800000
  1
DATE: MAY ,1992
 50
0.000000
 41
1.052632
 51
0.000000
  7
STANDARD
  0
TEXT
  8
0
 10
178.000870
 20
-190.300003
 40
7.000000
  1
ＫＯＧＡＮＥＩ，ＣＯＲＰ．
 50
0.000000
 41
0.902367
 51
15.000000
  7
STANDARD
  0
TEXT
  8
0
 10
172.800919
 20
-85.875000
 40
5.000000
  1
MODEL:KNUCKLE Y-NDA10
 50
0.000000
 41
1.052632
 51
0.000000
  7
STANDARD
  0
TEXT
  8
0
 10
172.800919
 20
-173.500000
 40
5.000000
  1
MODEL:KNUCKLE I-NDA10
 50
0.000000
 41
1.052632
 51
0.000000
  7
STANDARD
  0
TEXT
  8
0
 10
-269.100708
 20
-193.500000
 40
5.000000
  1
MODEL:FOOT BRACKET 1A-NDA
 50
0.000000
 41
1.052632
 51
0.000000
  7
STANDARD
  0
TEXT
  8
0
 10
-106.374062
 20
-193.500000
 40
5.000000
  1
MODEL:FLANGE 3-NDA10
 50
0.000000
 41
1.052632
 51
0.000000
  7
STANDARD
  0
TEXT
  8
0
 10
21.352604
 20
-193.500000
 40
5.000000
  1
MODEL:I TYPE BRACKET 8E-NDA10
 50
0.000000
 41
1.052632
 51
0.000000
  7
STANDARD
  0
TEXT
  8
0
 10
-285.774231
 20
183.779999
 40
5.800000
  1
KNOCK SYLINDER
 50
0.000000
 41
1.213749
 51
0.000000
  7
STANDARD
  0
TEXT
  8
0
 10
-232.822403
 20
1.750000
 40
5.000000
  1
MODEL:NDA10*ST(20)
 50
0.000000
 41
1.052632
 51
0.000000
  7
STANDARD
  0
TEXT
  8
0
 10
-47.539074
 20
1.750000
 40
5.000000
  1
MODEL:NDAS10*ST(20)
 50
0.000000
 41
1.052632
 51
0.000000
  7
STANDARD
  0
TEXT
  8
0
 10
137.744247
 20
1.750000
 40
5.000000
  1
MODEL:NDA10*ST(20)-8
 50
0.000000
 41
1.052632
 51
0.000000
  7
STANDARD
  0
POINT
  8
0
 10
-132.750000
 20
52.315849
  0
POINT
  8
0
 10
-172.750000
 20
52.315849
  0
LINE
  8
0
 10
-172.750000
 20
64.315849
 11
-172.750000
 21
45.315849
  0
LINE
  8
0
 10
-180.750000
 20
57.815849
 11
-180.750000
 21
46.815849
  0
LINE
  8
0
 10
-193.784332
 20
52.315849
 11
-130.525879
 21
52.315849
  0
LINE
  8
0
 10
-183.600006
 20
55.931870
 11
-183.600006
 21
48.699829
  0
LINE
  8
0
 10
-188.399994
 20
55.931877
 11
-188.399994
 21
48.699814
  0
LINE
  8
0
 10
-186.000000
 20
48.699810
 11
-186.000000
 21
55.931885
  0
LINE
  8
0
 10
-180.250000
 20
58.315849
 11
-180.250000
 21
46.315849
  0
LINE
  8
0
 10
-176.000000
 20
59.879112
 11
-176.000000
 21
44.752575
  0
LINE
  8
0
 10
-179.000000
 20
59.967964
 11
-179.000000
 21
44.663742
  0
LINE
  8
0
 10
-172.750000
 20
45.315849
 11
-132.750000
 21
45.315849
  0
LINE
  8
0
 10
-172.750000
 20
64.315849
 11
-132.750000
 21
64.315849
  0
LINE
  8
0
 10
-172.750000
 20
58.315849
 11
-132.750000
 21
58.315849
  0
LINE
  8
0
 10
-192.250000
 20
54.315849
 11
-188.399994
 21
54.315849
  0
LINE
  8
0
 10
-192.250000
 20
50.315849
 11
-188.399994
 21
50.315849
  0
LINE
  8
0
 10
-192.750000
 20
53.815849
 11
-192.750000
 21
50.815849
  0
LINE
  8
0
 10
-192.249954
 20
54.315811
 11
-192.749954
 21
53.815811
  0
LINE
  8
0
 10
-192.749985
 20
50.815838
 11
-192.249985
 21
50.315834
  0
LINE
  8
0
 10
-192.250000
 20
54.315849
 11
-192.250000
 21
50.315849
  0
LINE
  8
0
 10
-192.600006
 20
50.665848
 11
-188.399994
 21
50.665848
  0
LINE
  8
0
 10
-192.600006
 20
53.965851
 11
-188.399994
 21
53.965851
  0
LINE
  8
0
 10
-188.154388
 20
48.274403
 11
-186.245605
 21
48.274403
  0
LINE
  8
0
 10
-188.154388
 20
50.295128
 11
-186.245605
 21
50.295128
  0
LINE
  8
0
 10
-188.154388
 20
54.336571
 11
-186.245605
 21
54.336571
  0
LINE
  8
0
 10
-188.154388
 20
56.357300
 11
-186.245605
 21
56.357300
  0
LINE
  8
0
 10
-185.754379
 20
48.274403
 11
-183.845612
 21
48.274403
  0
LINE
  8
0
 10
-185.754395
 20
50.295128
 11
-183.845612
 21
50.295128
  0
LINE
  8
0
 10
-183.600006
 20
50.315849
 11
-181.250000
 21
50.315849
  0
LINE
  8
0
 10
-183.600006
 20
50.665848
 11
-182.750000
 21
50.665848
  0
LINE
  8
0
 10
-185.754379
 20
56.357300
 11
-183.845612
 21
56.357300
  0
LINE
  8
0
 10
-185.754379
 20
54.336571
 11
-183.845612
 21
54.336571
  0
LINE
  8
0
 10
-183.600006
 20
54.315849
 11
-181.250000
 21
54.315849
  0
LINE
  8
0
 10
-183.600006
 20
53.965851
 11
-182.750000
 21
53.965851
  0
LINE
  8
0
 10
-188.399963
 20
55.931873
 11
-188.154358
 21
56.357296
  0
LINE
  8
0
 10
-186.000015
 20
55.931881
 11
-185.754410
 21
56.357304
  0
LINE
  8
0
 10
-183.845627
 20
56.357300
 11
-183.600006
 21
55.931870
  0
LINE
  8
0
 10
-186.245621
 20
56.357296
 11
-186.000015
 21
55.931885
  0
LINE
  8
0
 10
-188.399994
 20
48.699802
 11
-188.154388
 21
48.274403
  0
LINE
  8
0
 10
-186.000015
 20
48.699833
 11
-185.754395
 21
48.274406
  0
LINE
  8
0
 10
-186.245651
 20
48.274410
 11
-186.000031
 21
48.699818
  0
LINE
  8
0
 10
-183.845627
 20
48.274395
 11
-183.600006
 21
48.699821
  0
LINE
  8
0
 10
-180.250000
 20
58.315849
 11
-179.000000
 21
58.315849
  0
LINE
  8
0
 10
-180.250000
 20
46.315849
 11
-179.000000
 21
46.315849
  0
LINE
  8
0
 10
-180.750000
 20
57.815849
 11
-179.000000
 21
57.815849
  0
LINE
  8
0
 10
-180.750000
 20
46.815849
 11
-179.000000
 21
46.815849
  0
LINE
  8
0
 10
-180.749985
 20
46.815849
 11
-180.249985
 21
46.315838
  0
LINE
  8
0
 10
-180.749985
 20
57.815830
 11
-180.249985
 21
58.315830
  0
LINE
  8
0
 10
-178.751282
 20
44.232960
 11
-176.300003
 21
44.232960
  0
LINE
  8
0
 10
-178.751282
 20
48.274410
 11
-176.300003
 21
48.274410
  0
LINE
  8
0
 10
-178.751282
 20
56.357292
 11
-176.300003
 21
56.357292
  0
LINE
  8
0
 10
-178.751282
 20
60.398735
 11
-176.300003
 21
60.398735
  0
LINE
  8
0
 10
-176.000000
 20
46.815849
 11
-174.250000
 21
46.815849
  0
LINE
  8
0
 10
-176.000000
 20
46.315849
 11
-172.750000
 21
46.315849
  0
LINE
  8
0
 10
-176.000000
 20
58.315849
 11
-172.750000
 21
58.315849
  0
LINE
  8
0
 10
-176.000000
 20
57.815849
 11
-174.250000
 21
57.815849
  0
LINE
  8
0
 10
-179.000015
 20
59.967979
 11
-178.751312
 21
60.398758
  0
LINE
  8
0
 10
-176.300003
 20
44.232956
 11
-176.000000
 21
44.752575
  0
LINE
  8
0
 10
-179.000015
 20
44.663738
 11
-178.751297
 21
44.232960
  0
LINE
  8
0
 10
-176.299988
 20
60.398735
 11
-175.999985
 21
59.879112
  0
LINE
  8
0
 10
-172.750000
 20
62.815849
 11
-132.750000
 21
62.815849
  0
LINE
  8
0
 10
-132.750000
 20
64.315849
 11
-132.750000
 21
45.315849
  0
LINE
  8
0
 10
-182.750000
 20
54.315849
 11
-182.750000
 21
50.315849
  0
LINE
  8
0
 10
-182.750000
 20
50.665848
 11
-182.400009
 21
50.315857
  0
LINE
  8
0
 10
-182.750015
 20
53.965874
 11
-182.400009
 21
54.315876
  0
LINE
  8
0
 10
-174.250000
 20
58.315849
 11
-174.250000
 21
46.315849
  0
LINE
  8
0
 10
-174.250015
 20
57.815861
 11
-173.750000
 21
58.315861
  0
LINE
  8
0
 10
-174.250015
 20
46.815853
 11
-173.750015
 21
46.315853
  0
LINE
  8
0
 10
-181.250031
 20
54.315857
 11
-180.750031
 21
54.815861
  0
LINE
  8
0
 10
-181.250015
 20
50.315853
 11
-180.750015
 21
49.815853
  0
LINE
  8
0
 10
-181.250000
 20
54.315849
 11
-181.250000
 21
50.315849
  0
ARC
  8
0
 10
-179.964844
 20
52.315849
 40
8.435160
 50
166.139526
 51
193.860504
  0
ARC
  8
0
 10
-194.435028
 20
52.315849
 40
8.435044
 50
346.139252
 51
13.860755
  0
ARC
  8
0
 10
-177.564697
 20
52.315849
 40
8.435293
 50
166.139740
 51
193.860184
  0
ARC
  8
0
 10
-192.035309
 20
52.315849
 40
8.435292
 50
346.139771
 51
13.860257
  0
ARC
  8
0
 10
-183.799118
 20
55.346931
 40
2.200882
 50
152.672729
 51
207.327454
  0
ARC
  8
0
 10
-185.800873
 20
55.346931
 40
2.200884
 50
332.672638
 51
27.327274
  0
ARC
  8
0
 10
-186.199051
 20
55.346931
 40
2.200950
 50
152.673645
 51
207.326355
  0
ARC
  8
0
 10
-186.199066
 20
49.284767
 40
2.200935
 50
152.673538
 51
207.326538
  0
ARC
  8
0
 10
-188.200943
 20
49.284767
 40
2.200950
 50
332.673645
 51
27.326273
  0
ARC
  8
0
 10
-183.799118
 20
49.284767
 40
2.200886
 50
152.672546
 51
207.327271
  0
ARC
  8
0
 10
-185.800873
 20
49.284767
 40
2.200882
 50
332.672729
 51
27.327450
  0
ARC
  8
0
 10
-188.200943
 20
55.346931
 40
2.200948
 50
332.673737
 51
27.326361
  0
ARC
  8
0
 10
-170.666656
 20
58.378014
 40
8.333336
 50
165.966660
 51
194.033310
  0
ARC
  8
0
 10
-182.955475
 20
58.378014
 40
6.955475
 50
343.110718
 51
16.889267
  0
ARC
  8
0
 10
-146.039810
 20
52.315849
 40
32.960197
 50
172.956909
 51
187.043076
  0
ARC
  8
0
 10
-203.371796
 20
52.315849
 40
27.371796
 50
351.509247
 51
8.490735
  0
ARC
  8
0
 10
-170.666656
 20
46.253685
 40
8.333349
 50
165.966705
 51
194.033310
  0
ARC
  8
0
 10
-182.955475
 20
46.253685
 40
6.955490
 50
343.110779
 51
16.889297
  0
POINT
  8
0
 10
-238.750000
 20
52.315849
  0
POINT
  8
0
 10
-231.250000
 20
52.315849
  0
LINE
  8
0
 10
-247.730942
 20
52.315849
 11
-229.750000
 21
52.315849
  0
LINE
  8
0
 10
-242.750000
 20
64.315849
 11
-234.750000
 21
64.315849
  0
LINE
  8
0
 10
-244.250000
 20
45.315849
 11
-240.625641
 21
45.315849
  0
LINE
  8
0
 10
-238.750000
 20
66.575806
 11
-238.750000
 21
42.532951
  0
LINE
  8
0
 10
-235.250000
 20
62.815849
 11
-235.250000
 21
58.378029
  0
LINE
  8
0
 10
-242.250000
 20
62.815849
 11
-242.250000
 21
58.378029
  0
LINE
  8
0
 10
-234.750000
 20
64.315849
 11
-234.750000
 21
62.815849
  0
LINE
  8
0
 10
-242.750000
 20
64.315849
 11
-242.750000
 21
62.815849
  0
LINE
  8
0
 10
-242.750000
 20
62.815849
 11
-242.250000
 21
62.815849
  0
LINE
  8
0
 10
-246.250000
 20
58.315849
 11
-242.357697
 21
58.315849
  0
LINE
  8
0
 10
-235.142303
 20
58.315849
 11
-231.250000
 21
58.315849
  0
LINE
  8
0
 10
-235.250000
 20
62.815849
 11
-234.750000
 21
62.815849
  0
LINE
  8
0
 10
-242.250000
 20
54.336575
 11
-242.250000
 21
50.295124
  0
LINE
  8
0
 10
-235.250000
 20
54.336575
 11
-235.250000
 21
50.295124
  0
LINE
  8
0
 10
-242.250000
 20
54.336582
 11
-238.750000
 21
56.357311
  0
LINE
  8
0
 10
-238.750015
 20
48.274422
 11
-235.250015
 21
50.295143
  0
LINE
  8
0
 10
-238.749985
 20
56.357281
 11
-235.250000
 21
54.336559
  0
LINE
  8
0
 10
-242.249969
 20
50.295105
 11
-238.749954
 21
48.274368
  0
LINE
  8
0
 10
-245.750000
 20
56.357300
 11
-245.750000
 21
48.274399
  0
LINE
  8
0
 10
-231.750000
 20
56.357300
 11
-231.750000
 21
48.274399
  0
LINE
  8
0
 10
-245.750015
 20
56.357342
 11
-238.750031
 21
60.398785
  0
LINE
  8
0
 10
-238.750015
 20
44.232983
 11
-231.750015
 21
48.274433
  0
LINE
  8
0
 10
-238.749985
 20
60.398712
 11
-231.750000
 21
56.357269
  0
LINE
  8
0
 10
-245.750000
 20
48.274349
 11
-238.750015
 21
44.232906
  0
LINE
  8
0
 10
-236.874359
 20
45.315849
 11
-233.250000
 21
45.315849
  0
LINE
  8
0
 10
-246.250000
 20
58.315849
 11
-246.250000
 21
47.315849
  0
LINE
  8
0
 10
-231.250000
 20
58.315849
 11
-231.250000
 21
47.315849
  0
CIRCLE
  8
0
 10
-238.750000
 20
52.315849
 40
3.500000
  0
CIRCLE
  8
0
 10
-238.750000
 20
52.315849
 40
2.000000
  0
CIRCLE
  8
0
 10
-238.750000
 20
52.315849
 40
7.000000
  0
CIRCLE
  8
0
 10
-238.750000
 20
52.315849
 40
6.000000
  0
CIRCLE
  8
0
 10
-238.750000
 20
52.315849
 40
5.500000
  0
CIRCLE
  8
0
 10
-238.750000
 20
52.315849
 40
1.650000
  0
ARC
  8
0
 10
-244.250000
 20
47.315849
 40
2.000000
 50
180.000000
 51
270.000000
  0
ARC
  8
0
 10
-233.250000
 20
47.315849
 40
2.000000
 50
270.000000
 51
0.000000
  0
POINT
  8
0
 10
-172.750000
 20
142.315857
  0
POINT
  8
0
 10
-132.750000
 20
142.315857
  0
LINE
  8
0
 10
-172.750000
 20
146.315857
 11
-132.750000
 21
146.315857
  0
LINE
  8
0
 10
-172.750000
 20
138.315857
 11
-132.750000
 21
138.315857
  0
LINE
  8
0
 10
-139.750000
 20
146.065857
 11
-139.750000
 21
138.565857
  0
LINE
  8
0
 10
-166.750000
 20
146.065857
 11
-166.750000
 21
138.565857
  0
LINE
  8
0
 10
-148.250000
 20
144.815857
 11
-148.250000
 21
139.815857
  0
LINE
  8
0
 10
-158.250000
 20
144.815857
 11
-158.250000
 21
139.815857
  0
LINE
  8
0
 10
-180.750000
 20
147.815857
 11
-180.750000
 21
136.815857
  0
LINE
  8
0
 10
-174.250000
 20
148.315857
 11
-174.250000
 21
136.315857
  0
LINE
  8
0
 10
-194.299393
 20
142.315857
 11
-132.250000
 21
142.315857
  0
LINE
  8
0
 10
-186.000000
 20
138.815857
 11
-186.000000
 21
145.815857
  0
LINE
  8
0
 10
-180.250000
 20
148.315857
 11
-180.250000
 21
136.315857
  0
LINE
  8
0
 10
-188.154373
 20
142.315857
 11
-186.245621
 21
142.315857
  0
LINE
  8
0
 10
-183.845627
 20
142.315857
 11
-185.754379
 21
142.315857
  0
LINE
  8
0
 10
-172.750000
 20
149.815857
 11
-172.750000
 21
134.815857
  0
LINE
  8
0
 10
-176.000000
 20
149.315857
 11
-176.000000
 21
135.315857
  0
LINE
  8
0
 10
-179.000000
 20
149.315857
 11
-179.000000
 21
135.315857
  0
LINE
  8
0
 10
-178.751282
 20
142.315857
 11
-176.248718
 21
142.315857
  0
LINE
  8
0
 10
-192.750000
 20
143.815857
 11
-192.750000
 21
140.815857
  0
LINE
  8
0
 10
-132.750000
 20
149.815857
 11
-132.750000
 21
134.815857
  0
LINE
  8
0
 10
-172.750000
 20
149.815857
 11
-132.750000
 21
149.815857
  0
LINE
  8
0
 10
-172.750000
 20
134.815857
 11
-132.750000
 21
134.815857
  0
LINE
  8
0
 10
-192.250000
 20
144.315857
 11
-188.399994
 21
144.315857
  0
LINE
  8
0
 10
-192.250000
 20
140.315857
 11
-188.399994
 21
140.315857
  0
LINE
  8
0
 10
-192.600006
 20
140.665833
 11
-188.399994
 21
140.665833
  0
LINE
  8
0
 10
-192.600006
 20
143.965851
 11
-188.399994
 21
143.965851
  0
LINE
  8
0
 10
-192.249969
 20
144.315826
 11
-192.749969
 21
143.815826
  0
LINE
  8
0
 10
-192.250000
 20
140.315842
 11
-192.750015
 21
140.815842
  0
LINE
  8
0
 10
-192.250000
 20
144.315857
 11
-192.250000
 21
140.315857
  0
LINE
  8
0
 10
-182.750000
 20
144.315857
 11
-182.750000
 21
140.315857
  0
LINE
  8
0
 10
-182.749985
 20
140.665894
 11
-182.399994
 21
140.315903
  0
LINE
  8
0
 10
-182.749985
 20
143.965881
 11
-182.399994
 21
144.315872
  0
LINE
  8
0
 10
-188.399994
 20
145.815857
 11
-188.399994
 21
138.815857
  0
LINE
  8
0
 10
-183.600006
 20
145.815857
 11
-183.600006
 21
138.815857
  0
LINE
  8
0
 10
-188.399994
 20
145.815857
 11
-183.600006
 21
145.815857
  0
LINE
  8
0
 10
-188.399994
 20
138.815857
 11
-183.600006
 21
138.815857
  0
LINE
  8
0
 10
-183.600006
 20
140.315857
 11
-181.250000
 21
140.315857
  0
LINE
  8
0
 10
-183.600006
 20
140.665833
 11
-182.750000
 21
140.665833
  0
LINE
  8
0
 10
-183.600006
 20
143.965851
 11
-182.750000
 21
143.965851
  0
LINE
  8
0
 10
-183.600006
 20
144.315857
 11
-181.250000
 21
144.315857
  0
LINE
  8
0
 10
-179.000000
 20
149.315857
 11
-176.000000
 21
149.315857
  0
LINE
  8
0
 10
-179.000000
 20
135.315857
 11
-176.000000
 21
135.315857
  0
LINE
  8
0
 10
-176.000000
 20
148.315857
 11
-172.750000
 21
148.315857
  0
LINE
  8
0
 10
-180.250000
 20
148.315857
 11
-179.000000
 21
148.315857
  0
LINE
  8
0
 10
-176.000000
 20
136.315857
 11
-172.750000
 21
136.315857
  0
LINE
  8
0
 10
-180.250000
 20
136.315857
 11
-179.000000
 21
136.315857
  0
LINE
  8
0
 10
-176.000000
 20
136.815857
 11
-174.250000
 21
136.815857
  0
LINE
  8
0
 10
-180.750000
 20
136.815857
 11
-179.000000
 21
136.815857
  0
LINE
  8
0
 10
-180.750000
 20
147.815857
 11
-179.000000
 21
147.815857
  0
LINE
  8
0
 10
-176.000000
 20
147.815857
 11
-174.250000
 21
147.815857
  0
LINE
  8
0
 10
-174.249985
 20
136.815857
 11
-173.750000
 21
136.315872
  0
LINE
  8
0
 10
-174.250046
 20
147.815887
 11
-173.750046
 21
148.315887
  0
LINE
  8
0
 10
-180.750031
 20
136.815826
 11
-180.250015
 21
136.315811
  0
LINE
  8
0
 10
-180.749954
 20
147.815811
 11
-180.249954
 21
148.315811
  0
LINE
  8
0
 10
-181.250000
 20
140.315842
 11
-180.750015
 21
139.815857
  0
LINE
  8
0
 10
-181.250031
 20
144.315887
 11
-180.750031
 21
144.815887
  0
LINE
  8
0
 10
-181.250000
 20
144.315857
 11
-181.250000
 21
140.315857
  0
CIRCLE
  8
0
 10
-139.750000
 20
142.315857
 40
2.500000
  0
CIRCLE
  8
0
 10
-139.750000
 20
142.315857
 40
2.100000
  0
CIRCLE
  8
0
 10
-166.750000
 20
142.315857
 40
2.500000
  0
CIRCLE
  8
0
 10
-166.750000
 20
142.315857
 40
2.100000
  0
CIRCLE
  8
0
 10
-166.750000
 20
142.315857
 40
0.300000
  0
CIRCLE
  8
0
 10
-148.250000
 20
142.315857
 40
1.500000
  0
CIRCLE
  8
0
 10
-148.250000
 20
142.315857
 40
1.250000
  0
CIRCLE
  8
0
 10
-158.250000
 20
142.315857
 40
1.500000
  0
CIRCLE
  8
0
 10
-158.250000
 20
142.315857
 40
1.250000
  0
ARC
  8
0
 10
-182.042969
 20
144.065857
 40
6.357010
 50
164.020905
 51
195.979095
  0
ARC
  8
0
 10
-192.357025
 20
144.065857
 40
6.357010
 50
344.020905
 51
15.979097
  0
ARC
  8
0
 10
-179.642975
 20
144.065857
 40
6.357010
 50
164.020905
 51
195.979095
  0
ARC
  8
0
 10
-189.956818
 20
144.065857
 40
6.356820
 50
344.020416
 51
15.979589
  0
ARC
  8
0
 10
-189.956818
 20
140.565857
 40
6.356820
 50
344.020416
 51
15.979589
  0
ARC
  8
0
 10
-179.642975
 20
140.565857
 40
6.357010
 50
164.020905
 51
195.979095
  0
ARC
  8
0
 10
-192.357025
 20
140.565857
 40
6.357010
 50
344.020905
 51
15.979097
  0
ARC
  8
0
 10
-182.042969
 20
140.565857
 40
6.357010
 50
164.020905
 51
195.979095
  0
ARC
  8
0
 10
-154.249390
 20
138.815857
 40
24.750610
 50
171.870514
 51
188.129440
  0
ARC
  8
0
 10
-200.750610
 20
145.815857
 40
24.750610
 50
351.870514
 51
8.129483
  0
ARC
  8
0
 10
-154.249390
 20
145.815857
 40
24.750610
 50
171.870514
 51
188.129440
  0
ARC
  8
0
 10
-200.750610
 20
138.815857
 40
24.750610
 50
351.870514
 51
8.129483
  0
CIRCLE
  8
0
 10
-139.750000
 20
142.315857
 40
0.300000
  0
POINT
  8
0
 10
10.033310
 20
52.315849
  0
POINT
  8
0
 10
55.033325
 20
52.315849
  0
LINE
  8
0
 10
10.033310
 20
64.315849
 11
10.033310
 21
45.315849
  0
LINE
  8
0
 10
2.033310
 20
57.815849
 11
2.033310
 21
46.815849
  0
LINE
  8
0
 10
-11.001022
 20
52.315849
 11
59.033325
 21
52.315849
  0
LINE
  8
0
 10
-0.816696
 20
55.931870
 11
-0.816696
 21
48.699829
  0
LINE
  8
0
 10
-5.616684
 20
55.931877
 11
-5.616684
 21
48.699814
  0
LINE
  8
0
 10
-3.216690
 20
48.699810
 11
-3.216690
 21
55.931885
  0
LINE
  8
0
 10
2.533310
 20
58.315849
 11
2.533310
 21
46.315849
  0
LINE
  8
0
 10
6.783310
 20
59.879112
 11
6.783310
 21
44.752575
  0
LINE
  8
0
 10
3.783310
 20
59.967964
 11
3.783310
 21
44.663742
  0
LINE
  8
0
 10
-9.466690
 20
54.315849
 11
-5.616684
 21
54.315849
  0
LINE
  8
0
 10
-9.466690
 20
50.315849
 11
-5.616684
 21
50.315849
  0
LINE
  8
0
 10
-9.966690
 20
53.815849
 11
-9.966690
 21
50.815849
  0
LINE
  8
0
 10
-9.466717
 20
54.315887
 11
-9.966719
 21
53.815891
  0
LINE
  8
0
 10
-9.966717
 20
50.815819
 11
-9.466717
 21
50.315819
  0
LINE
  8
0
 10
-9.466690
 20
54.315849
 11
-9.466690
 21
50.315849
  0
LINE
  8
0
 10
-9.816696
 20
50.665848
 11
-5.616684
 21
50.665848
  0
LINE
  8
0
 10
-9.816696
 20
53.965851
 11
-5.616684
 21
53.965851
  0
LINE
  8
0
 10
-5.371078
 20
48.274403
 11
-3.462296
 21
48.274403
  0
LINE
  8
0
 10
-5.371078
 20
50.295128
 11
-3.462296
 21
50.295128
  0
LINE
  8
0
 10
-5.371078
 20
54.336571
 11
-3.462296
 21
54.336571
  0
LINE
  8
0
 10
-5.371078
 20
56.357300
 11
-3.462296
 21
56.357300
  0
LINE
  8
0
 10
-2.971085
 20
48.274403
 11
-1.062302
 21
48.274403
  0
LINE
  8
0
 10
-2.971085
 20
50.295128
 11
-1.062302
 21
50.295128
  0
LINE
  8
0
 10
-0.816696
 20
50.315849
 11
1.533310
 21
50.315849
  0
LINE
  8
0
 10
-0.816696
 20
50.665848
 11
0.033310
 21
50.665848
  0
LINE
  8
0
 10
-2.971085
 20
56.357300
 11
-1.062302
 21
56.357300
  0
LINE
  8
0
 10
-2.971085
 20
54.336571
 11
-1.062302
 21
54.336571
  0
LINE
  8
0
 10
-0.816696
 20
54.315849
 11
1.533310
 21
54.315849
  0
LINE
  8
0
 10
-0.816696
 20
53.965851
 11
0.033310
 21
53.965851
  0
LINE
  8
0
 10
-5.616651
 20
55.931881
 11
-5.371037
 21
56.357296
  0
LINE
  8
0
 10
-3.216677
 20
55.931877
 11
-2.971064
 21
56.357288
  0
LINE
  8
0
 10
-1.062284
 20
56.357315
 11
-0.816668
 21
55.931892
  0
LINE
  8
0
 10
-3.462271
 20
56.357315
 11
-3.216658
 21
55.931900
  0
LINE
  8
0
 10
-5.616658
 20
48.699833
 11
-5.371045
 21
48.274422
  0
LINE
  8
0
 10
-3.216667
 20
48.699856
 11
-2.971046
 21
48.274429
  0
LINE
  8
0
 10
-3.462268
 20
48.274399
 11
-3.216655
 21
48.699814
  0
LINE
  8
0
 10
-1.062265
 20
48.274395
 11
-0.816645
 21
48.699821
  0
LINE
  8
0
 10
2.533310
 20
58.315849
 11
3.783310
 21
58.315849
  0
LINE
  8
0
 10
2.533310
 20
46.315849
 11
3.783310
 21
46.315849
  0
LINE
  8
0
 10
2.033310
 20
57.815849
 11
3.783310
 21
57.815849
  0
LINE
  8
0
 10
2.033310
 20
46.815849
 11
3.783310
 21
46.815849
  0
LINE
  8
0
 10
2.033290
 20
46.815834
 11
2.533290
 21
46.315830
  0
LINE
  8
0
 10
2.033289
 20
57.815849
 11
2.533279
 21
58.315842
  0
LINE
  8
0
 10
4.032028
 20
44.232960
 11
6.483292
 21
44.232960
  0
LINE
  8
0
 10
4.032028
 20
48.274410
 11
6.483292
 21
48.274410
  0
LINE
  8
0
 10
4.032028
 20
56.357292
 11
6.483292
 21
56.357292
  0
LINE
  8
0
 10
4.032028
 20
60.398735
 11
6.483292
 21
60.398735
  0
LINE
  8
0
 10
6.783310
 20
46.815849
 11
8.533310
 21
46.815849
  0
LINE
  8
0
 10
6.783310
 20
46.315849
 11
10.033310
 21
46.315849
  0
LINE
  8
0
 10
6.783310
 20
58.315849
 11
10.033310
 21
58.315849
  0
LINE
  8
0
 10
6.783310
 20
57.815849
 11
8.533310
 21
57.815849
  0
LINE
  8
0
 10
3.783317
 20
59.967957
 11
4.032035
 21
60.398750
  0
LINE
  8
0
 10
6.483351
 20
44.232948
 11
6.783354
 21
44.752567
  0
LINE
  8
0
 10
3.783360
 20
44.663750
 11
4.032070
 21
44.232971
  0
LINE
  8
0
 10
6.483337
 20
60.398766
 11
6.783340
 21
59.879147
  0
LINE
  8
0
 10
0.033310
 20
54.315849
 11
0.033310
 21
50.315849
  0
LINE
  8
0
 10
0.033345
 20
50.665886
 11
0.383343
 21
50.315887
  0
LINE
  8
0
 10
0.033299
 20
53.965809
 11
0.383314
 21
54.315823
  0
LINE
  8
0
 10
8.533310
 20
58.315849
 11
8.533310
 21
46.315849
  0
LINE
  8
0
 10
8.533325
 20
57.815811
 11
9.033325
 21
58.315811
  0
LINE
  8
0
 10
8.533369
 20
46.815880
 11
9.033370
 21
46.315880
  0
LINE
  8
0
 10
1.533331
 20
54.315849
 11
2.033320
 21
54.815838
  0
LINE
  8
0
 10
1.533332
 20
50.315903
 11
2.033332
 21
49.815903
  0
LINE
  8
0
 10
1.533310
 20
54.315849
 11
1.533310
 21
50.315849
  0
LINE
  8
0
 10
10.033310
 20
45.315849
 11
55.033325
 21
45.315849
  0
LINE
  8
0
 10
10.033310
 20
58.315849
 11
55.033325
 21
58.315849
  0
LINE
  8
0
 10
55.033325
 20
64.315849
 11
55.033325
 21
45.315849
  0
LINE
  8
0
 10
10.033310
 20
64.315849
 11
21.533310
 21
64.315849
  0
LINE
  8
0
 10
10.033310
 20
62.815849
 11
21.533310
 21
62.815849
  0
LINE
  8
0
 10
27.533310
 20
64.315849
 11
36.533310
 21
64.315849
  0
LINE
  8
0
 10
27.533310
 20
62.815849
 11
36.533310
 21
62.815849
  0
LINE
  8
0
 10
42.533310
 20
64.315849
 11
55.033325
 21
64.315849
  0
LINE
  8
0
 10
42.533310
 20
62.815849
 11
55.033325
 21
62.815849
  0
LINE
  8
0
 10
42.333298
 20
66.987679
 11
42.333298
 21
66.315849
  0
LINE
  8
0
 10
36.733292
 20
66.987679
 11
36.733292
 21
66.315849
  0
LINE
  8
0
 10
24.533310
 20
69.215851
 11
24.533310
 21
60.315849
  0
LINE
  8
0
 10
39.533310
 20
69.215851
 11
39.533310
 21
60.315849
  0
LINE
  8
0
 10
21.533310
 20
61.315849
 11
27.533310
 21
61.315849
  0
LINE
  8
0
 10
27.333298
 20
66.987679
 11
27.333298
 21
66.315849
  0
LINE
  8
0
 10
21.733292
 20
66.987679
 11
21.733292
 21
66.315849
  0
LINE
  8
0
 10
21.533310
 20
66.315849
 11
27.533310
 21
66.315849
  0
LINE
  8
0
 10
27.533310
 20
66.315849
 11
27.533310
 21
61.315849
  0
LINE
  8
0
 10
21.533310
 20
66.315849
 11
21.533310
 21
61.315849
  0
LINE
  8
0
 10
42.533310
 20
66.315849
 11
42.533310
 21
61.315849
  0
LINE
  8
0
 10
36.533310
 20
66.315849
 11
36.533310
 21
61.315849
  0
LINE
  8
0
 10
36.533310
 20
66.315849
 11
42.533310
 21
66.315849
  0
LINE
  8
0
 10
36.533310
 20
61.315849
 11
42.533310
 21
61.315849
  0
LINE
  8
0
 10
22.533310
 20
65.815849
 11
26.533310
 21
65.815849
  0
LINE
  8
0
 10
37.533310
 20
65.815849
 11
41.533310
 21
65.815849
  0
LINE
  8
0
 10
22.533310
 20
66.315849
 11
22.533310
 21
65.815849
  0
LINE
  8
0
 10
26.533310
 20
66.315849
 11
26.533310
 21
65.815849
  0
LINE
  8
0
 10
41.533310
 20
66.315849
 11
41.533310
 21
65.815849
  0
LINE
  8
0
 10
37.533310
 20
66.315849
 11
37.533310
 21
65.815849
  0
LINE
  8
0
 10
33.033310
 20
62.315849
 11
33.033310
 21
58.315849
  0
LINE
  8
0
 10
55.033325
 20
58.815849
 11
62.533325
 21
58.815849
  0
LINE
  8
0
 10
34.033310
 20
62.315849
 11
34.033310
 21
58.315849
  0
LINE
  8
0
 10
32.033310
 20
60.315849
 11
63.533325
 21
60.315849
  0
LINE
  8
0
 10
33.033310
 20
62.315849
 11
36.533310
 21
62.315849
  0
LINE
  8
0
 10
55.033325
 20
61.815849
 11
62.533325
 21
61.815849
  0
LINE
  8
0
 10
42.533310
 20
62.315849
 11
55.033325
 21
62.315849
  0
ARC
  8
0
 10
2.818466
 20
52.315849
 40
8.435163
 50
166.139526
 51
193.860504
  0
ARC
  8
0
 10
-11.651718
 20
52.315849
 40
8.435038
 50
346.139221
 51
13.860767
  0
ARC
  8
0
 10
5.218613
 20
52.315849
 40
8.435292
 50
166.139740
 51
193.860184
  0
ARC
  8
0
 10
-9.251999
 20
52.315849
 40
8.435293
 50
346.139771
 51
13.860257
  0
ARC
  8
0
 10
-1.015823
 20
55.346931
 40
2.200885
 50
152.672760
 51
207.327454
  0
ARC
  8
0
 10
-3.017563
 20
55.346931
 40
2.200884
 50
332.672638
 51
27.327240
  0
ARC
  8
0
 10
-3.415756
 20
55.346931
 40
2.200946
 50
152.673584
 51
207.326401
  0
ARC
  8
0
 10
-3.415756
 20
49.284767
 40
2.200931
 50
152.673492
 51
207.326630
  0
ARC
  8
0
 10
-5.417648
 20
49.284767
 40
2.200946
 50
332.673584
 51
27.326307
  0
ARC
  8
0
 10
-1.015823
 20
49.284767
 40
2.200886
 50
152.672546
 51
207.327240
  0
ARC
  8
0
 10
-3.017563
 20
49.284767
 40
2.200885
 50
332.672760
 51
27.327461
  0
ARC
  8
0
 10
-5.417648
 20
55.346931
 40
2.200946
 50
332.673706
 51
27.326418
  0
ARC
  8
0
 10
12.116653
 20
58.378014
 40
8.333339
 50
165.966660
 51
194.033310
  0
ARC
  8
0
 10
-0.172165
 20
58.378014
 40
6.955471
 50
343.110718
 51
16.889278
  0
ARC
  8
0
 10
36.743484
 20
52.315849
 40
32.960194
 50
172.956909
 51
187.043076
  0
ARC
  8
0
 10
-20.588486
 20
52.315849
 40
27.371799
 50
351.509247
 51
8.490734
  0
ARC
  8
0
 10
12.116653
 20
46.253685
 40
8.333354
 50
165.966721
 51
194.033310
  0
ARC
  8
0
 10
-0.172165
 20
46.253685
 40
6.955483
 50
343.110748
 51
16.889282
  0
ARC
  8
0
 10
62.845825
 20
59.565849
 40
0.812500
 50
112.619865
 51
247.380142
  0
ARC
  8
0
 10
24.533310
 20
63.215851
 40
4.999997
 50
60.507637
 51
119.492363
  0
ARC
  8
0
 10
22.399979
 20
66.987679
 40
0.666670
 50
119.492233
 51
180.000000
  0
ARC
  8
0
 10
62.220825
 20
59.565849
 40
0.812500
 50
292.619873
 51
67.380135
  0
ARC
  8
0
 10
62.220825
 20
61.065849
 40
0.812500
 50
292.619873
 51
67.380135
  0
ARC
  8
0
 10
41.666641
 20
66.987679
 40
0.666668
 50
0.000000
 51
60.507767
  0
ARC
  8
0
 10
39.533310
 20
63.215851
 40
4.999997
 50
60.507637
 51
119.492363
  0
ARC
  8
0
 10
37.399979
 20
66.987679
 40
0.666670
 50
119.492233
 51
180.000000
  0
ARC
  8
0
 10
26.666641
 20
66.987679
 40
0.666666
 50
0.000000
 51
60.507767
  0
POINT
  8
0
 10
-53.466690
 20
52.315849
  0
POINT
  8
0
 10
-45.966690
 20
52.315849
  0
LINE
  8
0
 10
-62.447639
 20
52.315849
 11
-44.466690
 21
52.315849
  0
LINE
  8
0
 10
-58.966690
 20
45.315849
 11
-55.342331
 21
45.315849
  0
LINE
  8
0
 10
-53.466690
 20
70.519363
 11
-53.466690
 21
42.532951
  0
LINE
  8
0
 10
-60.966690
 20
58.315849
 11
-57.074387
 21
58.315849
  0
LINE
  8
0
 10
-49.858994
 20
58.315849
 11
-45.966690
 21
58.315849
  0
LINE
  8
0
 10
-56.966690
 20
54.336575
 11
-56.966690
 21
50.295124
  0
LINE
  8
0
 10
-49.966690
 20
54.336575
 11
-49.966690
 21
50.295124
  0
LINE
  8
0
 10
-56.966705
 20
54.336582
 11
-53.466713
 21
56.357304
  0
LINE
  8
0
 10
-53.466702
 20
48.274410
 11
-49.966698
 21
50.295139
  0
LINE
  8
0
 10
-53.466679
 20
56.357330
 11
-49.966663
 21
54.336597
  0
LINE
  8
0
 10
-56.966663
 20
50.295143
 11
-53.466663
 21
48.274418
  0
LINE
  8
0
 10
-60.466690
 20
56.357300
 11
-60.466690
 21
48.274399
  0
LINE
  8
0
 10
-46.466690
 20
56.357300
 11
-46.466690
 21
48.274399
  0
LINE
  8
0
 10
-60.466717
 20
56.357315
 11
-53.466705
 21
60.398773
  0
LINE
  8
0
 10
-53.466694
 20
44.232960
 11
-46.466682
 21
48.274418
  0
LINE
  8
0
 10
-53.466679
 20
60.398754
 11
-46.466690
 21
56.357307
  0
LINE
  8
0
 10
-60.466671
 20
48.274410
 11
-53.466682
 21
44.232964
  0
LINE
  8
0
 10
-51.591049
 20
45.315849
 11
-47.966690
 21
45.315849
  0
LINE
  8
0
 10
-60.966690
 20
62.315849
 11
-60.966690
 21
47.315849
  0
LINE
  8
0
 10
-45.966690
 20
62.315849
 11
-45.966690
 21
47.315849
  0
LINE
  8
0
 10
-49.466690
 20
64.315849
 11
-49.466690
 21
62.815849
  0
LINE
  8
0
 10
-57.466690
 20
64.315849
 11
-57.466690
 21
62.815849
  0
LINE
  8
0
 10
-56.966690
 20
62.815849
 11
-56.966690
 21
58.315849
  0
LINE
  8
0
 10
-49.966690
 20
62.815849
 11
-49.966690
 21
58.315849
  0
LINE
  8
0
 10
-57.766701
 20
64.315849
 11
-49.166687
 21
64.315849
  0
LINE
  8
0
 10
-57.466698
 20
62.815849
 11
-56.966698
 21
62.815849
  0
LINE
  8
0
 10
-49.966705
 20
62.815849
 11
-49.466705
 21
62.815849
  0
LINE
  8
0
 10
-57.766708
 20
64.315849
 11
-57.766708
 21
62.315849
  0
LINE
  8
0
 10
-61.216698
 20
62.315849
 11
-56.966698
 21
62.315849
  0
LINE
  8
0
 10
-61.966690
 20
66.115852
 11
-61.966690
 21
61.315849
  0
LINE
  8
0
 10
-61.216690
 20
62.315849
 11
-61.216690
 21
61.315849
  0
LINE
  8
0
 10
-61.966698
 20
61.315849
 11
-61.216698
 21
61.315849
  0
LINE
  8
0
 10
-49.166702
 20
64.315849
 11
-49.166702
 21
62.315849
  0
LINE
  8
0
 10
-44.966705
 20
66.115852
 11
-61.966698
 21
66.115852
  0
LINE
  8
0
 10
-44.966690
 20
66.115852
 11
-44.966690
 21
61.315849
  0
LINE
  8
0
 10
-44.966705
 20
61.315849
 11
-45.716705
 21
61.315849
  0
LINE
  8
0
 10
-45.716690
 20
62.315849
 11
-45.716690
 21
61.315849
  0
LINE
  8
0
 10
-45.716705
 20
62.315849
 11
-49.966705
 21
62.315849
  0
LINE
  8
0
 10
-56.466690
 20
66.115852
 11
-56.466690
 21
65.615852
  0
LINE
  8
0
 10
-50.466690
 20
66.115852
 11
-50.466690
 21
65.615852
  0
LINE
  8
0
 10
-56.266693
 20
66.787674
 11
-56.266693
 21
66.115845
  0
LINE
  8
0
 10
-50.666687
 20
66.787674
 11
-50.666687
 21
66.115845
  0
LINE
  8
0
 10
-50.466690
 20
65.615852
 11
-56.466690
 21
65.615852
  0
CIRCLE
  8
0
 10
-53.466690
 20
52.315849
 40
3.500000
  0
CIRCLE
  8
0
 10
-53.466690
 20
52.315849
 40
2.000000
  0
CIRCLE
  8
0
 10
-53.466690
 20
52.315849
 40
7.000000
  0
CIRCLE
  8
0
 10
-53.466690
 20
52.315849
 40
6.000000
  0
CIRCLE
  8
0
 10
-53.466690
 20
52.315849
 40
5.500000
  0
CIRCLE
  8
0
 10
-53.466690
 20
52.315849
 40
1.650000
  0
ARC
  8
0
 10
-58.966690
 20
47.315849
 40
2.000000
 50
180.000000
 51
270.000000
  0
ARC
  8
0
 10
-47.966690
 20
47.315849
 40
2.000000
 50
270.000000
 51
0.000000
  0
ARC
  8
0
 10
-53.466690
 20
63.015846
 40
4.999997
 50
60.507637
 51
119.492363
  0
ARC
  8
0
 10
-51.333359
 20
66.787674
 40
0.666668
 50
0.000000
 51
60.507767
  0
ARC
  8
0
 10
-55.600021
 20
66.787674
 40
0.666670
 50
119.492233
 51
180.000000
  0
POINT
  8
0
 10
55.033325
 20
142.315857
  0
POINT
  8
0
 10
10.033310
 20
142.315857
  0
LINE
  8
0
 10
2.033310
 20
147.815857
 11
2.033310
 21
136.815857
  0
LINE
  8
0
 10
8.533310
 20
148.315857
 11
8.533310
 21
136.315857
  0
LINE
  8
0
 10
-11.516098
 20
142.315857
 11
59.366638
 21
142.315857
  0
LINE
  8
0
 10
-3.216690
 20
138.815857
 11
-3.216690
 21
145.815857
  0
LINE
  8
0
 10
2.533310
 20
148.315857
 11
2.533310
 21
136.315857
  0
LINE
  8
0
 10
-5.371078
 20
142.315857
 11
-3.462326
 21
142.315857
  0
LINE
  8
0
 10
-1.062332
 20
142.315857
 11
-2.971085
 21
142.315857
  0
LINE
  8
0
 10
10.033310
 20
149.815857
 11
10.033310
 21
134.815857
  0
LINE
  8
0
 10
6.783310
 20
149.315857
 11
6.783310
 21
135.315857
  0
LINE
  8
0
 10
3.783310
 20
149.315857
 11
3.783310
 21
135.315857
  0
LINE
  8
0
 10
4.032028
 20
142.315857
 11
6.534592
 21
142.315857
  0
LINE
  8
0
 10
-9.966690
 20
143.815857
 11
-9.966690
 21
140.815857
  0
LINE
  8
0
 10
-9.466690
 20
144.315857
 11
-5.616684
 21
144.315857
  0
LINE
  8
0
 10
-9.466690
 20
140.315857
 11
-5.616684
 21
140.315857
  0
LINE
  8
0
 10
-9.816696
 20
140.665833
 11
-5.616684
 21
140.665833
  0
LINE
  8
0
 10
-9.816696
 20
143.965851
 11
-5.616684
 21
143.965851
  0
LINE
  8
0
 10
-9.466692
 20
144.315842
 11
-9.966681
 21
143.815857
  0
LINE
  8
0
 10
-9.466700
 20
140.315826
 11
-9.966700
 21
140.815826
  0
LINE
  8
0
 10
-9.466690
 20
144.315857
 11
-9.466690
 21
140.315857
  0
LINE
  8
0
 10
0.033310
 20
144.315857
 11
0.033310
 21
140.315857
  0
LINE
  8
0
 10
0.033364
 20
140.665909
 11
0.383363
 21
140.315903
  0
LINE
  8
0
 10
0.033301
 20
143.965836
 11
0.383315
 21
144.315857
  0
LINE
  8
0
 10
-5.616684
 20
145.815857
 11
-5.616684
 21
138.815857
  0
LINE
  8
0
 10
-0.816696
 20
145.815857
 11
-0.816696
 21
138.815857
  0
LINE
  8
0
 10
-5.616684
 20
145.815857
 11
-0.816696
 21
145.815857
  0
LINE
  8
0
 10
-5.616684
 20
138.815857
 11
-0.816696
 21
138.815857
  0
LINE
  8
0
 10
-0.816696
 20
140.315857
 11
1.533310
 21
140.315857
  0
LINE
  8
0
 10
-0.816696
 20
140.665833
 11
0.033310
 21
140.665833
  0
LINE
  8
0
 10
-0.816696
 20
143.965851
 11
0.033310
 21
143.965851
  0
LINE
  8
0
 10
-0.816696
 20
144.315857
 11
1.533310
 21
144.315857
  0
LINE
  8
0
 10
3.783310
 20
149.315857
 11
6.783310
 21
149.315857
  0
LINE
  8
0
 10
3.783310
 20
135.315857
 11
6.783310
 21
135.315857
  0
LINE
  8
0
 10
6.783310
 20
148.315857
 11
10.033310
 21
148.315857
  0
LINE
  8
0
 10
2.533310
 20
148.315857
 11
3.783310
 21
148.315857
  0
LINE
  8
0
 10
6.783310
 20
136.315857
 11
10.033310
 21
136.315857
  0
LINE
  8
0
 10
2.533310
 20
136.315857
 11
3.783310
 21
136.315857
  0
LINE
  8
0
 10
6.783310
 20
136.815857
 11
8.533310
 21
136.815857
  0
LINE
  8
0
 10
2.033310
 20
136.815857
 11
3.783310
 21
136.815857
  0
LINE
  8
0
 10
2.033310
 20
147.815857
 11
3.783310
 21
147.815857
  0
LINE
  8
0
 10
6.783310
 20
147.815857
 11
8.533310
 21
147.815857
  0
LINE
  8
0
 10
8.533367
 20
136.815903
 11
9.033367
 21
136.315903
  0
LINE
  8
0
 10
8.533317
 20
147.815826
 11
9.033306
 21
148.315826
  0
LINE
  8
0
 10
2.033181
 20
136.815720
 11
2.533185
 21
136.315720
  0
LINE
  8
0
 10
2.033298
 20
147.815842
 11
2.533309
 21
148.315857
  0
LINE
  8
0
 10
1.533350
 20
140.315918
 11
2.033356
 21
139.815918
  0
LINE
  8
0
 10
1.533324
 20
144.315857
 11
2.033314
 21
144.815842
  0
LINE
  8
0
 10
1.533310
 20
144.315857
 11
1.533310
 21
140.315857
  0
LINE
  8
0
 10
48.033310
 20
146.065857
 11
48.033310
 21
138.565857
  0
LINE
  8
0
 10
16.033310
 20
146.065857
 11
16.033310
 21
138.565857
  0
LINE
  8
0
 10
39.533310
 20
144.815857
 11
39.533310
 21
139.815857
  0
LINE
  8
0
 10
24.533310
 20
144.815857
 11
24.533310
 21
139.815857
  0
LINE
  8
0
 10
55.033325
 20
149.815857
 11
55.033325
 21
149.315857
  0
LINE
  8
0
 10
23.033310
 20
142.015839
 11
23.633316
 21
142.015839
  0
LINE
  8
0
 10
23.033310
 20
142.615845
 11
23.633316
 21
142.615845
  0
LINE
  8
0
 10
24.533310
 20
151.815857
 11
24.533310
 21
132.815857
  0
LINE
  8
0
 10
24.233292
 20
143.215851
 11
24.233292
 21
143.815857
  0
LINE
  8
0
 10
25.433304
 20
142.015839
 11
26.033310
 21
142.015839
  0
LINE
  8
0
 10
21.533310
 20
150.815857
 11
21.533310
 21
133.815857
  0
LINE
  8
0
 10
27.533310
 20
150.815857
 11
27.533310
 21
133.815857
  0
LINE
  8
0
 10
21.533310
 20
150.815857
 11
27.533310
 21
150.815857
  0
LINE
  8
0
 10
21.533310
 20
133.815857
 11
27.533310
 21
133.815857
  0
LINE
  8
0
 10
24.833298
 20
143.215851
 11
24.833298
 21
143.815857
  0
LINE
  8
0
 10
25.433304
 20
142.615845
 11
26.033310
 21
142.615845
  0
LINE
  8
0
 10
21.533310
 20
139.315857
 11
22.533310
 21
139.315857
  0
LINE
  8
0
 10
21.533310
 20
145.315857
 11
22.533310
 21
145.315857
  0
LINE
  8
0
 10
26.533310
 20
150.815857
 11
26.533310
 21
145.315857
  0
LINE
  8
0
 10
22.533310
 20
150.815857
 11
22.533310
 21
145.315857
  0
LINE
  8
0
 10
22.533310
 20
139.315857
 11
22.533310
 21
133.815857
  0
LINE
  8
0
 10
26.533310
 20
139.315857
 11
26.533310
 21
133.815857
  0
LINE
  8
0
 10
26.533310
 20
145.315857
 11
27.533310
 21
145.315857
  0
LINE
  8
0
 10
26.533310
 20
139.315857
 11
27.533310
 21
139.315857
  0
LINE
  8
0
 10
22.533310
 20
134.815857
 11
26.533310
 21
134.815857
  0
LINE
  8
0
 10
23.033310
 20
149.815857
 11
26.033310
 21
149.815857
  0
LINE
  8
0
 10
26.033310
 20
149.815857
 11
26.033310
 21
149.315857
  0
LINE
  8
0
 10
23.033310
 20
149.815857
 11
23.033310
 21
149.315857
  0
LINE
  8
0
 10
22.533310
 20
149.315857
 11
23.033310
 21
149.315857
  0
LINE
  8
0
 10
26.033310
 20
149.315857
 11
26.533310
 21
149.315857
  0
LINE
  8
0
 10
23.033310
 20
142.015839
 11
23.033310
 21
142.615845
  0
LINE
  8
0
 10
26.033310
 20
142.015839
 11
26.033310
 21
142.615845
  0
LINE
  8
0
 10
24.233292
 20
140.815857
 11
24.233292
 21
141.415833
  0
LINE
  8
0
 10
24.833298
 20
140.815857
 11
24.833298
 21
141.415833
  0
LINE
  8
0
 10
24.233292
 20
140.815857
 11
24.833298
 21
140.815857
  0
LINE
  8
0
 10
24.233292
 20
143.815857
 11
24.833298
 21
143.815857
  0
LINE
  8
0
 10
26.033310
 20
149.315857
 11
26.533310
 21
149.315857
  0
LINE
  8
0
 10
22.533310
 20
149.315857
 11
23.033310
 21
149.315857
  0
LINE
  8
0
 10
39.533310
 20
132.799316
 11
39.533310
 21
151.834656
  0
LINE
  8
0
 10
42.533310
 20
133.815857
 11
42.533310
 21
150.815826
  0
LINE
  8
0
 10
42.533310
 20
133.815826
 11
36.533310
 21
133.815826
  0
LINE
  8
0
 10
42.533310
 20
150.815826
 11
36.533310
 21
150.815826
  0
LINE
  8
0
 10
42.533310
 20
145.315826
 11
41.533310
 21
145.315826
  0
LINE
  8
0
 10
42.533310
 20
139.315826
 11
41.533310
 21
139.315826
  0
LINE
  8
0
 10
37.533310
 20
133.815857
 11
37.533310
 21
139.315857
  0
LINE
  8
0
 10
41.533310
 20
133.815857
 11
41.533310
 21
139.315857
  0
LINE
  8
0
 10
41.533310
 20
145.315857
 11
41.533310
 21
150.815857
  0
LINE
  8
0
 10
37.533310
 20
145.315857
 11
37.533310
 21
150.815857
  0
LINE
  8
0
 10
37.533310
 20
139.315826
 11
36.533310
 21
139.315826
  0
LINE
  8
0
 10
37.533310
 20
145.315826
 11
36.533310
 21
145.315826
  0
LINE
  8
0
 10
41.033310
 20
134.815826
 11
38.033310
 21
134.815826
  0
LINE
  8
0
 10
38.033310
 20
134.815857
 11
38.033310
 21
135.315857
  0
LINE
  8
0
 10
41.033310
 20
134.815857
 11
41.033310
 21
135.315857
  0
LINE
  8
0
 10
41.533310
 20
135.315826
 11
41.033310
 21
135.315826
  0
LINE
  8
0
 10
38.033310
 20
135.315826
 11
37.533310
 21
135.315826
  0
LINE
  8
0
 10
41.033310
 20
142.615845
 11
41.033310
 21
142.015839
  0
LINE
  8
0
 10
38.033310
 20
142.615845
 11
38.033310
 21
142.015839
  0
LINE
  8
0
 10
39.833298
 20
143.815857
 11
39.833298
 21
143.215851
  0
LINE
  8
0
 10
39.233322
 20
143.815857
 11
39.233322
 21
143.215851
  0
LINE
  8
0
 10
39.833298
 20
143.815826
 11
39.233292
 21
143.815826
  0
LINE
  8
0
 10
39.833298
 20
140.815826
 11
39.233292
 21
140.815826
  0
LINE
  8
0
 10
41.033310
 20
142.615845
 11
40.433304
 21
142.615845
  0
LINE
  8
0
 10
41.033310
 20
142.015839
 11
40.433304
 21
142.015839
  0
LINE
  8
0
 10
39.833298
 20
141.415833
 11
39.833298
 21
140.815857
  0
LINE
  8
0
 10
39.233322
 20
141.415863
 11
39.233322
 21
140.815857
  0
LINE
  8
0
 10
38.633316
 20
142.615845
 11
38.033310
 21
142.615845
  0
LINE
  8
0
 10
38.633316
 20
142.015839
 11
38.033310
 21
142.015839
  0
LINE
  8
0
 10
41.033310
 20
135.315857
 11
41.533310
 21
135.315857
  0
LINE
  8
0
 10
37.533310
 20
135.315857
 11
38.033310
 21
135.315857
  0
LINE
  8
0
 10
36.533310
 20
133.815857
 11
36.533310
 21
150.815857
  0
LINE
  8
0
 10
41.533310
 20
149.815826
 11
37.533310
 21
149.815826
  0
LINE
  8
0
 10
35.033310
 20
138.315857
 11
35.033310
 21
135.815857
  0
LINE
  8
0
 10
35.033310
 20
149.315857
 11
36.533310
 21
149.315857
  0
LINE
  8
0
 10
14.783310
 20
148.815857
 11
14.783310
 21
146.315857
  0
LINE
  8
0
 10
10.033310
 20
134.815857
 11
21.533310
 21
134.815857
  0
LINE
  8
0
 10
55.033325
 20
146.315857
 11
55.033325
 21
134.815857
  0
LINE
  8
0
 10
10.033310
 20
149.815857
 11
21.533310
 21
149.815857
  0
LINE
  8
0
 10
34.283310
 20
138.315857
 11
34.283310
 21
134.815857
  0
LINE
  8
0
 10
55.033325
 20
138.315857
 11
62.533325
 21
138.315857
  0
LINE
  8
0
 10
55.033325
 20
135.315857
 11
62.533325
 21
135.315857
  0
LINE
  8
0
 10
13.033310
 20
149.815857
 11
13.033310
 21
146.315857
  0
LINE
  8
0
 10
14.033310
 20
149.815857
 11
14.033310
 21
146.315857
  0
LINE
  8
0
 10
35.033310
 20
149.815857
 11
35.033310
 21
146.315857
  0
LINE
  8
0
 10
42.533310
 20
146.315857
 11
54.033310
 21
146.315857
  0
LINE
  8
0
 10
42.533310
 20
149.315857
 11
62.033325
 21
149.315857
  0
LINE
  8
0
 10
27.533310
 20
149.815857
 11
36.533310
 21
149.815857
  0
LINE
  8
0
 10
42.533310
 20
149.315857
 11
54.033310
 21
149.315857
  0
LINE
  8
0
 10
10.033310
 20
138.315857
 11
21.533310
 21
138.315857
  0
LINE
  8
0
 10
54.283325
 20
138.315857
 11
54.283325
 21
135.815857
  0
LINE
  8
0
 10
34.033310
 20
148.815857
 11
34.033310
 21
146.315857
  0
LINE
  8
0
 10
11.538284
 20
147.815857
 11
62.834045
 21
147.815857
  0
LINE
  8
0
 10
31.533310
 20
136.815857
 11
63.033325
 21
136.815857
  0
LINE
  8
0
 10
33.033310
 20
138.315857
 11
33.033310
 21
134.815857
  0
LINE
  8
0
 10
42.533310
 20
134.815857
 11
55.033325
 21
134.815857
  0
LINE
  8
0
 10
10.033310
 20
146.315857
 11
21.533310
 21
146.315857
  0
LINE
  8
0
 10
27.533310
 20
138.315857
 11
36.533310
 21
138.315857
  0
LINE
  8
0
 10
42.533310
 20
138.315857
 11
55.033325
 21
138.315857
  0
LINE
  8
0
 10
42.533310
 20
149.815857
 11
55.033325
 21
149.815857
  0
LINE
  8
0
 10
42.533310
 20
146.315857
 11
62.033325
 21
146.315857
  0
LINE
  8
0
 10
27.533310
 20
146.315857
 11
36.533310
 21
146.315857
  0
LINE
  8
0
 10
27.533310
 20
134.815857
 11
36.533310
 21
134.815857
  0
ARC
  8
0
 10
0.740341
 20
144.065857
 40
6.357017
 50
164.020920
 51
195.979080
  0
ARC
  8
0
 10
-9.573715
 20
144.065857
 40
6.357016
 50
344.020905
 51
15.979083
  0
ARC
  8
0
 10
3.140335
 20
144.065857
 40
6.357017
 50
164.020920
 51
195.979080
  0
ARC
  8
0
 10
-7.173508
 20
144.065857
 40
6.356826
 50
344.020416
 51
15.979573
  0
ARC
  8
0
 10
-7.173508
 20
140.565857
 40
6.356826
 50
344.020416
 51
15.979573
  0
ARC
  8
0
 10
3.140335
 20
140.565857
 40
6.357017
 50
164.020920
 51
195.979080
  0
ARC
  8
0
 10
-9.573715
 20
140.565857
 40
6.357016
 50
344.020905
 51
15.979083
  0
ARC
  8
0
 10
0.740341
 20
140.565857
 40
6.357017
 50
164.020920
 51
195.979080
  0
ARC
  8
0
 10
28.533920
 20
138.815857
 40
24.750616
 50
171.870514
 51
188.129440
  0
ARC
  8
0
 10
-17.967300
 20
145.815857
 40
24.750616
 50
351.870514
 51
8.129481
  0
ARC
  8
0
 10
28.533920
 20
145.815857
 40
24.750616
 50
171.870514
 51
188.129440
  0
ARC
  8
0
 10
-17.967300
 20
138.815857
 40
24.750616
 50
351.870514
 51
8.129481
  0
CIRCLE
  8
0
 10
48.033310
 20
142.315857
 40
2.500000
  0
CIRCLE
  8
0
 10
48.033310
 20
142.315857
 40
2.100000
  0
CIRCLE
  8
0
 10
16.033310
 20
142.315857
 40
2.500000
  0
CIRCLE
  8
0
 10
16.033310
 20
142.315857
 40
2.100000
  0
CIRCLE
  8
0
 10
16.033310
 20
142.315857
 40
0.300000
  0
CIRCLE
  8
0
 10
48.033310
 20
142.315857
 40
0.300000
  0
ARC
  8
0
 10
23.633316
 20
143.215851
 40
0.600006
 50
270.000000
 51
0.000000
  0
CIRCLE
  8
0
 10
39.533310
 20
142.315857
 40
2.800000
  0
CIRCLE
  8
0
 10
24.533310
 20
142.315857
 40
2.800000
  0
ARC
  8
0
 10
40.433304
 20
141.415833
 40
0.600006
 50
90.000000
 51
180.000000
  0
ARC
  8
0
 10
25.433304
 20
141.415833
 40
0.600006
 50
90.000000
 51
180.000000
  0
ARC
  8
0
 10
38.633316
 20
143.215851
 40
0.600006
 50
270.000000
 51
0.000000
  0
ARC
  8
0
 10
25.433304
 20
143.215851
 40
0.600000
 50
180.000000
 51
270.000000
  0
ARC
  8
0
 10
38.633316
 20
141.415833
 40
0.599998
 50
0.000000
 51
90.000000
  0
ARC
  8
0
 10
40.433304
 20
143.215851
 40
0.599998
 50
180.000000
 51
270.000000
  0
ARC
  8
0
 10
23.633316
 20
141.415833
 40
0.600000
 50
0.000000
 51
90.000000
  0
ARC
  8
0
 10
62.845825
 20
136.065857
 40
0.812500
 50
112.619865
 51
247.380142
  0
ARC
  8
0
 10
62.220825
 20
137.565857
 40
0.812500
 50
292.619873
 51
67.380135
  0
ARC
  8
0
 10
61.720825
 20
147.065857
 40
0.812500
 50
292.619873
 51
67.380135
  0
ARC
  8
0
 10
62.220825
 20
136.065857
 40
0.812500
 50
292.619873
 51
67.380135
  0
ARC
  8
0
 10
61.720825
 20
148.565857
 40
0.812500
 50
292.619873
 51
67.380135
  0
ARC
  8
0
 10
62.345825
 20
147.065857
 40
0.812500
 50
112.619865
 51
247.380142
  0
POLYLINE
  8
0
 66
     1
  0
VERTEX
  8
0
 10
35.033310
 20
135.815857
  0
VERTEX
  8
0
 10
35.672478
 20
135.444275
  0
VERTEX
  8
0
 10
36.252060
 20
135.315857
  0
VERTEX
  8
0
 10
36.396034
 20
135.354767
  0
VERTEX
  8
0
 10
36.533844
 20
135.412811
  0
SEQEND
  0
POLYLINE
  8
0
 66
     1
  0
VERTEX
  8
0
 10
14.783310
 20
148.815857
  0
VERTEX
  8
0
 10
15.360945
 20
149.198257
  0
VERTEX
  8
0
 10
16.002060
 20
149.315857
  0
VERTEX
  8
0
 10
16.619867
 20
149.030579
  0
VERTEX
  8
0
 10
17.220810
 20
148.815857
  0
VERTEX
  8
0
 10
17.828199
 20
149.074554
  0
VERTEX
  8
0
 10
18.439560
 20
149.315857
  0
VERTEX
  8
0
 10
19.045074
 20
149.066406
  0
VERTEX
  8
0
 10
19.658310
 20
148.815857
  0
VERTEX
  8
0
 10
20.341780
 20
149.069366
  0
VERTEX
  8
0
 10
20.939560
 20
149.315857
  0
VERTEX
  8
0
 10
21.247818
 20
149.220825
  0
VERTEX
  8
0
 10
21.532938
 20
149.052444
  0
SEQEND
  0
POLYLINE
  8
0
 66
     1
  0
VERTEX
  8
0
 10
42.533119
 20
135.671783
  0
VERTEX
  8
0
 10
42.883667
 20
135.445740
  0
VERTEX
  8
0
 10
43.314560
 20
135.315857
  0
VERTEX
  8
0
 10
43.924259
 20
135.564957
  0
VERTEX
  8
0
 10
44.533310
 20
135.815857
  0
VERTEX
  8
0
 10
45.142593
 20
135.566116
  0
VERTEX
  8
0
 10
45.752060
 20
135.315857
  0
VERTEX
  8
0
 10
46.361469
 20
135.565750
  0
VERTEX
  8
0
 10
46.970810
 20
135.815857
  0
VERTEX
  8
0
 10
47.580135
 20
135.566055
  0
VERTEX
  8
0
 10
48.189560
 20
135.315857
  0
VERTEX
  8
0
 10
48.799099
 20
135.565170
  0
VERTEX
  8
0
 10
49.408310
 20
135.815857
  0
VERTEX
  8
0
 10
50.017075
 20
135.568405
  0
VERTEX
  8
0
 10
50.627060
 20
135.315857
  0
VERTEX
  8
0
 10
51.238716
 20
135.556351
  0
VERTEX
  8
0
 10
51.845810
 20
135.815857
  0
VERTEX
  8
0
 10
52.446678
 20
135.601349
  0
VERTEX
  8
0
 10
53.064560
 20
135.315857
  0
VERTEX
  8
0
 10
53.705700
 20
135.433426
  0
VERTEX
  8
0
 10
54.283325
 20
135.815857
  0
SEQEND
  0
POLYLINE
  8
0
 66
     1
  0
VERTEX
  8
0
 10
27.533298
 20
149.186035
  0
VERTEX
  8
0
 10
27.678843
 20
149.274506
  0
VERTEX
  8
0
 10
27.939560
 20
149.315857
  0
VERTEX
  8
0
 10
28.549101
 20
149.066544
  0
VERTEX
  8
0
 10
29.158310
 20
148.815857
  0
VERTEX
  8
0
 10
29.767073
 20
149.063309
  0
VERTEX
  8
0
 10
30.377060
 20
149.315857
  0
VERTEX
  8
0
 10
30.988714
 20
149.075363
  0
VERTEX
  8
0
 10
31.595810
 20
148.815857
  0
VERTEX
  8
0
 10
32.196674
 20
149.030365
  0
VERTEX
  8
0
 10
32.814560
 20
149.315857
  0
VERTEX
  8
0
 10
33.455692
 20
149.198288
  0
VERTEX
  8
0
 10
34.033310
 20
148.815857
  0
SEQEND
  0
POINT
  8
0
 10
195.135010
 20
52.315849
  0
POINT
  8
0
 10
245.135010
 20
52.315849
  0
LINE
  8
0
 10
195.135010
 20
64.315849
 11
195.135010
 21
45.315849
  0
LINE
  8
0
 10
187.135010
 20
57.815849
 11
187.135010
 21
46.815849
  0
LINE
  8
0
 10
174.100708
 20
52.315849
 11
251.801697
 21
52.315849
  0
LINE
  8
0
 10
184.285034
 20
55.931866
 11
184.285034
 21
48.699829
  0
LINE
  8
0
 10
179.485046
 20
55.931877
 11
179.485046
 21
48.699814
  0
LINE
  8
0
 10
181.885010
 20
48.699806
 11
181.885010
 21
55.931885
  0
LINE
  8
0
 10
187.635010
 20
58.315849
 11
187.635010
 21
46.315849
  0
LINE
  8
0
 10
191.885010
 20
59.879112
 11
191.885010
 21
44.752571
  0
LINE
  8
0
 10
188.885010
 20
59.967964
 11
188.885010
 21
44.663742
  0
LINE
  8
0
 10
195.135010
 20
45.315849
 11
245.135010
 21
45.315849
  0
LINE
  8
0
 10
195.135010
 20
64.315849
 11
245.135010
 21
64.315849
  0
LINE
  8
0
 10
195.135010
 20
58.315849
 11
245.135010
 21
58.315849
  0
LINE
  8
0
 10
175.635010
 20
54.315849
 11
179.485046
 21
54.315849
  0
LINE
  8
0
 10
175.635010
 20
50.315849
 11
179.485046
 21
50.315849
  0
LINE
  8
0
 10
175.135010
 20
53.815849
 11
175.135010
 21
50.815849
  0
LINE
  8
0
 10
175.634888
 20
54.315918
 11
175.134903
 21
53.815929
  0
LINE
  8
0
 10
175.135010
 20
50.815865
 11
175.634995
 21
50.315872
  0
LINE
  8
0
 10
175.635010
 20
54.315849
 11
175.635010
 21
50.315849
  0
LINE
  8
0
 10
175.285034
 20
50.665848
 11
179.485046
 21
50.665848
  0
LINE
  8
0
 10
175.285034
 20
53.965847
 11
179.485046
 21
53.965847
  0
LINE
  8
0
 10
179.730652
 20
48.274399
 11
181.639404
 21
48.274399
  0
LINE
  8
0
 10
179.730652
 20
50.295128
 11
181.639404
 21
50.295128
  0
LINE
  8
0
 10
179.730652
 20
54.336567
 11
181.639404
 21
54.336567
  0
LINE
  8
0
 10
179.730652
 20
56.357296
 11
181.639404
 21
56.357296
  0
LINE
  8
0
 10
182.130615
 20
48.274399
 11
184.039368
 21
48.274399
  0
LINE
  8
0
 10
182.130615
 20
50.295128
 11
184.039368
 21
50.295128
  0
LINE
  8
0
 10
184.285034
 20
50.315849
 11
186.635010
 21
50.315849
  0
LINE
  8
0
 10
184.285034
 20
50.665848
 11
185.135010
 21
50.665848
  0
LINE
  8
0
 10
182.130615
 20
56.357296
 11
184.039368
 21
56.357296
  0
LINE
  8
0
 10
182.130615
 20
54.336567
 11
184.039368
 21
54.336567
  0
LINE
  8
0
 10
184.285034
 20
54.315849
 11
186.635010
 21
54.315849
  0
LINE
  8
0
 10
184.285034
 20
53.965847
 11
185.135010
 21
53.965847
  0
LINE
  8
0
 10
179.485016
 20
55.931870
 11
179.730637
 21
56.357296
  0
LINE
  8
0
 10
181.885040
 20
55.931900
 11
182.130661
 21
56.357327
  0
LINE
  8
0
 10
184.039429
 20
56.357365
 11
184.285049
 21
55.931938
  0
LINE
  8
0
 10
181.639450
 20
56.357346
 11
181.885056
 21
55.931946
  0
LINE
  8
0
 10
179.485046
 20
48.699860
 11
179.730652
 21
48.274460
  0
LINE
  8
0
 10
181.885040
 20
48.699841
 11
182.130661
 21
48.274414
  0
LINE
  8
0
 10
181.639404
 20
48.274395
 11
181.885010
 21
48.699799
  0
LINE
  8
0
 10
184.039398
 20
48.274395
 11
184.285019
 21
48.699821
  0
LINE
  8
0
 10
187.635010
 20
58.315849
 11
188.885010
 21
58.315849
  0
LINE
  8
0
 10
187.635010
 20
46.315849
 11
188.885010
 21
46.315849
  0
LINE
  8
0
 10
187.135010
 20
57.815849
 11
188.885010
 21
57.815849
  0
LINE
  8
0
 10
187.135010
 20
46.815849
 11
188.885010
 21
46.815849
  0
LINE
  8
0
 10
187.134979
 20
46.815868
 11
187.634995
 21
46.315857
  0
LINE
  8
0
 10
187.134979
 20
57.815891
 11
187.634964
 21
58.315880
  0
LINE
  8
0
 10
189.133728
 20
44.232956
 11
191.585022
 21
44.232956
  0
LINE
  8
0
 10
189.133728
 20
48.274406
 11
191.585022
 21
48.274406
  0
LINE
  8
0
 10
189.133728
 20
56.357292
 11
191.585022
 21
56.357292
  0
LINE
  8
0
 10
189.133728
 20
60.398735
 11
191.585022
 21
60.398735
  0
LINE
  8
0
 10
191.885010
 20
46.815849
 11
193.635010
 21
46.815849
  0
LINE
  8
0
 10
191.885010
 20
46.315849
 11
195.135010
 21
46.315849
  0
LINE
  8
0
 10
191.885010
 20
58.315849
 11
195.135010
 21
58.315849
  0
LINE
  8
0
 10
191.885010
 20
57.815849
 11
193.635010
 21
57.815849
  0
LINE
  8
0
 10
188.885040
 20
59.967995
 11
189.133743
 21
60.398762
  0
LINE
  8
0
 10
191.585037
 20
44.232952
 11
191.885040
 21
44.752571
  0
LINE
  8
0
 10
188.885071
 20
44.663765
 11
189.133774
 21
44.232998
  0
LINE
  8
0
 10
191.585022
 20
60.398777
 11
191.885025
 21
59.879158
  0
LINE
  8
0
 10
195.135010
 20
62.815849
 11
245.135010
 21
62.815849
  0
LINE
  8
0
 10
245.135010
 20
64.315849
 11
245.135010
 21
45.315849
  0
LINE
  8
0
 10
185.135010
 20
54.315849
 11
185.135010
 21
50.315849
  0
LINE
  8
0
 10
185.135010
 20
50.665916
 11
185.485001
 21
50.315926
  0
LINE
  8
0
 10
185.135040
 20
53.965824
 11
185.485031
 21
54.315819
  0
LINE
  8
0
 10
193.635010
 20
58.315849
 11
193.635010
 21
46.315849
  0
LINE
  8
0
 10
193.635040
 20
57.815804
 11
194.135056
 21
58.315815
  0
LINE
  8
0
 10
193.635071
 20
46.815899
 11
194.135071
 21
46.315910
  0
LINE
  8
0
 10
238.635010
 20
60.844139
 11
238.635010
 21
44.344223
  0
LINE
  8
0
 10
186.635010
 20
54.315891
 11
187.135010
 21
54.815880
  0
LINE
  8
0
 10
186.634979
 20
50.315819
 11
187.134964
 21
49.815830
  0
LINE
  8
0
 10
186.635010
 20
54.315849
 11
186.635010
 21
50.315849
  0
ARC
  8
0
 10
187.920166
 20
52.315849
 40
8.435160
 50
166.139526
 51
193.860504
  0
ARC
  8
0
 10
173.450012
 20
52.315849
 40
8.435044
 50
346.139252
 51
13.860755
  0
ARC
  8
0
 10
190.320312
 20
52.315845
 40
8.435293
 50
166.139740
 51
193.860184
  0
ARC
  8
0
 10
175.849731
 20
52.315849
 40
8.435292
 50
346.139771
 51
13.860257
  0
ARC
  8
0
 10
184.085876
 20
55.346931
 40
2.200882
 50
152.672729
 51
207.327454
  0
ARC
  8
0
 10
182.084106
 20
55.346931
 40
2.200884
 50
332.672638
 51
27.327274
  0
ARC
  8
0
 10
181.685974
 20
55.346931
 40
2.200950
 50
152.673645
 51
207.326355
  0
ARC
  8
0
 10
181.685974
 20
49.284767
 40
2.200935
 50
152.673538
 51
207.326538
  0
ARC
  8
0
 10
179.684082
 20
49.284767
 40
2.200950
 50
332.673645
 51
27.326273
  0
ARC
  8
0
 10
184.085876
 20
49.284767
 40
2.200886
 50
152.672546
 51
207.327271
  0
ARC
  8
0
 10
182.084106
 20
49.284767
 40
2.200882
 50
332.672729
 51
27.327450
  0
ARC
  8
0
 10
179.684082
 20
55.346931
 40
2.200948
 50
332.673737
 51
27.326361
  0
ARC
  8
0
 10
197.218323
 20
58.378014
 40
8.333336
 50
165.966660
 51
194.033310
  0
ARC
  8
0
 10
184.929565
 20
58.378014
 40
6.955475
 50
343.110718
 51
16.889267
  0
ARC
  8
0
 10
221.845215
 20
52.315849
 40
32.960197
 50
172.956909
 51
187.043076
  0
ARC
  8
0
 10
164.513184
 20
52.315849
 40
27.371796
 50
351.509247
 51
8.490735
  0
ARC
  8
0
 10
197.218384
 20
46.253685
 40
8.333349
 50
165.966705
 51
194.033310
  0
ARC
  8
0
 10
184.929504
 20
46.253685
 40
6.955490
 50
343.110779
 51
16.889297
  0
CIRCLE
  8
0
 10
238.635010
 20
52.315849
 40
2.500000
  0
CIRCLE
  8
0
 10
238.635010
 20
52.315849
 40
5.000000
  0
POINT
  8
0
 10
134.135010
 20
52.315849
  0
POINT
  8
0
 10
142.635010
 20
52.315849
  0
LINE
  8
0
 10
120.336975
 20
52.315849
 11
147.231689
 21
52.315849
  0
LINE
  8
0
 10
130.135010
 20
64.315849
 11
138.135010
 21
64.315849
  0
LINE
  8
0
 10
128.635010
 20
45.315849
 11
132.259338
 21
45.315849
  0
LINE
  8
0
 10
134.135010
 20
66.575806
 11
134.135010
 21
39.192135
  0
LINE
  8
0
 10
137.635010
 20
62.815849
 11
137.635010
 21
58.378025
  0
LINE
  8
0
 10
130.635010
 20
62.815849
 11
130.635010
 21
58.378029
  0
LINE
  8
0
 10
138.135010
 20
64.315849
 11
138.135010
 21
62.815849
  0
LINE
  8
0
 10
130.135010
 20
64.315849
 11
130.135010
 21
62.815849
  0
LINE
  8
0
 10
130.135010
 20
62.815849
 11
130.635010
 21
62.815849
  0
LINE
  8
0
 10
126.635010
 20
58.315849
 11
130.527283
 21
58.315849
  0
LINE
  8
0
 10
137.742737
 20
58.315849
 11
141.635010
 21
58.315849
  0
LINE
  8
0
 10
137.635010
 20
62.815849
 11
138.135010
 21
62.815849
  0
LINE
  8
0
 10
130.635010
 20
54.336571
 11
130.635010
 21
50.295120
  0
LINE
  8
0
 10
137.635010
 20
54.336571
 11
137.635010
 21
50.295120
  0
LINE
  8
0
 10
130.634918
 20
54.336563
 11
134.134933
 21
56.357300
  0
LINE
  8
0
 10
134.134964
 20
48.274429
 11
137.634949
 21
50.295151
  0
LINE
  8
0
 10
134.135010
 20
56.357330
 11
137.635010
 21
54.336609
  0
LINE
  8
0
 10
130.635025
 20
50.295162
 11
134.135025
 21
48.274441
  0
LINE
  8
0
 10
127.135010
 20
56.357300
 11
127.135010
 21
48.274399
  0
LINE
  8
0
 10
141.135010
 20
56.357300
 11
141.135010
 21
48.274399
  0
LINE
  8
0
 10
127.134918
 20
56.357300
 11
134.134918
 21
60.398758
  0
LINE
  8
0
 10
134.134918
 20
44.232941
 11
141.134933
 21
48.274399
  0
LINE
  8
0
 10
134.135025
 20
60.398769
 11
141.135010
 21
56.357327
  0
LINE
  8
0
 10
127.135056
 20
48.274418
 11
134.135040
 21
44.232975
  0
LINE
  8
0
 10
136.010681
 20
45.315849
 11
139.635010
 21
45.315849
  0
LINE
  8
0
 10
126.635010
 20
58.315849
 11
126.635010
 21
47.315849
  0
LINE
  8
0
 10
141.635010
 20
58.315849
 11
141.635010
 21
47.315849
  0
LINE
  8
0
 10
125.635010
 20
57.315849
 11
125.635010
 21
47.315849
  0
LINE
  8
0
 10
142.635010
 20
57.315849
 11
142.635010
 21
47.315849
  0
LINE
  8
0
 10
125.635010
 20
47.315849
 11
126.635010
 21
47.315849
  0
LINE
  8
0
 10
125.635010
 20
57.315849
 11
126.635010
 21
57.315849
  0
LINE
  8
0
 10
141.635010
 20
57.315849
 11
142.635010
 21
57.315849
  0
LINE
  8
0
 10
141.635010
 20
47.315849
 11
142.635010
 21
47.315849
  0
CIRCLE
  8
0
 10
134.135010
 20
52.315849
 40
3.500000
  0
CIRCLE
  8
0
 10
134.135010
 20
52.315849
 40
2.000000
  0
CIRCLE
  8
0
 10
134.135010
 20
52.315849
 40
7.000000
  0
CIRCLE
  8
0
 10
134.135010
 20
52.315849
 40
6.000000
  0
CIRCLE
  8
0
 10
134.135010
 20
52.315849
 40
5.500000
  0
CIRCLE
  8
0
 10
134.135010
 20
52.315849
 40
1.650000
  0
ARC
  8
0
 10
128.635010
 20
47.315849
 40
2.000000
 50
180.000000
 51
270.000000
  0
ARC
  8
0
 10
139.635010
 20
47.315849
 40
2.000000
 50
270.000000
 51
0.000000
  0
POINT
  8
0
 10
245.135010
 20
142.315857
  0
POINT
  8
0
 10
195.135010
 20
142.315857
  0
LINE
  8
0
 10
195.135010
 20
146.315857
 11
245.135010
 21
146.315857
  0
LINE
  8
0
 10
195.135010
 20
138.315857
 11
245.135010
 21
138.315857
  0
LINE
  8
0
 10
228.135010
 20
146.065857
 11
228.135010
 21
138.565857
  0
LINE
  8
0
 10
201.135010
 20
146.065857
 11
201.135010
 21
138.565857
  0
LINE
  8
0
 10
187.135010
 20
147.815857
 11
187.135010
 21
136.815857
  0
LINE
  8
0
 10
193.635010
 20
148.315857
 11
193.635010
 21
136.315857
  0
LINE
  8
0
 10
173.585632
 20
142.315857
 11
256.287292
 21
142.315857
  0
LINE
  8
0
 10
181.885010
 20
138.815857
 11
181.885010
 21
145.815857
  0
LINE
  8
0
 10
187.635010
 20
148.315857
 11
187.635010
 21
136.315857
  0
LINE
  8
0
 10
179.730652
 20
142.315857
 11
181.639404
 21
142.315857
  0
LINE
  8
0
 10
184.039368
 20
142.315857
 11
182.130615
 21
142.315857
  0
LINE
  8
0
 10
195.135010
 20
149.815857
 11
195.135010
 21
134.815857
  0
LINE
  8
0
 10
191.885010
 20
149.315857
 11
191.885010
 21
135.315857
  0
LINE
  8
0
 10
188.885010
 20
149.315857
 11
188.885010
 21
135.315857
  0
LINE
  8
0
 10
189.133728
 20
142.315857
 11
191.636292
 21
142.315857
  0
LINE
  8
0
 10
175.135010
 20
143.815857
 11
175.135010
 21
140.815857
  0
LINE
  8
0
 10
245.135010
 20
149.815857
 11
245.135010
 21
134.815857
  0
LINE
  8
0
 10
195.135010
 20
149.815857
 11
245.135010
 21
149.815857
  0
LINE
  8
0
 10
195.135010
 20
134.815857
 11
245.135010
 21
134.815857
  0
LINE
  8
0
 10
175.635010
 20
144.315857
 11
179.485046
 21
144.315857
  0
LINE
  8
0
 10
175.635010
 20
140.315857
 11
179.485046
 21
140.315857
  0
LINE
  8
0
 10
175.285034
 20
140.665848
 11
179.485046
 21
140.665848
  0
LINE
  8
0
 10
175.285034
 20
143.965851
 11
179.485046
 21
143.965851
  0
LINE
  8
0
 10
175.635010
 20
144.315857
 11
175.135010
 21
143.815857
  0
LINE
  8
0
 10
175.634995
 20
140.315842
 11
175.134995
 21
140.815842
  0
LINE
  8
0
 10
175.635010
 20
144.315857
 11
175.635010
 21
140.315857
  0
LINE
  8
0
 10
185.135010
 20
144.315857
 11
185.135010
 21
140.315857
  0
LINE
  8
0
 10
185.135025
 20
140.665939
 11
185.485031
 21
140.315918
  0
LINE
  8
0
 10
185.135025
 20
143.965820
 11
185.485031
 21
144.315842
  0
LINE
  8
0
 10
179.485046
 20
145.815857
 11
179.485046
 21
138.815857
  0
LINE
  8
0
 10
184.285034
 20
145.815857
 11
184.285034
 21
138.815857
  0
LINE
  8
0
 10
179.485046
 20
145.815857
 11
184.285034
 21
145.815857
  0
LINE
  8
0
 10
179.485046
 20
138.815857
 11
184.285034
 21
138.815857
  0
LINE
  8
0
 10
184.285034
 20
140.315857
 11
186.635010
 21
140.315857
  0
LINE
  8
0
 10
184.285034
 20
140.665848
 11
185.135010
 21
140.665848
  0
LINE
  8
0
 10
184.285034
 20
143.965851
 11
185.135010
 21
143.965851
  0
LINE
  8
0
 10
184.285034
 20
144.315857
 11
186.635010
 21
144.315857
  0
LINE
  8
0
 10
188.885010
 20
149.315857
 11
191.885010
 21
149.315857
  0
LINE
  8
0
 10
188.885010
 20
135.315857
 11
191.885010
 21
135.315857
  0
LINE
  8
0
 10
191.885010
 20
148.315857
 11
195.135010
 21
148.315857
  0
LINE
  8
0
 10
187.635010
 20
148.315857
 11
188.885010
 21
148.315857
  0
LINE
  8
0
 10
191.885010
 20
136.315857
 11
195.135010
 21
136.315857
  0
LINE
  8
0
 10
187.635010
 20
136.315857
 11
188.885010
 21
136.315857
  0
LINE
  8
0
 10
191.885010
 20
136.815857
 11
193.635010
 21
136.815857
  0
LINE
  8
0
 10
187.135010
 20
136.815857
 11
188.885010
 21
136.815857
  0
LINE
  8
0
 10
187.135010
 20
147.815857
 11
188.885010
 21
147.815857
  0
LINE
  8
0
 10
191.885010
 20
147.815857
 11
193.635010
 21
147.815857
  0
LINE
  8
0
 10
193.635040
 20
136.815903
 11
194.135025
 21
136.315918
  0
LINE
  8
0
 10
193.635056
 20
147.815887
 11
194.135040
 21
148.315872
  0
LINE
  8
0
 10
187.134872
 20
136.815735
 11
187.634857
 21
136.315750
  0
LINE
  8
0
 10
187.134995
 20
147.815842
 11
187.635010
 21
148.315857
  0
LINE
  8
0
 10
233.635010
 20
150.815857
 11
243.635010
 21
150.815857
  0
LINE
  8
0
 10
233.635010
 20
133.815857
 11
243.635010
 21
133.815857
  0
LINE
  8
0
 10
238.635010
 20
155.773437
 11
238.635010
 21
128.681732
  0
LINE
  8
0
 10
243.635010
 20
150.815857
 11
243.635010
 21
149.815857
  0
LINE
  8
0
 10
233.635010
 20
150.815857
 11
233.635010
 21
149.815857
  0
LINE
  8
0
 10
233.635010
 20
134.815857
 11
233.635010
 21
133.815857
  0
LINE
  8
0
 10
243.635010
 20
134.815857
 11
243.635010
 21
133.815857
  0
LINE
  8
0
 10
187.134979
 20
144.815872
 11
186.634979
 21
144.315887
  0
LINE
  8
0
 10
187.135010
 20
139.815857
 11
186.635025
 21
140.315842
  0
LINE
  8
0
 10
186.635010
 20
144.315857
 11
186.635010
 21
140.315857
  0
CIRCLE
  8
0
 10
228.135010
 20
142.315857
 40
2.500000
  0
CIRCLE
  8
0
 10
228.135010
 20
142.315857
 40
2.100000
  0
CIRCLE
  8
0
 10
201.135010
 20
142.315857
 40
2.500000
  0
CIRCLE
  8
0
 10
201.135010
 20
142.315857
 40
2.100000
  0
CIRCLE
  8
0
 10
201.135010
 20
142.315857
 40
0.300000
  0
ARC
  8
0
 10
185.842041
 20
144.065857
 40
6.357010
 50
164.020905
 51
195.979095
  0
ARC
  8
0
 10
175.528015
 20
144.065857
 40
6.357010
 50
344.020905
 51
15.979097
  0
ARC
  8
0
 10
188.242004
 20
144.065857
 40
6.357010
 50
164.020905
 51
195.979095
  0
ARC
  8
0
 10
177.928162
 20
144.065857
 40
6.356820
 50
344.020416
 51
15.979589
  0
ARC
  8
0
 10
177.928162
 20
140.565857
 40
6.356820
 50
344.020416
 51
15.979589
  0
ARC
  8
0
 10
188.242004
 20
140.565857
 40
6.357010
 50
164.020905
 51
195.979095
  0
ARC
  8
0
 10
175.528015
 20
140.565857
 40
6.357010
 50
344.020905
 51
15.979097
  0
ARC
  8
0
 10
185.842041
 20
140.565857
 40
6.357010
 50
164.020905
 51
195.979095
  0
ARC
  8
0
 10
213.635620
 20
138.815857
 40
24.750610
 50
171.870514
 51
188.129440
  0
ARC
  8
0
 10
167.134399
 20
145.815857
 40
24.750610
 50
351.870514
 51
8.129483
  0
ARC
  8
0
 10
213.635620
 20
145.815857
 40
24.750610
 50
171.870514
 51
188.129440
  0
ARC
  8
0
 10
167.134399
 20
138.815857
 40
24.750610
 50
351.870514
 51
8.129483
  0
CIRCLE
  8
0
 10
228.135010
 20
142.315857
 40
0.300000
  0
POINT
  8
0
 10
-187.750000
 20
-132.000000
  0
POINT
  8
0
 10
-142.750000
 20
-132.000000
  0
LINE
  8
0
 10
-189.350006
 20
-123.000000
 11
-189.350006
 21
-141.399994
  0
LINE
  8
0
 10
-189.350006
 20
-123.000000
 11
-187.750000
 21
-123.000000
  0
LINE
  8
0
 10
-185.750000
 20
-145.000000
 11
-177.350006
 21
-145.000000
  0
LINE
  8
0
 10
-185.750000
 20
-143.399994
 11
-177.350006
 21
-143.399994
  0
LINE
  8
0
 10
-177.350006
 20
-143.399994
 11
-177.350006
 21
-145.000000
  0
LINE
  8
0
 10
-182.350006
 20
-141.433807
 11
-182.350006
 21
-146.547821
  0
LINE
  8
0
  6
DASHED
 10
-180.100006
 20
-143.399994
 11
-180.100006
 21
-145.000000
  0
LINE
  8
0
  6
DASHED
 10
-184.600006
 20
-143.399994
 11
-184.600006
 21
-145.000000
  0
LINE
  8
0
 10
-187.750000
 20
-123.000000
 11
-187.750000
 21
-141.399994
  0
ARC
  8
0
 10
-185.750000
 20
-141.399994
 40
2.000000
 50
180.000000
 51
270.000000
  0
ARC
  8
0
 10
-185.750000
 20
-141.399994
 40
3.600006
 50
180.000000
 51
270.000000
  0
POINT
  8
0
 10
-246.250000
 20
-132.000000
  0
POINT
  8
0
 10
-232.804611
 20
-132.000000
  0
LINE
  8
0
 10
-229.750000
 20
-143.399994
 11
-229.750000
 21
-145.000000
  0
LINE
  8
0
 10
-262.750000
 20
-143.400009
 11
-262.750000
 21
-145.000000
  0
LINE
  8
0
 10
-258.250000
 20
-140.815643
 11
-258.250000
 21
-147.023605
  0
LINE
  8
0
 10
-234.250000
 20
-140.917404
 11
-234.250000
 21
-146.921829
  0
LINE
  8
0
 10
-262.750000
 20
-145.000000
 11
-229.750000
 21
-145.000000
  0
LINE
  8
0
 10
-254.981857
 20
-123.000000
 11
-237.518143
 21
-123.000000
  0
LINE
  8
0
  6
DASHED
 10
-262.750000
 20
-143.399994
 11
-229.750000
 21
-143.399994
  0
LINE
  8
0
 10
-262.750000
 20
-143.400009
 11
-257.879639
 21
-125.223541
  0
LINE
  8
0
 10
-234.620361
 20
-125.223534
 11
-229.749985
 21
-143.399994
  0
LINE
  8
0
  6
DASHED
 10
-256.000000
 20
-143.399994
 11
-256.000000
 21
-145.000000
  0
LINE
  8
0
  6
DASHED
 10
-260.500000
 20
-143.399994
 11
-260.500000
 21
-145.000000
  0
LINE
  8
0
  6
DASHED
 10
-232.000000
 20
-143.399994
 11
-232.000000
 21
-145.000000
  0
LINE
  8
0
  6
DASHED
 10
-236.500000
 20
-143.399994
 11
-236.500000
 21
-145.000000
  0
LINE
  8
0
 10
-254.750000
 20
-123.000000
 11
-254.000000
 21
-123.000000
  0
LINE
  8
0
 10
-237.750000
 20
-123.000000
 11
-238.500000
 21
-123.000000
  0
ARC
  8
0
 10
-254.981857
 20
-126.000000
 40
3.000000
 50
90.000000
 51
164.999985
  0
ARC
  8
0
 10
-237.518143
 20
-126.000000
 40
3.000004
 50
15.000010
 51
90.000000
  0
POINT
  8
0
 10
-187.750000
 20
-42.000000
  0
POINT
  8
0
 10
-142.750000
 20
-42.000000
  0
LINE
  8
0
 10
-189.350006
 20
-25.500000
 11
-189.350006
 21
-58.500000
  0
LINE
  8
0
 10
-177.350006
 20
-28.500000
 11
-177.350006
 21
-34.500000
  0
LINE
  8
0
 10
-182.350006
 20
-25.934990
 11
-182.350006
 21
-34.002174
  0
LINE
  8
0
 10
-189.350006
 20
-25.500000
 11
-180.350006
 21
-25.500000
  0
LINE
  8
0
 10
-189.350006
 20
-58.500000
 11
-180.350006
 21
-58.500000
  0
LINE
  8
0
 10
-186.566162
 20
-54.000000
 11
-178.078796
 21
-54.000000
  0
LINE
  8
0
 10
-186.566162
 20
-30.000000
 11
-177.994781
 21
-30.000000
  0
LINE
  8
0
 10
-182.350006
 20
-49.884445
 11
-182.350006
 21
-58.119698
  0
LINE
  8
0
 10
-177.350006
 20
-49.500000
 11
-177.350006
 21
-55.500000
  0
LINE
  8
0
 10
-187.750000
 20
-25.500000
 11
-187.750000
 21
-58.500000
  0
ARC
  8
0
 10
-180.350006
 20
-28.500000
 40
3.000000
 50
0.000000
 51
90.000000
  0
ARC
  8
0
 10
-180.350006
 20
-55.500000
 40
3.000000
 50
270.000000
 51
0.000000
  0
CIRCLE
  8
0
 10
-182.350006
 20
-30.000000
 40
2.250000
  0
CIRCLE
  8
0
 10
-182.350006
 20
-54.000000
 40
2.250000
  0
POINT
  8
0
 10
-39.966675
 20
-132.000000
  0
POINT
  8
0
 10
5.033325
 20
-132.000000
  0
LINE
  8
0
 10
-41.566673
 20
-123.000000
 11
-41.566673
 21
-141.000000
  0
LINE
  8
0
 10
-41.566673
 20
-141.000000
 11
-39.966675
 21
-141.000000
  0
LINE
  8
0
 10
-41.566673
 20
-123.000000
 11
-39.966675
 21
-123.000000
  0
LINE
  8
0
 10
-39.966675
 20
-123.000000
 11
-39.966675
 21
-141.000000
  0
POINT
  8
0
 10
-98.466675
 20
-132.000000
  0
POINT
  8
0
 10
-79.966675
 20
-132.000000
  0
LINE
  8
0
 10
-119.420959
 20
-132.000000
 11
-77.902763
 21
-132.000000
  0
LINE
  8
0
 10
-113.966675
 20
-123.000000
 11
-82.966675
 21
-123.000000
  0
LINE
  8
0
 10
-113.966675
 20
-141.000000
 11
-82.966675
 21
-141.000000
  0
LINE
  8
0
 10
-79.966675
 20
-126.000000
 11
-79.966675
 21
-138.000000
  0
LINE
  8
0
 10
-116.966675
 20
-126.000000
 11
-116.966675
 21
-138.000000
  0
LINE
  8
0
 10
-84.466675
 20
-127.255653
 11
-84.466675
 21
-136.459198
  0
LINE
  8
0
 10
-112.466675
 20
-127.255653
 11
-112.466675
 21
-136.765976
  0
ARC
  8
0
 10
-113.966675
 20
-126.000000
 40
3.000000
 50
90.000000
 51
180.000000
  0
ARC
  8
0
 10
-113.966675
 20
-138.000000
 40
3.000000
 50
180.000000
 51
270.000000
  0
ARC
  8
0
 10
-82.966675
 20
-126.000000
 40
3.000000
 50
0.000000
 51
90.000000
  0
ARC
  8
0
 10
-82.966675
 20
-138.000000
 40
3.000000
 50
270.000000
 51
0.000000
  0
CIRCLE
  8
0
 10
-112.466675
 20
-132.000000
 40
2.250000
  0
CIRCLE
  8
0
 10
-84.466675
 20
-132.000000
 40
2.250000
  0
POINT
  8
0
 10
-39.966675
 20
-42.000000
  0
POINT
  8
0
 10
5.033325
 20
-42.000000
  0
LINE
  8
0
 10
-39.966675
 20
-23.500000
 11
-39.966675
 21
-60.500000
  0
LINE
  8
0
 10
-41.566673
 20
-23.500000
 11
-39.966675
 21
-23.500000
  0
LINE
  8
0
 10
-41.566673
 20
-60.500000
 11
-39.966675
 21
-60.500000
  0
LINE
  8
0
 10
-41.566673
 20
-23.666664
 11
-41.566673
 21
-60.500000
  0
LINE
  8
0
 10
-45.633339
 20
-56.000000
 11
-36.633339
 21
-56.000000
  0
LINE
  8
0
 10
-45.966675
 20
-28.000000
 11
-36.966675
 21
-28.000000
  0
POINT
  8
0
 10
136.316650
 20
-132.000000
  0
POINT
  8
0
 10
146.119583
 20
-132.000000
  0
POINT
  8
0
 10
136.316650
 20
-132.000000
  0
LINE
  8
0
  6
DASHED
 10
150.566650
 20
-150.399994
 11
150.566650
 21
-152.000000
  0
LINE
  8
0
 10
152.816650
 20
-150.399994
 11
152.816650
 21
-152.000000
  0
LINE
  8
0
 10
119.816650
 20
-150.399994
 11
127.615097
 21
-128.973923
  0
LINE
  8
0
 10
130.434174
 20
-127.000000
 11
142.199127
 21
-127.000000
  0
LINE
  8
0
  6
DASHED
 10
119.816650
 20
-150.399994
 11
152.816650
 21
-150.399994
  0
LINE
  8
0
  6
DASHED
 10
146.066650
 20
-150.399994
 11
146.066650
 21
-152.000000
  0
LINE
  8
0
  6
DASHED
 10
126.566650
 20
-150.399994
 11
126.566650
 21
-152.000000
  0
LINE
  8
0
 10
119.816650
 20
-152.000000
 11
152.816650
 21
-152.000000
  0
LINE
  8
0
  6
DASHED
 10
122.066650
 20
-150.399994
 11
122.066650
 21
-152.000000
  0
LINE
  8
0
 10
124.316650
 20
-148.754883
 11
124.316650
 21
-153.661835
  0
LINE
  8
0
 10
145.018173
 20
-128.973923
 11
152.816635
 21
-150.399994
  0
LINE
  8
0
 10
119.816650
 20
-150.399994
 11
119.816650
 21
-152.000000
  0
LINE
  8
0
 10
148.316650
 20
-148.624039
 11
148.316650
 21
-153.596405
  0
LINE
  8
0
 10
138.700516
 20
-135.298370
 11
138.822662
 21
-135.754227
  0
LINE
  8
0
 10
137.294342
 20
-134.836273
 11
137.386551
 21
-135.359222
  0
LINE
  8
0
 10
137.486526
 20
-135.926193
 11
137.591110
 21
-136.519302
  0
LINE
  8
0
 10
135.043045
 20
-136.519470
 11
135.147629
 21
-135.926315
  0
LINE
  8
0
 10
135.247589
 20
-135.359375
 11
135.339798
 21
-134.836441
  0
LINE
  8
0
 10
133.811310
 20
-135.754456
 11
133.933456
 21
-135.298584
  0
ARC
  8
0
 10
130.434174
 20
-130.000000
 40
3.000000
 50
90.000000
 51
159.999969
  0
ARC
  8
0
 10
142.199127
 20
-130.000000
 40
2.999999
 50
20.000036
 51
90.000000
  0
CIRCLE
  8
0
 10
136.316650
 20
-132.000000
 40
3.000000
  0
CIRCLE
  8
0
 10
136.316650
 20
-132.000000
 40
2.400000
  0
ARC
  8
0
 10
136.316650
 20
-131.699997
 40
3.999998
 50
309.563751
 51
230.436859
  0
ARC
  8
0
 10
139.182861
 20
-135.169128
 40
0.500006
 50
129.562897
 51
194.999786
  0
ARC
  8
0
 10
137.519379
 20
-135.628082
 40
0.300002
 50
263.642761
 51
116.355217
  0
ARC
  8
0
 10
136.290497
 20
-131.701141
 40
4.999998
 50
285.092560
 51
298.487793
  0
ARC
  8
0
 10
138.532257
 20
-135.832062
 40
0.299999
 50
298.489044
 51
15.001060
  0
ARC
  8
0
 10
135.113968
 20
-135.628098
 40
0.299996
 50
63.631748
 51
276.365936
  0
ARC
  8
0
 10
136.342789
 20
-131.701141
 40
5.000003
 50
241.512833
 51
254.908707
  0
ARC
  8
0
 10
133.450470
 20
-135.169159
 40
0.499993
 50
344.999756
 51
50.437107
  0
ARC
  8
0
 10
134.101074
 20
-135.832092
 40
0.300003
 50
164.998932
 51
241.510941
  0
POINT
  8
0
 10
136.316650
 20
-42.000000
  0
POINT
  8
0
 10
152.816650
 20
-42.000000
  0
LINE
  8
0
 10
119.816650
 20
-31.750000
 11
152.816650
 21
-31.750000
  0
LINE
  8
0
 10
119.816650
 20
-52.250000
 11
152.816650
 21
-52.250000
  0
LINE
  8
0
 10
152.816650
 20
-31.750000
 11
152.816650
 21
-52.250000
  0
LINE
  8
0
 10
119.816650
 20
-31.750000
 11
119.816650
 21
-34.500000
  0
LINE
  8
0
 10
119.816650
 20
-33.349998
 11
152.816650
 21
-33.349998
  0
LINE
  8
0
 10
119.816650
 20
-50.650002
 11
152.816650
 21
-50.650002
  0
LINE
  8
0
 10
138.816650
 20
-29.750000
 11
138.816650
 21
-30.750000
  0
LINE
  8
0
 10
133.816650
 20
-29.750000
 11
133.816650
 21
-30.750000
  0
LINE
  8
0
 10
133.816650
 20
-54.250000
 11
138.816650
 21
-54.250000
  0
LINE
  8
0
 10
133.816650
 20
-29.750000
 11
138.816650
 21
-29.750000
  0
LINE
  8
0
 10
132.816650
 20
-52.550003
 11
139.816650
 21
-52.550003
  0
LINE
  8
0
 10
132.816650
 20
-31.449997
 11
139.816650
 21
-31.449997
  0
LINE
  8
0
 10
132.816650
 20
-53.250000
 11
139.816650
 21
-53.250000
  0
LINE
  8
0
 10
132.816650
 20
-30.750000
 11
139.816650
 21
-30.750000
  0
LINE
  8
0
 10
133.816650
 20
-50.500000
 11
133.816650
 21
-50.650002
  0
LINE
  8
0
 10
138.816650
 20
-50.500000
 11
138.816650
 21
-50.650002
  0
LINE
  8
0
 10
133.816650
 20
-33.349998
 11
133.816650
 21
-33.500000
  0
LINE
  8
0
 10
138.816650
 20
-33.349998
 11
138.816650
 21
-33.500000
  0
LINE
  8
0
 10
133.816650
 20
-52.250000
 11
133.816650
 21
-52.550003
  0
LINE
  8
0
 10
138.816650
 20
-52.250000
 11
138.816650
 21
-52.550003
  0
LINE
  8
0
 10
119.816650
 20
-49.500000
 11
119.816650
 21
-52.250000
  0
LINE
  8
0
 10
133.816650
 20
-53.250000
 11
133.816650
 21
-54.250000
  0
LINE
  8
0
 10
138.816650
 20
-53.250000
 11
138.816650
 21
-54.250000
  0
LINE
  8
0
 10
138.816650
 20
-31.449997
 11
138.816650
 21
-31.750000
  0
LINE
  8
0
 10
133.816650
 20
-31.449997
 11
133.816650
 21
-31.750000
  0
LINE
  8
0
 10
148.316650
 20
-38.253052
 11
148.316650
 21
-45.614365
  0
LINE
  8
0
 10
132.816650
 20
-30.750000
 11
132.816650
 21
-31.449997
  0
LINE
  8
0
 10
139.816650
 20
-30.750000
 11
139.816650
 21
-31.449997
  0
LINE
  8
0
 10
132.816650
 20
-52.550003
 11
132.816650
 21
-53.250000
  0
LINE
  8
0
 10
139.816650
 20
-52.550003
 11
139.816650
 21
-53.250000
  0
LINE
  8
0
 10
144.121140
 20
-42.000000
 11
152.384705
 21
-42.000000
  0
CIRCLE
  8
0
 10
148.316650
 20
-42.000000
 40
2.250000
  0
POINT
  8
0
 10
235.877625
 20
-24.288223
  0
POINT
  8
0
 10
245.877625
 20
-24.288221
  0
LINE
  8
0
 10
235.877625
 20
-18.288208
 11
235.877625
 21
-30.288208
  0
LINE
  8
0
 10
209.485336
 20
-30.288227
 11
235.877640
 21
-30.288223
  0
LINE
  8
0
 10
209.485336
 20
-18.288227
 11
235.877640
 21
-18.288223
  0
LINE
  8
0
  6
DASHED
 10
224.877625
 20
-18.288210
 11
224.877625
 21
-30.288210
  0
LINE
  8
0
 10
214.877625
 20
-12.260075
 11
214.877625
 21
-36.812656
  0
LINE
  8
0
 10
206.479233
 20
-24.288229
 11
237.766251
 21
-24.288223
  0
LINE
  8
0
  6
DASHED
 10
227.877625
 20
-22.288210
 11
227.877625
 21
-26.288210
  0
LINE
  8
0
  6
DASHED
 10
227.877640
 20
-22.288225
 11
235.877640
 21
-22.288223
  0
LINE
  8
0
  6
DASHED
 10
227.877640
 20
-26.288225
 11
235.877640
 21
-26.288223
  0
LINE
  8
0
  6
DASHED
 10
224.924942
 20
-24.288477
 11
225.877579
 21
-22.638464
  0
LINE
  8
0
  6
DASHED
 10
224.924927
 20
-24.288084
 11
225.877548
 21
-25.938072
  0
LINE
  8
0
  6
DASHED
 10
225.877243
 20
-25.938219
 11
235.877640
 21
-25.938217
  0
LINE
  8
0
  6
DASHED
 10
225.877274
 20
-22.638231
 11
235.877640
 21
-22.638229
  0
LINE
  8
0
  6
DASHED
 10
225.877228
 20
-25.938204
 11
225.877228
 21
-22.638216
  0
CIRCLE
  8
0
 10
214.877640
 20
-24.288204
 40
1.650000
  0
ARC
  8
0
 10
219.877640
 20
-24.288202
 40
11.999996
 50
150.000015
 51
210.000000
  0
ARC
  8
0
 10
219.877640
 20
-24.288202
 40
10.499450
 50
145.148071
 51
214.851944
  0
ARC
  8
0
 10
215.877625
 20
-24.288227
 40
11.999998
 50
330.000000
 51
30.000011
  0
POINT
  8
0
 10
235.877625
 20
-58.288227
  0
POINT
  8
0
 10
245.877625
 20
-58.288227
  0
LINE
  8
0
 10
235.877625
 20
-52.288212
 11
235.877625
 21
-64.288208
  0
LINE
  8
0
 10
209.378189
 20
-64.288231
 11
235.877640
 21
-64.288223
  0
LINE
  8
0
 10
209.378189
 20
-52.288231
 11
235.877640
 21
-52.288227
  0
LINE
  8
0
 10
207.877640
 20
-59.888237
 11
224.877640
 21
-59.888237
  0
LINE
  8
0
 10
207.877640
 20
-56.688255
 11
224.877640
 21
-56.688255
  0
LINE
  8
0
 10
224.877625
 20
-56.688240
 11
224.877625
 21
-59.888222
  0
LINE
  8
0
 10
216.527618
 20
-52.288216
 11
216.527618
 21
-56.688240
  0
LINE
  8
0
 10
213.227631
 20
-52.288216
 11
213.227631
 21
-56.688240
  0
LINE
  8
0
  6
DASHED
 10
216.527618
 20
-59.888222
 11
216.527618
 21
-64.288208
  0
LINE
  8
0
  6
DASHED
 10
213.227631
 20
-59.888222
 11
213.227631
 21
-64.288208
  0
LINE
  8
0
 10
214.877625
 20
-48.910709
 11
214.877625
 21
-68.400940
  0
LINE
  8
0
 10
201.202072
 20
-58.288235
 11
240.465744
 21
-58.288227
  0
LINE
  8
0
 10
227.877625
 20
-56.288212
 11
227.877625
 21
-58.288212
  0
LINE
  8
0
 10
227.877640
 20
-56.288227
 11
235.877640
 21
-56.288227
  0
LINE
  8
0
  6
DASHED
 10
227.877640
 20
-60.288227
 11
235.877640
 21
-60.288227
  0
LINE
  8
0
 10
224.925018
 20
-58.288361
 11
225.877655
 21
-56.638348
  0
LINE
  8
0
  6
DASHED
 10
224.924942
 20
-58.288002
 11
225.877563
 21
-59.937988
  0
LINE
  8
0
  6
DASHED
 10
225.877243
 20
-59.938251
 11
235.877640
 21
-59.938251
  0
LINE
  8
0
 10
225.877274
 20
-56.638233
 11
235.877640
 21
-56.638233
  0
LINE
  8
0
  6
DASHED
 10
225.877228
 20
-59.938236
 11
225.877228
 21
-58.288212
  0
LINE
  8
0
 10
225.877228
 20
-58.288212
 11
225.877228
 21
-56.638218
  0
LINE
  8
0
  6
DASHED
 10
227.877625
 20
-58.288212
 11
227.877625
 21
-60.288212
  0
ARC
  8
0
 10
219.770493
 20
-58.288216
 40
11.999999
 50
150.000000
 51
172.337784
  0
ARC
  8
0
 10
219.770493
 20
-58.288216
 40
11.999996
 50
187.662216
 51
210.000000
  0
ARC
  8
0
 10
215.877625
 20
-58.288231
 40
11.999995
 50
330.000031
 51
0.000018
  0
POINT
  8
0
 10
235.877625
 20
-111.690125
  0
POINT
  8
0
 10
245.877625
 20
-111.690125
  0
LINE
  8
0
 10
204.610062
 20
-111.690132
 11
240.728607
 21
-111.690125
  0
LINE
  8
0
 10
214.877625
 20
-101.999207
 11
214.877625
 21
-120.283653
  0
LINE
  8
0
  6
DASHED
 10
227.877625
 20
-109.690109
 11
227.877625
 21
-113.690109
  0
LINE
  8
0
  6
DASHED
 10
227.877655
 20
-109.690125
 11
235.877655
 21
-109.690125
  0
LINE
  8
0
  6
DASHED
 10
227.877655
 20
-113.690125
 11
235.877655
 21
-113.690125
  0
LINE
  8
0
  6
DASHED
 10
224.925156
 20
-111.690376
 11
225.877792
 21
-110.040359
  0
LINE
  8
0
  6
DASHED
 10
224.925171
 20
-111.689888
 11
225.877792
 21
-113.339882
  0
LINE
  8
0
  6
DASHED
 10
225.877228
 20
-113.340118
 11
235.877655
 21
-113.340118
  0
LINE
  8
0
  6
DASHED
 10
225.877289
 20
-110.040131
 11
235.877655
 21
-110.040131
  0
LINE
  8
0
  6
DASHED
 10
225.877197
 20
-113.340103
 11
225.877197
 21
-110.040115
  0
LINE
  8
0
 10
209.485382
 20
-117.690132
 11
235.877655
 21
-117.690125
  0
LINE
  8
0
 10
209.485382
 20
-105.690132
 11
235.877655
 21
-105.690125
  0
LINE
  8
0
 10
235.877625
 20
-105.690109
 11
235.877625
 21
-117.690109
  0
LINE
  8
0
 10
223.877625
 20
-105.690109
 11
223.877625
 21
-117.690109
  0
ARC
  8
0
 10
219.877655
 20
-111.690109
 40
11.999999
 50
150.000000
 51
210.000000
  0
CIRCLE
  8
0
 10
214.877655
 20
-111.690109
 40
1.650000
  0
ARC
  8
0
 10
220.674713
 20
-111.690109
 40
12.696497
 50
151.798706
 51
208.201355
  0
POINT
  8
0
 10
235.877625
 20
-144.690125
  0
POINT
  8
0
 10
245.877625
 20
-144.690125
  0
LINE
  8
0
 10
203.895935
 20
-144.690125
 11
239.955643
 21
-144.690125
  0
LINE
  8
0
 10
214.877625
 20
-138.607574
 11
214.877625
 21
-149.647720
  0
LINE
  8
0
 10
223.877655
 20
-150.690125
 11
235.877655
 21
-150.690125
  0
LINE
  8
0
 10
223.877655
 20
-138.690125
 11
235.877655
 21
-138.690125
  0
LINE
  8
0
 10
207.978180
 20
-143.140137
 11
223.877655
 21
-143.140137
  0
LINE
  8
0
 10
207.978180
 20
-146.240143
 11
223.877655
 21
-146.240143
  0
LINE
  8
0
 10
223.877625
 20
-138.690125
 11
223.877625
 21
-143.140137
  0
LINE
  8
0
 10
223.877625
 20
-146.240143
 11
223.877625
 21
-150.690125
  0
LINE
  8
0
 10
235.877625
 20
-138.690125
 11
235.877625
 21
-150.690125
  0
LINE
  8
0
 10
216.527588
 20
-143.140137
 11
216.527588
 21
-146.240143
  0
LINE
  8
0
 10
213.227661
 20
-143.140137
 11
213.227661
 21
-146.240143
  0
LINE
  8
0
 10
227.877625
 20
-142.690125
 11
227.877625
 21
-146.690125
  0
LINE
  8
0
 10
227.877655
 20
-142.690125
 11
235.877655
 21
-142.690125
  0
LINE
  8
0
 10
227.877655
 20
-146.690125
 11
235.877655
 21
-146.690125
  0
LINE
  8
0
 10
224.925140
 20
-144.690384
 11
225.877777
 21
-143.040375
  0
LINE
  8
0
 10
224.925079
 20
-144.689865
 11
225.877701
 21
-146.339859
  0
LINE
  8
0
 10
225.877228
 20
-146.340149
 11
235.877655
 21
-146.340149
  0
LINE
  8
0
 10
225.877289
 20
-143.040131
 11
235.877655
 21
-143.040131
  0
LINE
  8
0
 10
225.877197
 20
-146.340149
 11
225.877197
 21
-143.040131
  0
ARC
  8
0
 10
219.877655
 20
-144.690125
 40
11.999999
 50
172.578613
 51
187.421448
  0
POINT
  8
0
 10
47.316650
 20
-132.000000
  0
POINT
  8
0
 10
59.566650
 20
-132.000000
  0
LINE
  8
0
 10
40.666649
 20
-152.000000
 11
53.966644
 21
-152.000000
  0
LINE
  8
0
 10
40.666649
 20
-150.399994
 11
53.966644
 21
-150.399994
  0
LINE
  8
0
 10
57.566650
 20
-127.000000
 11
57.566650
 21
-148.399994
  0
LINE
  8
0
 10
37.066650
 20
-127.000000
 11
37.066650
 21
-148.399994
  0
LINE
  8
0
 10
38.666649
 20
-127.000000
 11
38.666649
 21
-148.399994
  0
LINE
  8
0
 10
55.966644
 20
-127.000000
 11
55.966644
 21
-148.399994
  0
LINE
  8
0
  6
DASHED
 10
49.566650
 20
-150.399994
 11
49.566650
 21
-152.000000
  0
LINE
  8
0
  6
DASHED
 10
45.066650
 20
-150.399994
 11
45.066650
 21
-152.000000
  0
LINE
  8
0
 10
35.066650
 20
-129.500000
 11
36.066650
 21
-129.500000
  0
LINE
  8
0
 10
35.066650
 20
-134.500000
 11
36.066650
 21
-134.500000
  0
LINE
  8
0
 10
59.566650
 20
-129.500000
 11
59.566650
 21
-134.500000
  0
LINE
  8
0
 10
35.066650
 20
-129.500000
 11
35.066650
 21
-134.500000
  0
LINE
  8
0
 10
36.766647
 20
-128.500000
 11
36.766647
 21
-135.500000
  0
LINE
  8
0
 10
57.866653
 20
-128.500000
 11
57.866653
 21
-135.500000
  0
LINE
  8
0
 10
36.066650
 20
-128.500000
 11
36.066650
 21
-135.500000
  0
LINE
  8
0
 10
58.566650
 20
-128.500000
 11
58.566650
 21
-135.500000
  0
LINE
  8
0
 10
57.566650
 20
-129.500000
 11
57.866653
 21
-129.500000
  0
LINE
  8
0
 10
57.566650
 20
-134.500000
 11
57.866653
 21
-134.500000
  0
LINE
  8
0
 10
36.766647
 20
-129.500000
 11
37.066650
 21
-129.500000
  0
LINE
  8
0
 10
36.766647
 20
-134.500000
 11
37.066650
 21
-134.500000
  0
LINE
  8
0
 10
58.566650
 20
-129.500000
 11
59.566650
 21
-129.500000
  0
LINE
  8
0
 10
58.566650
 20
-134.500000
 11
59.566650
 21
-134.500000
  0
LINE
  8
0
 10
36.066650
 20
-128.500000
 11
36.766647
 21
-128.500000
  0
LINE
  8
0
 10
36.066650
 20
-135.500000
 11
36.766647
 21
-135.500000
  0
LINE
  8
0
 10
57.866653
 20
-135.500000
 11
58.566650
 21
-135.500000
  0
LINE
  8
0
 10
57.866653
 20
-128.500000
 11
58.566650
 21
-128.500000
  0
LINE
  8
0
 10
37.066650
 20
-127.000000
 11
38.666649
 21
-127.000000
  0
LINE
  8
0
 10
55.966644
 20
-127.000000
 11
57.566650
 21
-127.000000
  0
ARC
  8
0
 10
40.666649
 20
-148.399994
 40
2.000000
 50
180.000000
 51
270.000000
  0
ARC
  8
0
 10
53.966644
 20
-148.399994
 40
2.000000
 50
270.000000
 51
0.000000
  0
ARC
  8
0
 10
53.966644
 20
-148.399994
 40
3.600006
 50
270.000000
 51
0.000000
  0
ARC
  8
0
 10
40.666649
 20
-148.399994
 40
3.599998
 50
180.000000
 51
270.000000
  0
ENDSEC
  0
EOF
