  0
SECTION
  2
HEADER
  0
ENDSEC
  0
SECTION
  2
TABLES
  0
TABLE
  2
LTYPE
 70
     4
  0
LTYPE
  2
CONTINUOUS
 70
    64
  3
Solid line
 72
    65
 73
     0
 40
0.000000
  0
LTYPE
  2
DASHED
 70
    64
  3
__ __ __ __ __ __ __ __ __ __ __ __ __ __ __
 72
    65
 73
     2
 40
3.500000
 49
2.000000
 49
-1.500000
  0
LTYPE
  2
CENTER
 70
    64
  3
____ _ ____ _ ____ _ ____ _ ____ _ ____ _ ____
 72
    65
 73
     4
 40
17.500000
 49
13.000000
 49
-1.500000
 49
1.500000
 49
-1.500000
  0
LTYPE
  2
PHANTOM
 70
    64
  3
_____ _ _ _____ _ _ _____ _ _ _____ _ _ ____  
 72
    65
 73
     6
 40
15.500000
 49
8.000000
 49
-1.500000
 49
1.500000
 49
-1.500000
 49
1.500000
 49
-1.500000
  0
LTYPE
  2
DASHED1
 70
    64
  3
__ __ __ __ __ __ __ __ __ __ __ __ __ __ __
 72
    65
 73
     2
 40
1.500000
 49
1.000000
 49
-0.500000
  0
LTYPE
  2
DASHED2
 70
    64
  3
__ __ __ __ __ __ __ __ __ __ __ __ __ __ __
 72
    65
 73
     2
 40
3.500000
 49
2.500000
 49
-1.000000
  0
LTYPE
  2
DASHED3
 70
    64
  3
__ __ __ __ __ __ __ __ __ __ __ __ __ __ __
 72
    65
 73
     2
 40
6.000000
 49
4.000000
 49
-2.000000
  0
LTYPE
  2
DASHED4
 70
    64
  3
__ __ __ __ __ __ __ __ __ __ __ __ __ __ __
 72
    65
 73
     2
 40
12.000000
 49
10.000000
 49
-2.000000
  0
LTYPE
  2
DASHED5
 70
    64
  3
__ __ __ __ __ __ __ __ __ __ __ __ __ __ __
 72
    65
 73
     2
 40
17.000000
 49
15.000000
 49
-2.000000
  0
LTYPE
  2
DASHED6
 70
    64
  3
__ __ __ __ __ __ __ __ __ __ __ __ __ __ __
 72
    65
 73
     2
 40
29.000000
 49
27.000000
 49
-2.000000
  0
LTYPE
  2
PHANTOM1
 70
    64
  3
_____ _ _ _____ _ _ _____ _ _ _____ _ _ ____  
 72
    65
 73
     6
 40
31.000000
 49
25.000000
 49
-1.500000
 49
1.000000
 49
-1.000000
 49
1.000000
 49
-1.500000
  0
LTYPE
  2
PHANTOM2
 70
    64
  3
_____ _ _ _____ _ _ _____ _ _ _____ _ _ ____  
 72
    65
 73
     6
 40
36.000000
 49
27.000000
 49
-1.500000
 49
2.500000
 49
-1.000000
 49
2.500000
 49
-1.500000
  0
LTYPE
  2
PHANTOM3
 70
    64
  3
_____ _ _ _____ _ _ _____ _ _ _____ _ _ ____  
 72
    65
 73
     6
 40
78.000000
 49
64.000000
 49
-2.000000
 49
4.000000
 49
-2.000000
 49
4.000000
 49
-2.000000
  0
LTYPE
  2
CENTER1
 70
    64
  3
____ _ ____ _ ____ _ ____ _ ____ _ ____ _ ____
 72
    65
 73
     4
 40
19.000000
 49
14.000000
 49
-1.000000
 49
3.000000
 49
-1.000000
  0
LTYPE
  2
CENTER2
 70
    64
  3
____ _ ____ _ ____ _ ____ _ ____ _ ____ _ ____
 72
    65
 73
     4
 40
28.500000
 49
25.000000
 49
-1.000000
 49
1.500000
 49
-1.000000
  0
LTYPE
  2
CENTER3
 70
    64
  3
____ _ ____ _ ____ _ ____ _ ____ _ ____ _ ____
 72
    65
 73
     4
 40
31.500000
 49
27.000000
 49
-1.000000
 49
2.500000
 49
-1.000000
  0
LTYPE
  2
CENTER4
 70
    64
  3
____ _ ____ _ ____ _ ____ _ ____ _ ____ _ ____
 72
    65
 73
     4
 40
50.000000
 49
45.000000
 49
-1.000000
 49
3.000000
 49
-1.000000
  0
LTYPE
  2
CENTER5
 70
    64
  3
____ _ ____ _ ____ _ ____ _ ____ _ ____ _ ____
 72
    65
 73
     4
 40
100.000000
 49
92.000000
 49
-2.000000
 49
4.000000
 49
-2.000000
  0
LTYPE
  2
SBK1
 70
    64
  3
______ _ _ _ ______ _ _ _ ______ _ _ _ _____  
 72
    65
 73
     8
 40
60.500000
 49
45.000000
 49
-2.000000
 49
2.500000
 49
-2.000000
 49
2.500000
 49
-2.000000
 49
2.500000
 49
-2.000000
  0
LTYPE
  2
SBK2
 70
    64
  3
______ _ _ _ ______ _ _ _ ______ _ _ _ _____  
 72
    65
 73
     8
 40
84.000000
 49
64.000000
 49
-2.000000
 49
4.000000
 49
-2.000000
 49
4.000000
 49
-2.000000
 49
4.000000
 49
-2.000000
  0
LTYPE
  2
STCH
 70
    64
  3
__ __ __ __ __ __ __ __ __ __ __ __ __ __ __
 72
    65
 73
     2
 40
3.000000
 49
1.000000
 49
-2.000000
  0
LTYPE
  2
MTCH
 70
    64
  3
_____ _ _ _____ _ _ _____ _ _ _____ _ _ ____  
 72
    65
 73
     6
 40
80.000000
 49
66.000000
 49
-2.000000
 49
4.000000
 49
-2.000000
 49
4.000000
 49
-2.000000
  0
ENDTAB
  0
TABLE
  2
LAYER
 70
     1
  0
LAYER
  2
0
 70
     0
 62
     7
  6
CONTINUOUS
  0
ENDTAB
  0
TABLE
  2
STYLE
 70
     1
  0
STYLE
  2
STANDARD
 70
     0
 40
0.000000
 41
1.000000
 50
0.000000
 71
     0
 42
0.200000
  3
txt
  4
BIGFONT
  0
ENDTAB
  0
TABLE
  2
VIEW
 70
     0
  0
ENDTAB
  0
ENDSEC
  0
SECTION
  2
BLOCKS
  0
ENDSEC
  0
SECTION
  2
ENTITIES
  0
LINE
  8
0
 10
-181.250000
 20
195.500000
 11
-181.250000
 21
180.500000
  0
LINE
  8
0
 10
182.099976
 20
195.500000
 11
182.099976
 21
180.500000
  0
LINE
  8
0
 10
-281.250000
 20
180.500000
 11
-181.250000
 21
180.500000
  0
LINE
  8
0
 10
182.099976
 20
-175.000000
 11
182.099976
 21
-195.000000
  0
LINE
  8
0
 10
182.099976
 20
180.500000
 11
282.099976
 21
180.500000
  0
LINE
  8
0
 10
94.316650
 20
-175.000000
 11
282.099976
 21
-175.000000
  0
LINE
  8
0
 10
-281.250000
 20
-185.000000
 11
94.316650
 21
-185.000000
  0
LINE
  8
0
 10
-297.000000
 20
210.000000
 11
297.000000
 21
210.000000
  0
LINE
  8
0
 10
-297.000000
 20
-210.000000
 11
297.000000
 21
-210.000000
  0
LINE
  8
0
 10
297.000000
 20
210.000000
 11
297.000000
 21
-210.000000
  0
LINE
  8
0
 10
-297.000000
 20
210.000000
 11
-297.000000
 21
-210.000000
  0
LINE
  8
0
 10
-281.250000
 20
195.500000
 11
282.099976
 21
195.500000
  0
LINE
  8
0
 10
-281.250000
 20
195.500000
 11
-281.250000
 21
-195.000000
  0
LINE
  8
0
 10
282.099976
 20
195.500000
 11
282.099976
 21
-195.000000
  0
LINE
  8
0
 10
-281.250000
 20
-195.000000
 11
282.099976
 21
-195.000000
  0
LINE
  8
0
 10
-281.250000
 20
0.250000
 11
282.099976
 21
0.250000
  0
LINE
  8
0
 10
-281.250000
 20
10.250000
 11
282.099976
 21
10.250000
  0
LINE
  8
0
 10
-93.466675
 20
-195.000000
 11
-93.466675
 21
195.500000
  0
LINE
  8
0
 10
94.316650
 20
-195.000000
 11
94.316650
 21
195.500000
  0
LINE
  8
0
 10
94.316650
 20
-165.000000
 11
282.099976
 21
-165.000000
  0
LINE
  8
0
  6
PHANTOM
 10
-174.942123
 20
-129.405029
 11
-174.942123
 21
-130.905029
  0
LINE
  8
0
  6
PHANTOM
 10
-182.942123
 20
-133.905029
 11
-182.942123
 21
-143.905029
  0
LINE
  8
0
  6
PHANTOM
 10
-174.942123
 20
-129.405029
 11
-130.942123
 21
-129.405029
  0
LINE
  8
0
  6
PHANTOM
 10
-174.942123
 20
-144.905029
 11
-130.942123
 21
-144.905029
  0
LINE
  8
0
  6
PHANTOM
 10
-182.942123
 20
-143.905029
 11
-179.542114
 21
-143.905029
  0
LINE
  8
0
  6
PHANTOM
 10
-182.942123
 20
-133.905029
 11
-179.542114
 21
-133.905029
  0
LINE
  8
0
  6
PHANTOM
 10
-191.942123
 20
-140.405029
 11
-189.992126
 21
-140.405029
  0
LINE
  8
0
  6
PHANTOM
 10
-191.942123
 20
-137.405029
 11
-189.992126
 21
-137.405029
  0
LINE
  8
0
  6
PHANTOM
 10
-191.942123
 20
-137.405029
 11
-191.942123
 21
-140.405029
  0
LINE
  8
0
 10
-193.442123
 20
-138.905029
 11
-129.442123
 21
-138.905029
  0
LINE
  8
0
  6
PHANTOM
 10
-186.392120
 20
-135.729614
 11
-186.392120
 21
-142.080460
  0
LINE
  8
0
  6
PHANTOM
 10
-189.992126
 20
-135.729614
 11
-189.992126
 21
-142.080460
  0
LINE
  8
0
  6
PHANTOM
 10
-189.992126
 20
-135.729614
 11
-186.392120
 21
-135.729614
  0
LINE
  8
0
  6
PHANTOM
 10
-189.992126
 20
-142.080460
 11
-186.392120
 21
-142.080460
  0
LINE
  8
0
  6
PHANTOM
 10
-188.192123
 20
-142.080460
 11
-188.192123
 21
-135.729614
  0
LINE
  8
0
  6
PHANTOM
 10
-186.392120
 20
-140.405029
 11
-182.942123
 21
-140.405029
  0
LINE
  8
0
  6
PHANTOM
 10
-186.392120
 20
-137.405029
 11
-182.942123
 21
-137.405029
  0
LINE
  8
0
  6
PHANTOM
 10
-174.942123
 20
-130.905029
 11
-130.942123
 21
-130.905029
  0
LINE
  8
0
  6
PHANTOM
 10
-174.942123
 20
-135.405029
 11
-130.942123
 21
-135.405029
  0
LINE
  8
0
  6
PHANTOM
 10
-182.942123
 20
-43.905037
 11
-182.942123
 21
-53.905037
  0
LINE
  8
0
  6
PHANTOM
 10
-182.942123
 20
-53.905037
 11
-179.542114
 21
-53.905037
  0
LINE
  8
0
  6
PHANTOM
 10
-182.942123
 20
-43.905037
 11
-179.542114
 21
-43.905037
  0
LINE
  8
0
  6
PHANTOM
 10
-191.942123
 20
-50.405037
 11
-189.992126
 21
-50.405037
  0
LINE
  8
0
  6
PHANTOM
 10
-191.942123
 20
-47.405037
 11
-189.992126
 21
-47.405037
  0
LINE
  8
0
  6
PHANTOM
 10
-191.942123
 20
-47.405037
 11
-191.942123
 21
-50.405037
  0
LINE
  8
0
 10
-193.442123
 20
-48.905037
 11
-129.442123
 21
-48.905037
  0
LINE
  8
0
  6
PHANTOM
 10
-186.392120
 20
-46.155037
 11
-186.392120
 21
-51.655037
  0
LINE
  8
0
  6
PHANTOM
 10
-189.992126
 20
-46.155037
 11
-189.992126
 21
-51.655037
  0
LINE
  8
0
  6
PHANTOM
 10
-188.192123
 20
-51.655037
 11
-188.192123
 21
-46.155037
  0
LINE
  8
0
  6
PHANTOM
 10
-186.392120
 20
-50.405037
 11
-182.942123
 21
-50.405037
  0
LINE
  8
0
  6
PHANTOM
 10
-186.392120
 20
-47.405037
 11
-182.942123
 21
-47.405037
  0
LINE
  8
0
  6
PHANTOM
 10
-189.746490
 20
-48.905037
 11
-188.437744
 21
-48.905037
  0
LINE
  8
0
  6
PHANTOM
 10
-186.637756
 20
-48.905037
 11
-187.946503
 21
-48.905037
  0
LINE
  8
0
  6
PHANTOM
 10
-179.542114
 20
-145.833252
 11
-176.542114
 21
-145.833252
  0
LINE
  8
0
  6
PHANTOM
 10
-179.542114
 20
-131.976822
 11
-179.542114
 21
-145.833252
  0
LINE
  8
0
  6
PHANTOM
 10
-179.542114
 20
-131.976822
 11
-176.542114
 21
-131.976822
  0
LINE
  8
0
  6
PHANTOM
 10
-179.542114
 20
-54.905037
 11
-176.542114
 21
-54.905037
  0
LINE
  8
0
  6
PHANTOM
 10
-179.542114
 20
-42.905037
 11
-179.542114
 21
-54.905037
  0
LINE
  8
0
  6
PHANTOM
 10
-179.542114
 20
-42.905037
 11
-176.542114
 21
-42.905037
  0
LINE
  8
0
  6
PHANTOM
 10
-179.293396
 20
-48.905037
 11
-176.790833
 21
-48.905037
  0
LINE
  8
0
  6
PHANTOM
 10
-130.942123
 20
-129.405029
 11
-130.942123
 21
-144.905029
  0
LINE
  8
0
  6
PHANTOM
 10
-174.942123
 20
-41.905037
 11
-130.942123
 21
-41.905037
  0
LINE
  8
0
  6
PHANTOM
 10
-174.942123
 20
-55.905037
 11
-130.942123
 21
-55.905037
  0
LINE
  8
0
  6
PHANTOM
 10
-130.942123
 20
-41.905037
 11
-130.942123
 21
-55.905037
  0
LINE
  8
0
  6
PHANTOM
 10
-189.992126
 20
-46.155037
 11
-186.392120
 21
-46.155037
  0
LINE
  8
0
  6
PHANTOM
 10
-189.992126
 20
-51.655037
 11
-186.392120
 21
-51.655037
  0
LINE
  8
0
  6
PHANTOM
 10
10.000000
 20
-129.405029
 11
10.000000
 21
-130.905029
  0
LINE
  8
0
  6
PHANTOM
 10
2.000000
 20
-133.905029
 11
2.000000
 21
-143.905029
  0
LINE
  8
0
  6
PHANTOM
 10
10.000000
 20
-129.405029
 11
54.000000
 21
-129.405029
  0
LINE
  8
0
  6
PHANTOM
 10
10.000000
 20
-144.905029
 11
54.000000
 21
-144.905029
  0
LINE
  8
0
  6
PHANTOM
 10
2.000000
 20
-143.905029
 11
5.400002
 21
-143.905029
  0
LINE
  8
0
  6
PHANTOM
 10
2.000000
 20
-133.905029
 11
5.400002
 21
-133.905029
  0
LINE
  8
0
  6
PHANTOM
 10
-6.999996
 20
-140.405029
 11
-5.049992
 21
-140.405029
  0
LINE
  8
0
  6
PHANTOM
 10
-6.999996
 20
-137.405029
 11
-5.049992
 21
-137.405029
  0
LINE
  8
0
  6
PHANTOM
 10
-6.999996
 20
-137.405029
 11
-6.999996
 21
-140.405029
  0
LINE
  8
0
 10
-8.179890
 20
-138.905029
 11
56.183006
 21
-138.905029
  0
LINE
  8
0
  6
PHANTOM
 10
-1.449993
 20
-135.729614
 11
-1.449993
 21
-142.080444
  0
LINE
  8
0
  6
PHANTOM
 10
-5.049992
 20
-135.729614
 11
-5.049992
 21
-142.080444
  0
LINE
  8
0
  6
PHANTOM
 10
-3.249996
 20
-142.080444
 11
-3.249996
 21
-135.729614
  0
LINE
  8
0
  6
PHANTOM
 10
-5.049992
 20
-135.729614
 11
-1.449993
 21
-135.729614
  0
LINE
  8
0
  6
PHANTOM
 10
-5.049992
 20
-142.080444
 11
-1.449993
 21
-142.080444
  0
LINE
  8
0
  6
PHANTOM
 10
-1.449993
 20
-140.405029
 11
2.000000
 21
-140.405029
  0
LINE
  8
0
  6
PHANTOM
 10
-1.449993
 20
-137.405029
 11
2.000000
 21
-137.405029
  0
LINE
  8
0
  6
PHANTOM
 10
10.000000
 20
-130.905029
 11
54.000000
 21
-130.905029
  0
LINE
  8
0
  6
PHANTOM
 10
10.000000
 20
-135.405029
 11
54.000000
 21
-135.405029
  0
LINE
  8
0
  6
PHANTOM
 10
10.000000
 20
-41.905037
 11
54.000000
 21
-41.905037
  0
LINE
  8
0
  6
PHANTOM
 10
10.000000
 20
-55.905037
 11
54.000000
 21
-55.905037
  0
LINE
  8
0
  6
PHANTOM
 10
2.000000
 20
-43.905037
 11
2.000000
 21
-53.905037
  0
LINE
  8
0
  6
PHANTOM
 10
2.000000
 20
-53.905037
 11
3.750000
 21
-53.905037
  0
LINE
  8
0
  6
PHANTOM
 10
2.000000
 20
-43.905037
 11
3.750000
 21
-43.905037
  0
LINE
  8
0
  6
PHANTOM
 10
-6.999996
 20
-50.405037
 11
-5.049992
 21
-50.405037
  0
LINE
  8
0
  6
PHANTOM
 10
-6.999996
 20
-47.405037
 11
-5.049992
 21
-47.405037
  0
LINE
  8
0
  6
PHANTOM
 10
-6.999996
 20
-47.405037
 11
-6.999996
 21
-50.405037
  0
LINE
  8
0
 10
-8.140846
 20
-48.905037
 11
57.333336
 21
-48.905037
  0
LINE
  8
0
  6
PHANTOM
 10
-1.449993
 20
-46.155037
 11
-1.449993
 21
-51.655037
  0
LINE
  8
0
  6
PHANTOM
 10
-5.049992
 20
-46.155037
 11
-5.049992
 21
-51.655037
  0
LINE
  8
0
  6
PHANTOM
 10
-1.449993
 20
-50.405037
 11
2.000000
 21
-50.405037
  0
LINE
  8
0
  6
PHANTOM
 10
-1.449993
 20
-47.405037
 11
2.000000
 21
-47.405037
  0
LINE
  8
0
  6
PHANTOM
 10
-5.049992
 20
-51.655037
 11
-1.449993
 21
-51.655037
  0
LINE
  8
0
  6
PHANTOM
 10
-5.049992
 20
-46.155037
 11
-1.449993
 21
-46.155037
  0
LINE
  8
0
  6
PHANTOM
 10
5.400002
 20
-145.833252
 11
8.400002
 21
-145.833252
  0
LINE
  8
0
  6
PHANTOM
 10
5.400002
 20
-131.976837
 11
5.400002
 21
-145.833252
  0
LINE
  8
0
  6
PHANTOM
 10
5.400002
 20
-131.976837
 11
8.400002
 21
-131.976837
  0
LINE
  8
0
  6
PHANTOM
 10
3.750000
 20
-54.905037
 11
6.750000
 21
-54.905037
  0
LINE
  8
0
  6
PHANTOM
 10
6.750000
 20
-42.905037
 11
6.750000
 21
-54.905037
  0
LINE
  8
0
  6
PHANTOM
 10
3.750000
 20
-42.905037
 11
3.750000
 21
-54.905037
  0
LINE
  8
0
  6
PHANTOM
 10
3.750000
 20
-42.905037
 11
6.750000
 21
-42.905037
  0
LINE
  8
0
  6
PHANTOM
 10
3.998718
 20
-48.905037
 11
6.501282
 21
-48.905037
  0
LINE
  8
0
  6
PHANTOM
 10
6.750000
 20
-53.905037
 11
8.400002
 21
-53.905037
  0
LINE
  8
0
  6
PHANTOM
 10
6.750000
 20
-43.905037
 11
8.400002
 21
-43.905037
  0
LINE
  8
0
  6
PHANTOM
 10
54.000000
 20
-41.905037
 11
54.000000
 21
-55.905037
  0
LINE
  8
0
  6
PHANTOM
 10
54.000000
 20
-129.405029
 11
54.000000
 21
-144.905029
  0
LINE
  8
0
 10
-50.076645
 20
-123.705040
 11
-50.076645
 21
-149.497955
  0
LINE
  8
0
  6
PHANTOM
 10
239.666687
 20
-122.833336
 11
239.666687
 21
-138.333344
  0
LINE
  8
0
  6
PHANTOM
 10
193.166672
 20
-122.833336
 11
193.166672
 21
-138.333344
  0
LINE
  8
0
  6
PHANTOM
 10
185.166672
 20
-127.333336
 11
185.166672
 21
-137.333344
  0
LINE
  8
0
  6
PHANTOM
 10
193.166672
 20
-122.833336
 11
239.666687
 21
-122.833336
  0
LINE
  8
0
  6
PHANTOM
 10
193.166672
 20
-138.333344
 11
239.666687
 21
-138.333344
  0
LINE
  8
0
  6
PHANTOM
 10
185.166672
 20
-137.333344
 11
186.916672
 21
-137.333344
  0
LINE
  8
0
  6
PHANTOM
 10
185.166672
 20
-127.333336
 11
186.916672
 21
-127.333336
  0
LINE
  8
0
  6
PHANTOM
 10
176.166672
 20
-133.833344
 11
178.116669
 21
-133.833344
  0
LINE
  8
0
  6
PHANTOM
 10
176.166672
 20
-130.833344
 11
178.116669
 21
-130.833344
  0
LINE
  8
0
  6
PHANTOM
 10
176.166672
 20
-130.833344
 11
176.166672
 21
-133.833344
  0
LINE
  8
0
 10
174.666672
 20
-132.333344
 11
247.163239
 21
-132.333344
  0
LINE
  8
0
  6
PHANTOM
 10
181.716675
 20
-129.157913
 11
181.716675
 21
-135.508759
  0
LINE
  8
0
  6
PHANTOM
 10
178.116669
 20
-129.157913
 11
178.116669
 21
-135.508759
  0
LINE
  8
0
  6
PHANTOM
 10
178.116669
 20
-135.508759
 11
181.716675
 21
-135.508759
  0
LINE
  8
0
  6
PHANTOM
 10
179.916672
 20
-135.508759
 11
179.916672
 21
-129.157913
  0
LINE
  8
0
  6
PHANTOM
 10
178.116669
 20
-129.157913
 11
181.716675
 21
-129.157913
  0
LINE
  8
0
  6
PHANTOM
 10
181.716675
 20
-133.833344
 11
185.166672
 21
-133.833344
  0
LINE
  8
0
  6
PHANTOM
 10
181.716675
 20
-130.833344
 11
185.166672
 21
-130.833344
  0
LINE
  8
0
  6
PHANTOM
 10
189.916672
 20
-127.333336
 11
193.166672
 21
-127.333336
  0
LINE
  8
0
  6
PHANTOM
 10
189.916672
 20
-137.333344
 11
193.166672
 21
-137.333344
  0
LINE
  8
0
  6
PHANTOM
 10
193.166672
 20
-124.333336
 11
239.666687
 21
-124.333336
  0
LINE
  8
0
  6
PHANTOM
 10
193.166672
 20
-128.833344
 11
239.666687
 21
-128.833344
  0
LINE
  8
0
  6
PHANTOM
 10
189.916672
 20
-125.405128
 11
189.916672
 21
-139.261536
  0
LINE
  8
0
  6
PHANTOM
 10
186.916672
 20
-125.405128
 11
189.916672
 21
-125.405128
  0
LINE
  8
0
 10
234.666687
 20
-126.424286
 11
234.666687
 21
-137.977875
  0
LINE
  8
0
  6
PHANTOM
 10
250.666656
 20
-145.333344
 11
250.666656
 21
-119.333336
  0
LINE
  8
0
  6
PHANTOM
 10
249.066650
 20
-145.333344
 11
250.666687
 21
-145.333344
  0
LINE
  8
0
  6
PHANTOM
 10
249.066681
 20
-119.333336
 11
250.666687
 21
-119.333336
  0
LINE
  8
0
 10
246.894775
 20
-141.333344
 11
252.865295
 21
-141.333344
  0
LINE
  8
0
 10
246.894775
 20
-123.333336
 11
252.692230
 21
-123.333336
  0
LINE
  8
0
  6
PHANTOM
 10
249.066650
 20
-145.333344
 11
249.066650
 21
-119.333336
  0
LINE
  8
0
  6
PHANTOM
 10
249.066727
 20
-145.333389
 11
232.640671
 21
-139.354782
  0
LINE
  8
0
  6
PHANTOM
 10
232.640549
 20
-125.311836
 11
249.066620
 21
-119.333237
  0
LINE
  8
0
  6
PHANTOM
 10
249.066650
 20
-139.633331
 11
250.666687
 21
-139.633331
  0
LINE
  8
0
  6
PHANTOM
 10
249.066650
 20
-143.033325
 11
250.666687
 21
-143.033325
  0
LINE
  8
0
  6
PHANTOM
 10
249.066650
 20
-125.033333
 11
250.666687
 21
-125.033333
  0
LINE
  8
0
  6
PHANTOM
 10
249.066650
 20
-121.633339
 11
250.666687
 21
-121.633339
  0
LINE
  8
0
  6
PHANTOM
 10
230.666656
 20
-136.535660
 11
230.666656
 21
-128.131012
  0
LINE
  8
0
  6
PHANTOM
 10
186.916672
 20
-125.405128
 11
186.916672
 21
-139.261536
  0
LINE
  8
0
  6
PHANTOM
 10
186.916672
 20
-139.261536
 11
189.916672
 21
-139.261536
  0
LINE
  8
0
  6
PHANTOM
 10
193.166672
 20
-44.333336
 11
244.666687
 21
-44.333336
  0
LINE
  8
0
  6
PHANTOM
 10
193.166672
 20
-52.333336
 11
244.666687
 21
-52.333336
  0
LINE
  8
0
  6
PHANTOM
 10
183.166672
 20
-41.333336
 11
183.166672
 21
-55.333336
  0
LINE
  8
0
  6
PHANTOM
 10
175.916672
 20
-52.333336
 11
175.916672
 21
-44.333336
  0
LINE
  8
0
  6
PHANTOM
 10
172.716675
 20
-48.333336
 11
179.116669
 21
-48.333336
  0
LINE
  8
0
  6
PHANTOM
 10
193.166672
 20
-38.333336
 11
193.166672
 21
-58.333336
  0
LINE
  8
0
  6
PHANTOM
 10
189.916672
 20
-39.833336
 11
189.916672
 21
-56.833336
  0
LINE
  8
0
  6
PHANTOM
 10
185.916672
 20
-39.833336
 11
185.916672
 21
-56.833336
  0
LINE
  8
0
  6
PHANTOM
 10
185.916672
 20
-48.333336
 11
189.916672
 21
-48.333336
  0
LINE
  8
0
  6
PHANTOM
 10
169.166672
 20
-45.833336
 11
169.166672
 21
-50.833336
  0
LINE
  8
0
  6
PHANTOM
 10
244.666687
 20
-38.333336
 11
244.666687
 21
-58.333336
  0
LINE
  8
0
  6
PHANTOM
 10
193.166672
 20
-38.333336
 11
244.666687
 21
-38.333336
  0
LINE
  8
0
  6
PHANTOM
 10
193.166672
 20
-58.333336
 11
244.666687
 21
-58.333336
  0
LINE
  8
0
  6
PHANTOM
 10
169.166672
 20
-45.833336
 11
172.716675
 21
-45.833336
  0
LINE
  8
0
  6
PHANTOM
 10
169.166672
 20
-50.833336
 11
172.716675
 21
-50.833336
  0
LINE
  8
0
  6
PHANTOM
 10
172.716675
 20
-44.333336
 11
172.716675
 21
-52.333336
  0
LINE
  8
0
  6
PHANTOM
 10
179.116669
 20
-44.333336
 11
179.116669
 21
-52.333336
  0
LINE
  8
0
  6
PHANTOM
 10
179.116669
 20
-50.833336
 11
182.666672
 21
-50.833336
  0
LINE
  8
0
  6
PHANTOM
 10
179.116669
 20
-45.833336
 11
182.666672
 21
-45.833336
  0
LINE
  8
0
  6
PHANTOM
 10
189.916672
 20
-41.333336
 11
193.166672
 21
-41.333336
  0
LINE
  8
0
  6
PHANTOM
 10
183.166672
 20
-41.333336
 11
185.916672
 21
-41.333336
  0
LINE
  8
0
  6
PHANTOM
 10
189.916672
 20
-55.333336
 11
193.166672
 21
-55.333336
  0
LINE
  8
0
  6
PHANTOM
 10
183.166672
 20
-55.333336
 11
185.916672
 21
-55.333336
  0
LINE
  8
0
  6
PHANTOM
 10
185.916672
 20
-56.833336
 11
189.916672
 21
-56.833336
  0
LINE
  8
0
  6
PHANTOM
 10
185.916672
 20
-39.833336
 11
189.916672
 21
-39.833336
  0
LINE
  8
0
  6
PHANTOM
 10
172.716675
 20
-44.333336
 11
179.116669
 21
-44.333336
  0
LINE
  8
0
  6
PHANTOM
 10
172.716675
 20
-52.333336
 11
179.116669
 21
-52.333336
  0
LINE
  8
0
  6
PHANTOM
 10
231.666687
 20
-37.333336
 11
243.666687
 21
-37.333336
  0
LINE
  8
0
  6
PHANTOM
 10
231.666687
 20
-59.333336
 11
243.666687
 21
-59.333336
  0
LINE
  8
0
  6
PHANTOM
 10
231.666687
 20
-37.333336
 11
231.666687
 21
-38.333336
  0
LINE
  8
0
  6
PHANTOM
 10
243.666687
 20
-37.333336
 11
243.666687
 21
-38.333336
  0
LINE
  8
0
  6
PHANTOM
 10
231.666687
 20
-58.333336
 11
231.666687
 21
-59.333336
  0
LINE
  8
0
  6
PHANTOM
 10
243.666687
 20
-58.333336
 11
243.666687
 21
-59.333336
  0
LINE
  8
0
  6
PHANTOM
 10
182.666748
 20
-50.833275
 11
183.166733
 21
-51.333267
  0
LINE
  8
0
  6
PHANTOM
 10
182.666595
 20
-45.833267
 11
183.166595
 21
-45.333267
  0
LINE
  8
0
  6
PHANTOM
 10
182.666672
 20
-50.833336
 11
182.666672
 21
-45.833336
  0
ARC
  8
0
  6
PHANTOM
 10
233.666687
 20
-136.535660
 40
3.000000
 50
180.000000
 51
249.999969
  0
ARC
  8
0
  6
PHANTOM
 10
233.666687
 20
-128.131012
 40
2.999999
 50
110.000038
 51
180.000000
  0
TEXT
  8
0
 10
188.021667
 20
183.779999
 40
5.800000
  1
DATE: MAY ,1992
 50
0.000000
 41
1.052632
 51
0.000000
  7
STANDARD
  0
TEXT
  8
0
 10
178.000870
 20
-190.300003
 40
7.000000
  1
ＫＯＧＡＮＥＩ，ＣＯＲＰ．
 50
0.000000
 41
0.902367
 51
15.000000
  7
STANDARD
  0
TEXT
  8
0
 10
-252.822403
 20
-193.500000
 40
5.000000
  1
MODEL:FOOT BRACKET 1A-NDA6
 50
0.000000
 41
1.052632
 51
0.000000
  7
STANDARD
  0
TEXT
  8
0
 10
-47.539074
 20
-193.500000
 40
5.000000
  1
MODEL:FLANGE 3-NDA6
 50
0.000000
 41
1.052632
 51
0.000000
  7
STANDARD
  0
TEXT
  8
0
 10
117.744247
 20
-173.500000
 40
5.000000
  1
MODEL:I TYPE BRACKET 8E-NDA6
 50
0.000000
 41
1.052632
 51
0.000000
  7
STANDARD
  0
TEXT
  8
0
 10
-285.774231
 20
183.779999
 40
5.800000
  1
KNOCK CYLINDER
 50
0.000000
 41
1.213749
 51
0.000000
  7
STANDARD
  0
TEXT
  8
0
 10
-230.322403
 20
1.750000
 40
5.000000
  1
MODEL:NDA6*ST(20)
 50
0.000000
 41
1.052632
 51
0.000000
  7
STANDARD
  0
TEXT
  8
0
 10
-45.039074
 20
1.750000
 40
5.000000
  1
MODEL:NDAS6*ST(20)
 50
0.000000
 41
1.052632
 51
0.000000
  7
STANDARD
  0
TEXT
  8
0
 10
140.244247
 20
1.750000
 40
5.000000
  1
MODEL:NDA6*ST(20)-8
 50
0.000000
 41
1.052632
 51
0.000000
  7
STANDARD
  0
POINT
  8
0
 10
-172.166656
 20
54.666664
  0
POINT
  8
0
 10
-133.166656
 20
54.666664
  0
LINE
  8
0
 10
-133.166656
 20
64.166664
 11
-133.166656
 21
48.666664
  0
LINE
  8
0
 10
-172.166656
 20
64.166664
 11
-172.166656
 21
48.666664
  0
LINE
  8
0
 10
-180.166656
 20
59.166664
 11
-180.166656
 21
50.166660
  0
LINE
  8
0
 10
-172.166656
 20
64.166664
 11
-133.166656
 21
64.166664
  0
LINE
  8
0
 10
-172.166656
 20
48.666664
 11
-133.166656
 21
48.666664
  0
LINE
  8
0
 10
-179.666656
 20
49.666664
 11
-178.416656
 21
49.666664
  0
LINE
  8
0
 10
-179.666656
 20
59.666664
 11
-178.416656
 21
59.666664
  0
LINE
  8
0
 10
-179.666656
 20
49.666683
 11
-180.166641
 21
50.166672
  0
LINE
  8
0
 10
-179.666672
 20
59.666660
 11
-180.166672
 21
59.166660
  0
LINE
  8
0
 10
-188.666656
 20
53.166664
 11
-187.216644
 21
53.166664
  0
LINE
  8
0
 10
-188.666656
 20
56.166664
 11
-187.216644
 21
56.166664
  0
LINE
  8
0
 10
-188.666656
 20
56.166664
 11
-188.666656
 21
53.166664
  0
LINE
  8
0
 10
-188.666641
 20
53.166695
 11
-189.166656
 21
53.666706
  0
LINE
  8
0
 10
-188.666611
 20
56.166634
 11
-189.166611
 21
55.666634
  0
LINE
  8
0
 10
-182.166656
 20
56.166664
 11
-182.166656
 21
53.166664
  0
LINE
  8
0
 10
-189.166656
 20
55.666664
 11
-189.166656
 21
53.666664
  0
LINE
  8
0
 10
-190.666656
 20
54.666664
 11
-131.666656
 21
54.666664
  0
LINE
  8
0
 10
-183.616653
 20
57.416664
 11
-183.616653
 21
51.916664
  0
LINE
  8
0
 10
-187.216644
 20
57.416664
 11
-187.216644
 21
51.916664
  0
LINE
  8
0
 10
-186.971039
 20
57.842087
 11
-185.662277
 21
57.842087
  0
LINE
  8
0
 10
-186.971039
 20
56.254372
 11
-185.662262
 21
56.254372
  0
LINE
  8
0
 10
-187.216629
 20
57.416653
 11
-186.971008
 21
57.842079
  0
LINE
  8
0
 10
-185.416656
 20
57.416660
 11
-185.662262
 21
57.842072
  0
LINE
  8
0
 10
-186.971039
 20
53.078957
 11
-185.662262
 21
53.078957
  0
LINE
  8
0
 10
-186.971039
 20
51.491241
 11
-185.662277
 21
51.491241
  0
LINE
  8
0
 10
-187.216660
 20
51.916676
 11
-186.971039
 21
51.491245
  0
LINE
  8
0
 10
-185.416656
 20
51.916645
 11
-185.662277
 21
51.491226
  0
LINE
  8
0
 10
-185.416656
 20
51.916664
 11
-185.416656
 21
57.416664
  0
LINE
  8
0
 10
-183.616638
 20
57.416653
 11
-183.862259
 21
57.842083
  0
LINE
  8
0
 10
-185.171036
 20
56.254372
 11
-183.862274
 21
56.254372
  0
LINE
  8
0
 10
-185.171036
 20
57.842087
 11
-183.862274
 21
57.842087
  0
LINE
  8
0
 10
-185.416641
 20
57.416668
 11
-185.171021
 21
57.842087
  0
LINE
  8
0
 10
-183.616638
 20
51.916660
 11
-183.862259
 21
51.491234
  0
LINE
  8
0
 10
-185.171036
 20
53.078957
 11
-183.862274
 21
53.078957
  0
LINE
  8
0
 10
-185.171036
 20
51.491241
 11
-183.862274
 21
51.491241
  0
LINE
  8
0
 10
-185.416672
 20
51.916653
 11
-185.171051
 21
51.491226
  0
LINE
  8
0
 10
-183.616653
 20
53.166664
 11
-180.166656
 21
53.166664
  0
LINE
  8
0
 10
-183.616653
 20
56.166664
 11
-180.166656
 21
56.166664
  0
LINE
  8
0
 10
-188.916626
 20
53.416664
 11
-187.216644
 21
53.416664
  0
LINE
  8
0
 10
-188.916519
 20
55.916664
 11
-187.216644
 21
55.916664
  0
LINE
  8
0
 10
-183.618668
 20
55.916664
 11
-182.166656
 21
55.916664
  0
LINE
  8
0
 10
-183.616653
 20
53.416664
 11
-182.166656
 21
53.416664
  0
LINE
  8
0
 10
-182.166672
 20
55.916679
 11
-181.733658
 21
56.166679
  0
LINE
  8
0
 10
-182.166656
 20
53.416672
 11
-181.733643
 21
53.166672
  0
LINE
  8
0
 10
-179.666656
 20
59.666664
 11
-179.666656
 21
49.666664
  0
LINE
  8
0
 10
-172.166656
 20
62.666664
 11
-133.166656
 21
62.666664
  0
LINE
  8
0
 10
-172.166656
 20
58.166664
 11
-133.166656
 21
58.166664
  0
LINE
  8
0
 10
-180.166656
 20
50.166664
 11
-178.416656
 21
50.166664
  0
LINE
  8
0
 10
-180.166656
 20
59.166664
 11
-178.416656
 21
59.166664
  0
LINE
  8
0
 10
-175.416672
 20
48.666672
 11
-175.665390
 21
47.738464
  0
LINE
  8
0
 10
-178.416687
 20
48.666664
 11
-178.167969
 21
47.738449
  0
LINE
  8
0
 10
-178.167938
 20
47.738457
 11
-175.716660
 21
47.738457
  0
LINE
  8
0
 10
-178.416656
 20
60.666664
 11
-178.416656
 21
48.666702
  0
LINE
  8
0
 10
-178.167938
 20
61.594872
 11
-175.716660
 21
61.594872
  0
LINE
  8
0
 10
-178.167938
 20
51.202560
 11
-175.665375
 21
51.202560
  0
LINE
  8
0
 10
-175.416611
 20
60.666668
 11
-175.665329
 21
61.594887
  0
LINE
  8
0
 10
-178.416626
 20
60.666660
 11
-178.167923
 21
61.594872
  0
LINE
  8
0
 10
-178.167938
 20
58.130764
 11
-175.665375
 21
58.130764
  0
LINE
  8
0
 10
-175.416656
 20
60.666786
 11
-175.416656
 21
48.666672
  0
LINE
  8
0
 10
-173.666656
 20
59.666664
 11
-173.666656
 21
49.666664
  0
LINE
  8
0
 10
-175.416656
 20
50.166664
 11
-173.666656
 21
50.166664
  0
LINE
  8
0
 10
-175.416656
 20
49.666664
 11
-172.166656
 21
49.666664
  0
LINE
  8
0
 10
-175.416656
 20
59.166664
 11
-173.666656
 21
59.166664
  0
LINE
  8
0
 10
-175.416656
 20
59.666664
 11
-172.166656
 21
59.666664
  0
LINE
  8
0
 10
-173.666672
 20
59.166679
 11
-173.166672
 21
59.666679
  0
LINE
  8
0
 10
-173.666656
 20
50.166653
 11
-173.166656
 21
49.666653
  0
ARC
  8
0
 10
-180.162247
 20
54.666656
 40
5.254407
 50
162.412155
 51
179.999924
  0
ARC
  8
0
 10
-185.810944
 20
57.048229
 40
1.405714
 50
145.616013
 51
214.383987
  0
ARC
  8
0
 10
-181.962250
 20
54.666656
 40
5.254407
 50
162.412155
 51
179.999924
  0
ARC
  8
0
 10
-190.671051
 20
54.666656
 40
5.254410
 50
0.000042
 51
17.587797
  0
ARC
  8
0
 10
-186.822372
 20
57.048229
 40
1.405714
 50
325.616028
 51
34.383984
  0
ARC
  8
0
 10
-181.962250
 20
54.666672
 40
5.254410
 50
180.000000
 51
197.587753
  0
ARC
  8
0
 10
-185.810944
 20
52.285099
 40
1.405716
 50
145.615891
 51
214.383987
  0
ARC
  8
0
 10
-190.671051
 20
54.666672
 40
5.254407
 50
342.412170
 51
359.999908
  0
ARC
  8
0
 10
-186.822372
 20
52.285099
 40
1.405714
 50
325.616028
 51
34.383984
  0
ARC
  8
0
 10
-185.022369
 20
52.285099
 40
1.405714
 50
325.616028
 51
34.383984
  0
ARC
  8
0
 10
-184.010925
 20
57.048229
 40
1.405714
 50
145.616013
 51
214.383987
  0
ARC
  8
0
 10
-184.010925
 20
52.285099
 40
1.405714
 50
145.616013
 51
214.383987
  0
ARC
  8
0
 10
-180.162247
 20
54.666672
 40
5.254410
 50
180.000046
 51
197.587845
  0
ARC
  8
0
 10
-188.871063
 20
54.666672
 40
5.254406
 50
342.412201
 51
0.000000
  0
ARC
  8
0
 10
-188.871063
 20
54.666656
 40
5.254410
 50
0.000042
 51
17.587797
  0
ARC
  8
0
 10
-185.022369
 20
57.048229
 40
1.405714
 50
325.616028
 51
34.383984
  0
ARC
  8
0
 10
-181.572052
 20
59.862816
 40
6.155407
 50
343.656952
 51
16.342976
  0
ARC
  8
0
 10
-172.261261
 20
59.862816
 40
6.155407
 50
163.656952
 51
196.343002
  0
ARC
  8
0
 10
-181.572052
 20
49.470512
 40
6.155405
 50
343.657013
 51
16.343044
  0
ARC
  8
0
 10
-172.261261
 20
49.470512
 40
6.155408
 50
163.656921
 51
196.342972
  0
ARC
  8
0
 10
-199.665070
 20
54.666660
 40
24.248425
 50
351.786682
 51
8.213260
  0
ARC
  8
0
 10
-154.168243
 20
54.666660
 40
24.248423
 50
171.786697
 51
188.213272
  0
POINT
  8
0
 10
-231.166656
 20
54.666664
  0
POINT
  8
0
 10
-238.166656
 20
54.666664
  0
LINE
  8
0
 10
-238.166656
 20
65.666664
 11
-238.166656
 21
46.598656
  0
LINE
  8
0
 10
-245.166656
 20
58.166664
 11
-245.166656
 21
50.666664
  0
LINE
  8
0
 10
-231.166656
 20
58.166664
 11
-231.166656
 21
50.666664
  0
LINE
  8
0
 10
-234.166656
 20
64.166664
 11
-234.166656
 21
62.666664
  0
LINE
  8
0
 10
-242.166656
 20
64.166664
 11
-242.166656
 21
62.666664
  0
LINE
  8
0
 10
-241.666656
 20
62.666664
 11
-241.666656
 21
59.574142
  0
LINE
  8
0
 10
-234.666656
 20
62.666664
 11
-234.666656
 21
59.574150
  0
LINE
  8
0
 10
-242.166656
 20
64.166664
 11
-234.166656
 21
64.166664
  0
LINE
  8
0
 10
-242.166656
 20
62.666664
 11
-241.666656
 21
62.666664
  0
LINE
  8
0
 10
-245.166656
 20
58.166664
 11
-244.104492
 21
58.166664
  0
LINE
  8
0
 10
-243.166656
 20
48.666664
 11
-239.774353
 21
48.666664
  0
LINE
  8
0
 10
-234.666656
 20
62.666664
 11
-234.166656
 21
62.666664
  0
LINE
  8
0
 10
-232.228821
 20
58.166664
 11
-231.166656
 21
58.166664
  0
LINE
  8
0
 10
-240.916580
 20
56.254341
 11
-240.917068
 21
56.253475
  0
LINE
  8
0
 10
-240.916595
 20
53.078983
 11
-240.917099
 21
53.079853
  0
LINE
  8
0
 10
-238.166626
 20
57.842026
 11
-240.916641
 21
56.254299
  0
LINE
  8
0
 10
-240.916656
 20
56.254372
 11
-240.916656
 21
53.078957
  0
LINE
  8
0
 10
-240.916550
 20
53.079086
 11
-238.166565
 21
51.491379
  0
LINE
  8
0
 10
-238.166595
 20
51.491188
 11
-235.416595
 21
53.078903
  0
LINE
  8
0
 10
-235.416656
 20
53.078957
 11
-235.416656
 21
56.254372
  0
LINE
  8
0
 10
-235.416565
 20
56.254471
 11
-238.166565
 21
57.842178
  0
LINE
  8
0
 10
-232.166656
 20
58.130764
 11
-232.166656
 21
51.202560
  0
LINE
  8
0
 10
-244.166656
 20
58.130768
 11
-244.166656
 21
51.202560
  0
LINE
  8
0
 10
-244.166702
 20
51.202507
 11
-238.166702
 21
47.738403
  0
LINE
  8
0
 10
-244.166718
 20
58.130859
 11
-238.166733
 21
61.594955
  0
LINE
  8
0
 10
-232.166687
 20
51.202637
 11
-238.166672
 21
47.738541
  0
LINE
  8
0
 10
-229.936768
 20
54.666664
 11
-246.358368
 21
54.666664
  0
LINE
  8
0
 10
-232.166672
 20
58.130688
 11
-238.166687
 21
61.594803
  0
LINE
  8
0
 10
-236.558960
 20
48.666664
 11
-233.166656
 21
48.666664
  0
ARC
  8
0
 10
-233.166656
 20
50.666664
 40
2.000000
 50
270.000000
 51
0.000000
  0
CIRCLE
  8
0
 10
-238.166656
 20
54.666664
 40
5.000000
  0
CIRCLE
  8
0
 10
-238.166656
 20
54.666664
 40
2.750011
  0
CIRCLE
  8
0
 10
-238.166656
 20
54.666664
 40
1.500000
  0
CIRCLE
  8
0
 10
-238.166656
 20
54.666664
 40
6.000000
  0
CIRCLE
  8
0
 10
-238.166656
 20
54.666664
 40
1.250000
  0
CIRCLE
  8
0
 10
-238.166656
 20
54.666664
 40
4.500000
  0
ARC
  8
0
 10
-243.166656
 20
50.666664
 40
2.000000
 50
180.000000
 51
270.000000
  0
POINT
  8
0
 10
-133.166656
 20
144.666656
  0
POINT
  8
0
 10
-172.166656
 20
144.666656
  0
LINE
  8
0
 10
-133.166656
 20
151.666656
 11
-133.166656
 21
137.666656
  0
LINE
  8
0
 10
-172.166656
 20
151.666656
 11
-133.166656
 21
151.666656
  0
LINE
  8
0
 10
-172.166656
 20
137.666656
 11
-133.166656
 21
137.666656
  0
LINE
  8
0
 10
-172.166656
 20
148.666656
 11
-133.166656
 21
148.666656
  0
LINE
  8
0
 10
-172.166656
 20
140.666656
 11
-133.166656
 21
140.666656
  0
LINE
  8
0
 10
-139.166656
 20
148.416656
 11
-139.166656
 21
140.916656
  0
LINE
  8
0
 10
-166.166656
 20
148.416656
 11
-166.166656
 21
140.916656
  0
LINE
  8
0
 10
-139.666656
 20
145.416656
 11
-139.666656
 21
143.916656
  0
LINE
  8
0
 10
-147.666656
 20
147.166656
 11
-147.666656
 21
142.166656
  0
LINE
  8
0
 10
-157.666656
 20
147.166656
 11
-157.666656
 21
142.166656
  0
LINE
  8
0
 10
-180.166656
 20
149.166656
 11
-180.166656
 21
140.166656
  0
LINE
  8
0
 10
-179.666656
 20
139.666656
 11
-178.416656
 21
139.666656
  0
LINE
  8
0
 10
-179.666656
 20
149.666656
 11
-178.416656
 21
149.666656
  0
LINE
  8
0
 10
-179.666656
 20
139.666656
 11
-180.166656
 21
140.166656
  0
LINE
  8
0
 10
-179.666626
 20
149.666656
 11
-180.166626
 21
149.166656
  0
LINE
  8
0
 10
-188.666656
 20
143.166656
 11
-187.216644
 21
143.166656
  0
LINE
  8
0
 10
-188.666656
 20
146.166656
 11
-187.216644
 21
146.166656
  0
LINE
  8
0
 10
-188.666656
 20
146.166656
 11
-188.666656
 21
143.166656
  0
LINE
  8
0
 10
-188.666641
 20
143.166656
 11
-189.166641
 21
143.666656
  0
LINE
  8
0
 10
-188.666550
 20
146.166550
 11
-189.166550
 21
145.666550
  0
LINE
  8
0
 10
-182.166656
 20
146.166656
 11
-182.166656
 21
143.166656
  0
LINE
  8
0
 10
-189.166656
 20
145.666656
 11
-189.166656
 21
143.666656
  0
LINE
  8
0
 10
-190.666656
 20
144.666656
 11
-131.666656
 21
144.666656
  0
LINE
  8
0
 10
-183.616653
 20
147.416656
 11
-183.616653
 21
141.916656
  0
LINE
  8
0
 10
-187.216644
 20
147.416656
 11
-187.216644
 21
141.916656
  0
LINE
  8
0
 10
-185.416656
 20
141.916656
 11
-185.416656
 21
147.416656
  0
LINE
  8
0
 10
-183.616653
 20
143.166656
 11
-180.166656
 21
143.166656
  0
LINE
  8
0
 10
-183.616653
 20
146.166656
 11
-180.166656
 21
146.166656
  0
LINE
  8
0
 10
-188.916626
 20
143.416656
 11
-187.216644
 21
143.416656
  0
LINE
  8
0
 10
-188.916519
 20
145.916656
 11
-187.216644
 21
145.916656
  0
LINE
  8
0
 10
-183.618668
 20
145.916656
 11
-182.166656
 21
145.916656
  0
LINE
  8
0
 10
-183.616653
 20
143.416656
 11
-182.166656
 21
143.416656
  0
LINE
  8
0
 10
-182.166626
 20
145.916641
 11
-181.733612
 21
146.166641
  0
LINE
  8
0
 10
-182.166672
 20
143.416626
 11
-181.733658
 21
143.166626
  0
LINE
  8
0
 10
-179.666656
 20
149.666656
 11
-179.666656
 21
139.666656
  0
LINE
  8
0
 10
-180.166656
 20
140.166656
 11
-178.416656
 21
140.166656
  0
LINE
  8
0
 10
-180.166656
 20
149.166656
 11
-178.416656
 21
149.166656
  0
LINE
  8
0
 10
-187.216644
 20
141.916656
 11
-183.616653
 21
141.916656
  0
LINE
  8
0
 10
-187.216644
 20
147.416656
 11
-183.616653
 21
147.416656
  0
LINE
  8
0
 10
-186.971039
 20
144.666656
 11
-185.662277
 21
144.666656
  0
LINE
  8
0
 10
-183.862274
 20
144.666656
 11
-185.171036
 21
144.666656
  0
LINE
  8
0
 10
-172.166656
 20
151.666656
 11
-172.166656
 21
137.666656
  0
LINE
  8
0
 10
-178.416656
 20
138.666656
 11
-175.416656
 21
138.666656
  0
LINE
  8
0
 10
-175.416656
 20
150.666656
 11
-175.416656
 21
138.666656
  0
LINE
  8
0
 10
-178.416656
 20
150.666656
 11
-178.416656
 21
138.666656
  0
LINE
  8
0
 10
-178.416656
 20
150.666656
 11
-175.416656
 21
150.666656
  0
LINE
  8
0
 10
-178.167938
 20
144.666656
 11
-175.665375
 21
144.666656
  0
LINE
  8
0
 10
-175.416656
 20
139.666656
 11
-172.166656
 21
139.666656
  0
LINE
  8
0
 10
-175.416656
 20
140.166656
 11
-173.666656
 21
140.166656
  0
LINE
  8
0
 10
-175.416656
 20
149.166656
 11
-173.666656
 21
149.166656
  0
LINE
  8
0
 10
-175.416656
 20
149.666656
 11
-172.166656
 21
149.666656
  0
LINE
  8
0
 10
-173.666656
 20
149.666656
 11
-173.666656
 21
139.666656
  0
LINE
  8
0
 10
-173.666641
 20
140.166656
 11
-173.166641
 21
139.666656
  0
LINE
  8
0
 10
-173.666672
 20
149.166687
 11
-173.166672
 21
149.666687
  0
ARC
  8
0
 10
-160.199265
 20
147.666656
 40
18.217403
 50
170.521484
 51
189.478470
  0
ARC
  8
0
 10
-193.634048
 20
141.666656
 40
18.217403
 50
350.521484
 51
9.478464
  0
CIRCLE
  8
0
 10
-139.166656
 20
144.666656
 40
2.500000
  0
CIRCLE
  8
0
 10
-139.166656
 20
144.666656
 40
2.100000
  0
CIRCLE
  8
0
 10
-166.166656
 20
144.666656
 40
2.500000
  0
CIRCLE
  8
0
 10
-166.166656
 20
144.666656
 40
2.100000
  0
CIRCLE
  8
0
 10
-139.666656
 20
144.666656
 40
0.300000
  0
CIRCLE
  8
0
 10
-166.166656
 20
144.666656
 40
0.300000
  0
CIRCLE
  8
0
 10
-147.666656
 20
144.666656
 40
1.500000
  0
CIRCLE
  8
0
 10
-147.666656
 20
144.666656
 40
1.250000
  0
CIRCLE
  8
0
 10
-157.666656
 20
144.666656
 40
1.500000
  0
CIRCLE
  8
0
 10
-157.666656
 20
144.666656
 40
1.250000
  0
ARC
  8
0
 10
-183.245178
 20
146.041656
 40
3.971481
 50
159.743805
 51
200.256195
  0
ARC
  8
0
 10
-189.388123
 20
146.041656
 40
3.971481
 50
339.743805
 51
20.256191
  0
ARC
  8
0
 10
-183.245178
 20
143.291656
 40
3.971481
 50
159.743805
 51
200.256195
  0
ARC
  8
0
 10
-189.388123
 20
143.291656
 40
3.971481
 50
339.743805
 51
20.256191
  0
ARC
  8
0
 10
-181.445190
 20
143.291656
 40
3.971481
 50
159.743805
 51
200.256195
  0
ARC
  8
0
 10
-187.588135
 20
143.291656
 40
3.971481
 50
339.743805
 51
20.256191
  0
ARC
  8
0
 10
-181.445190
 20
146.041656
 40
3.971481
 50
159.743805
 51
200.256195
  0
ARC
  8
0
 10
-187.588135
 20
146.041656
 40
3.971481
 50
339.743805
 51
20.256191
  0
ARC
  8
0
 10
-193.634048
 20
147.666656
 40
18.217403
 50
350.521484
 51
9.478464
  0
ARC
  8
0
 10
-160.199265
 20
141.666656
 40
18.217390
 50
170.521439
 51
189.478424
  0
POINT
  8
0
 10
56.500008
 20
54.666664
  0
POINT
  8
0
 10
12.500000
 20
54.666664
  0
LINE
  8
0
 10
12.500000
 20
64.166664
 11
12.500000
 21
48.666664
  0
LINE
  8
0
 10
4.500000
 20
59.166664
 11
4.500000
 21
50.166660
  0
LINE
  8
0
 10
12.500000
 20
64.166664
 11
24.000000
 21
64.166664
  0
LINE
  8
0
 10
12.500000
 20
48.666664
 11
56.500000
 21
48.666664
  0
LINE
  8
0
 10
5.000000
 20
49.666664
 11
6.250000
 21
49.666664
  0
LINE
  8
0
 10
5.000000
 20
59.666664
 11
6.250000
 21
59.666664
  0
LINE
  8
0
 10
4.999991
 20
49.666656
 11
4.499990
 21
50.166660
  0
LINE
  8
0
 10
4.999994
 20
59.666676
 11
4.499995
 21
59.166672
  0
LINE
  8
0
 10
-4.000000
 20
53.166664
 11
-2.549995
 21
53.166664
  0
LINE
  8
0
 10
-4.000000
 20
56.166664
 11
-2.549995
 21
56.166664
  0
LINE
  8
0
 10
-4.000000
 20
56.166664
 11
-4.000000
 21
53.166664
  0
LINE
  8
0
 10
-3.999989
 20
53.166683
 11
-4.499990
 21
53.666683
  0
LINE
  8
0
 10
-3.999962
 20
56.166630
 11
-4.499962
 21
55.666630
  0
LINE
  8
0
 10
2.500000
 20
56.166664
 11
2.500000
 21
53.166664
  0
LINE
  8
0
 10
-4.500000
 20
55.666664
 11
-4.500000
 21
53.666664
  0
LINE
  8
0
 10
-5.679893
 20
54.666664
 11
58.683006
 21
54.666664
  0
LINE
  8
0
 10
1.050003
 20
57.416664
 11
1.050003
 21
51.916664
  0
LINE
  8
0
 10
-2.549995
 20
57.416664
 11
-2.549995
 21
51.916664
  0
LINE
  8
0
 10
-2.304375
 20
57.842087
 11
-0.995621
 21
57.842087
  0
LINE
  8
0
 10
-2.304375
 20
56.254372
 11
-0.995613
 21
56.254372
  0
LINE
  8
0
 10
-2.549975
 20
57.416664
 11
-2.304355
 21
57.842091
  0
LINE
  8
0
 10
-0.749999
 20
57.416668
 11
-0.995616
 21
57.842087
  0
LINE
  8
0
 10
-2.304375
 20
53.078957
 11
-0.995613
 21
53.078957
  0
LINE
  8
0
 10
-2.304375
 20
51.491241
 11
-0.995621
 21
51.491241
  0
LINE
  8
0
 10
-2.549992
 20
51.916660
 11
-2.304373
 21
51.491234
  0
LINE
  8
0
 10
-0.750003
 20
51.916649
 11
-0.995620
 21
51.491230
  0
LINE
  8
0
 10
-0.750000
 20
51.916664
 11
-0.750000
 21
57.416664
  0
LINE
  8
0
 10
1.050012
 20
57.416653
 11
0.804393
 21
57.842079
  0
LINE
  8
0
 10
-0.504379
 20
56.254372
 11
0.804382
 21
56.254372
  0
LINE
  8
0
 10
-0.504379
 20
57.842087
 11
0.804382
 21
57.842087
  0
LINE
  8
0
 10
-0.749988
 20
57.416672
 11
-0.504371
 21
57.842094
  0
LINE
  8
0
 10
1.050009
 20
51.916672
 11
0.804388
 21
51.491245
  0
LINE
  8
0
 10
-0.504379
 20
53.078957
 11
0.804382
 21
53.078957
  0
LINE
  8
0
 10
-0.504379
 20
51.491241
 11
0.804382
 21
51.491241
  0
LINE
  8
0
 10
-0.750010
 20
51.916664
 11
-0.504389
 21
51.491238
  0
LINE
  8
0
 10
1.050003
 20
53.166664
 11
4.500000
 21
53.166664
  0
LINE
  8
0
 10
1.050003
 20
56.166664
 11
4.500000
 21
56.166664
  0
LINE
  8
0
 10
-4.249966
 20
53.416664
 11
-2.549995
 21
53.416664
  0
LINE
  8
0
 10
-4.249866
 20
55.916664
 11
-2.549995
 21
55.916664
  0
LINE
  8
0
 10
1.047989
 20
55.916664
 11
2.500000
 21
55.916664
  0
LINE
  8
0
 10
1.050003
 20
53.416664
 11
2.500000
 21
53.416664
  0
LINE
  8
0
 10
2.499995
 20
55.916683
 11
2.933007
 21
56.166683
  0
LINE
  8
0
 10
2.499991
 20
53.416656
 11
2.933004
 21
53.166656
  0
LINE
  8
0
 10
5.000000
 20
59.666664
 11
5.000000
 21
49.666664
  0
LINE
  8
0
 10
12.500000
 20
62.666664
 11
24.000000
 21
62.666664
  0
LINE
  8
0
 10
12.500000
 20
58.166664
 11
57.250000
 21
58.166664
  0
LINE
  8
0
 10
4.500000
 20
50.166664
 11
6.250000
 21
50.166664
  0
LINE
  8
0
 10
4.500000
 20
59.166664
 11
6.250000
 21
59.166664
  0
LINE
  8
0
 10
9.250000
 20
48.666664
 11
9.001287
 21
47.738457
  0
LINE
  8
0
 10
6.249958
 20
48.666653
 11
6.498672
 21
47.738434
  0
LINE
  8
0
 10
6.498711
 20
47.738457
 11
8.949997
 21
47.738457
  0
LINE
  8
0
 10
6.250000
 20
60.666664
 11
6.250000
 21
48.666702
  0
LINE
  8
0
 10
6.498711
 20
61.594872
 11
8.949997
 21
61.594872
  0
LINE
  8
0
 10
6.498718
 20
51.202560
 11
9.001282
 21
51.202560
  0
LINE
  8
0
 10
9.250061
 20
60.666668
 11
9.001345
 21
61.594883
  0
LINE
  8
0
 10
6.250035
 20
60.666660
 11
6.498749
 21
61.594868
  0
LINE
  8
0
 10
6.498718
 20
58.130764
 11
9.001282
 21
58.130764
  0
LINE
  8
0
 10
9.250000
 20
60.666786
 11
9.250000
 21
48.666672
  0
LINE
  8
0
 10
11.000000
 20
59.666664
 11
11.000000
 21
49.666664
  0
LINE
  8
0
 10
9.250000
 20
50.166664
 11
11.000000
 21
50.166664
  0
LINE
  8
0
 10
9.250000
 20
49.666664
 11
12.500000
 21
49.666664
  0
LINE
  8
0
 10
9.250000
 20
59.166664
 11
11.000000
 21
59.166664
  0
LINE
  8
0
 10
9.250000
 20
59.666664
 11
12.500000
 21
59.666664
  0
LINE
  8
0
 10
10.999997
 20
59.166664
 11
11.499997
 21
59.666664
  0
LINE
  8
0
 10
11.000005
 20
50.166672
 11
11.500005
 21
49.666672
  0
LINE
  8
0
 10
56.500008
 20
64.166664
 11
56.500008
 21
62.166664
  0
LINE
  8
0
 10
44.799995
 20
66.838493
 11
44.799995
 21
66.166664
  0
LINE
  8
0
 10
39.199989
 20
66.838493
 11
39.199989
 21
66.166664
  0
LINE
  8
0
 10
27.000000
 20
69.066666
 11
27.000000
 21
60.166664
  0
LINE
  8
0
 10
42.000008
 20
69.066666
 11
42.000008
 21
60.166664
  0
LINE
  8
0
 10
24.000000
 20
61.166664
 11
30.000000
 21
61.166664
  0
LINE
  8
0
 10
29.800003
 20
66.838493
 11
29.800003
 21
66.166664
  0
LINE
  8
0
 10
24.199997
 20
66.838493
 11
24.199997
 21
66.166664
  0
LINE
  8
0
 10
24.000000
 20
66.166664
 11
30.000000
 21
66.166664
  0
LINE
  8
0
 10
30.000000
 20
66.166664
 11
30.000000
 21
61.166664
  0
LINE
  8
0
 10
24.000000
 20
66.166664
 11
24.000000
 21
61.166664
  0
LINE
  8
0
 10
45.000008
 20
66.166664
 11
45.000008
 21
61.166664
  0
LINE
  8
0
 10
39.000008
 20
66.166664
 11
39.000008
 21
61.166664
  0
LINE
  8
0
 10
39.000000
 20
66.166664
 11
45.000000
 21
66.166664
  0
LINE
  8
0
 10
39.000000
 20
61.166664
 11
45.000000
 21
61.166664
  0
LINE
  8
0
 10
25.000000
 20
65.666664
 11
29.000000
 21
65.666664
  0
LINE
  8
0
 10
40.000000
 20
65.666664
 11
44.000000
 21
65.666664
  0
LINE
  8
0
 10
25.000000
 20
66.166664
 11
25.000000
 21
65.666664
  0
LINE
  8
0
 10
29.000000
 20
66.166664
 11
29.000000
 21
65.666664
  0
LINE
  8
0
 10
44.000008
 20
66.166664
 11
44.000008
 21
65.666664
  0
LINE
  8
0
 10
40.000008
 20
66.166664
 11
40.000008
 21
65.666664
  0
LINE
  8
0
 10
35.500008
 20
62.166664
 11
35.500008
 21
58.166664
  0
LINE
  8
0
 10
57.500008
 20
62.166664
 11
57.500008
 21
58.166664
  0
LINE
  8
0
 10
57.500000
 20
58.666664
 11
65.000000
 21
58.666664
  0
LINE
  8
0
 10
36.500008
 20
62.166664
 11
36.500008
 21
58.166664
  0
LINE
  8
0
 10
34.500000
 20
60.166664
 11
66.000000
 21
60.166664
  0
LINE
  8
0
 10
35.500000
 20
62.166664
 11
39.000000
 21
62.166664
  0
LINE
  8
0
 10
57.500000
 20
61.666664
 11
65.000000
 21
61.666664
  0
LINE
  8
0
 10
45.000000
 20
62.166664
 11
57.500000
 21
62.166664
  0
LINE
  8
0
 10
56.500008
 20
58.166664
 11
56.500008
 21
48.666664
  0
LINE
  8
0
 10
30.000000
 20
64.166664
 11
39.000000
 21
64.166664
  0
LINE
  8
0
 10
30.000000
 20
62.666664
 11
39.000000
 21
62.666664
  0
LINE
  8
0
 10
45.000000
 20
64.166664
 11
56.500000
 21
64.166664
  0
LINE
  8
0
 10
45.000000
 20
62.666664
 11
56.500000
 21
62.666664
  0
ARC
  8
0
 10
65.312508
 20
59.416664
 40
0.812500
 50
112.619865
 51
247.380142
  0
ARC
  8
0
 10
4.504410
 20
54.666656
 40
5.254405
 50
162.412155
 51
179.999924
  0
ARC
  8
0
 10
-1.144279
 20
57.048229
 40
1.405717
 50
145.616104
 51
214.383896
  0
ARC
  8
0
 10
2.704407
 20
54.666656
 40
5.254405
 50
162.412155
 51
179.999924
  0
ARC
  8
0
 10
-6.004402
 20
54.666656
 40
5.254406
 50
0.000042
 51
17.587801
  0
ARC
  8
0
 10
-2.155716
 20
57.048229
 40
1.405717
 50
325.616089
 51
34.383877
  0
ARC
  8
0
 10
2.704407
 20
54.666672
 40
5.254406
 50
180.000000
 51
197.587753
  0
ARC
  8
0
 10
-1.144279
 20
52.285099
 40
1.405719
 50
145.615982
 51
214.383881
  0
ARC
  8
0
 10
-6.004402
 20
54.666672
 40
5.254405
 50
342.412170
 51
359.999908
  0
ARC
  8
0
 10
-2.155716
 20
52.285099
 40
1.405717
 50
325.616089
 51
34.383877
  0
ARC
  8
0
 10
-0.355713
 20
52.285099
 40
1.405717
 50
325.616089
 51
34.383896
  0
ARC
  8
0
 10
0.655724
 20
57.048229
 40
1.405717
 50
145.616104
 51
214.383896
  0
ARC
  8
0
 10
0.655724
 20
52.285099
 40
1.405717
 50
145.616104
 51
214.383896
  0
ARC
  8
0
 10
4.504410
 20
54.666672
 40
5.254406
 50
180.000046
 51
197.587845
  0
ARC
  8
0
 10
-4.204407
 20
54.666672
 40
5.254406
 50
342.412201
 51
0.000000
  0
ARC
  8
0
 10
-4.204407
 20
54.666656
 40
5.254406
 50
0.000042
 51
17.587801
  0
ARC
  8
0
 10
-0.355713
 20
57.048229
 40
1.405717
 50
325.616089
 51
34.383877
  0
ARC
  8
0
 10
3.094597
 20
59.862816
 40
6.155401
 50
343.656952
 51
16.342985
  0
ARC
  8
0
 10
12.405403
 20
59.862816
 40
6.155402
 50
163.656937
 51
196.343018
  0
ARC
  8
0
 10
3.094597
 20
49.470512
 40
6.155401
 50
343.657013
 51
16.343058
  0
ARC
  8
0
 10
12.405403
 20
49.470512
 40
6.155401
 50
163.656906
 51
196.342987
  0
ARC
  8
0
 10
-14.998421
 20
54.666660
 40
24.248421
 50
351.786682
 51
8.213261
  0
ARC
  8
0
 10
30.498421
 20
54.666660
 40
24.248421
 50
171.786697
 51
188.213272
  0
ARC
  8
0
 10
44.133339
 20
66.838493
 40
0.666668
 50
0.000000
 51
60.507767
  0
ARC
  8
0
 10
42.000008
 20
63.066666
 40
4.999997
 50
60.507637
 51
119.492363
  0
ARC
  8
0
 10
39.866676
 20
66.838493
 40
0.666670
 50
119.492233
 51
180.000000
  0
ARC
  8
0
 10
29.133331
 20
66.838493
 40
0.666666
 50
0.000000
 51
60.507767
  0
ARC
  8
0
 10
24.866669
 20
66.838493
 40
0.666670
 50
119.492233
 51
180.000000
  0
ARC
  8
0
 10
27.000000
 20
63.066666
 40
4.999997
 50
60.507637
 51
119.492363
  0
ARC
  8
0
 10
64.687508
 20
60.916664
 40
0.812500
 50
292.619873
 51
67.380135
  0
ARC
  8
0
 10
64.687508
 20
59.416664
 40
0.812500
 50
292.619873
 51
67.380135
  0
POINT
  8
0
 10
-48.576653
 20
54.666664
  0
POINT
  8
0
 10
-55.576653
 20
54.666664
  0
LINE
  8
0
 10
-55.576653
 20
69.866661
 11
-55.576653
 21
46.238461
  0
LINE
  8
0
 10
-62.576653
 20
58.166664
 11
-62.576653
 21
50.666664
  0
LINE
  8
0
 10
-48.576653
 20
58.166664
 11
-48.576653
 21
50.666664
  0
LINE
  8
0
 10
-51.576653
 20
64.166664
 11
-51.576653
 21
62.666664
  0
LINE
  8
0
 10
-59.576653
 20
64.166664
 11
-59.576653
 21
62.666664
  0
LINE
  8
0
 10
-59.076653
 20
62.666664
 11
-59.076653
 21
59.574142
  0
LINE
  8
0
 10
-52.076653
 20
62.666664
 11
-52.076653
 21
59.574150
  0
LINE
  8
0
 10
-59.876663
 20
64.166664
 11
-51.276657
 21
64.166664
  0
LINE
  8
0
 10
-59.576660
 20
62.666664
 11
-59.076660
 21
62.666664
  0
LINE
  8
0
 10
-60.576660
 20
48.666664
 11
-57.184357
 21
48.666664
  0
LINE
  8
0
 10
-52.076660
 20
62.666664
 11
-51.576660
 21
62.666664
  0
LINE
  8
0
 10
-49.638824
 20
58.166664
 11
-48.076660
 21
58.166664
  0
LINE
  8
0
 10
-49.576653
 20
58.130764
 11
-49.576653
 21
51.202560
  0
LINE
  8
0
 10
-61.576653
 20
58.130768
 11
-61.576653
 21
51.202560
  0
LINE
  8
0
 10
-61.576656
 20
51.202560
 11
-55.576660
 21
47.738461
  0
LINE
  8
0
 10
-61.576721
 20
58.130878
 11
-55.576717
 21
61.594982
  0
LINE
  8
0
 10
-47.810188
 20
54.666664
 11
-64.076660
 21
54.666664
  0
LINE
  8
0
 10
-49.576691
 20
51.202637
 11
-55.576687
 21
47.738537
  0
LINE
  8
0
 10
-49.576653
 20
58.130760
 11
-55.576653
 21
61.594868
  0
LINE
  8
0
 10
-53.968956
 20
48.666664
 11
-50.576660
 21
48.666664
  0
LINE
  8
0
 10
-59.876671
 20
64.166664
 11
-59.876671
 21
62.166664
  0
LINE
  8
0
 10
-63.326660
 20
62.166664
 11
-59.076660
 21
62.166664
  0
LINE
  8
0
 10
-64.076653
 20
65.966667
 11
-64.076653
 21
61.166664
  0
LINE
  8
0
 10
-63.326653
 20
62.166664
 11
-63.326653
 21
61.166664
  0
LINE
  8
0
 10
-64.076660
 20
61.166664
 11
-63.326660
 21
61.166664
  0
LINE
  8
0
 10
-63.076653
 20
62.166664
 11
-63.076653
 21
58.166664
  0
LINE
  8
0
 10
-51.276665
 20
64.166664
 11
-51.276665
 21
62.166664
  0
LINE
  8
0
 10
-47.076660
 20
65.966667
 11
-64.076660
 21
65.966667
  0
LINE
  8
0
 10
-47.076653
 20
65.966667
 11
-47.076653
 21
61.166664
  0
LINE
  8
0
 10
-47.076660
 20
61.166664
 11
-47.826660
 21
61.166664
  0
LINE
  8
0
 10
-47.826653
 20
62.166664
 11
-47.826653
 21
61.166664
  0
LINE
  8
0
 10
-47.826660
 20
62.166664
 11
-52.076660
 21
62.166664
  0
LINE
  8
0
 10
-48.076653
 20
62.166664
 11
-48.076653
 21
58.166664
  0
LINE
  8
0
 10
-63.076660
 20
58.166664
 11
-61.514488
 21
58.166664
  0
LINE
  8
0
 10
-55.576618
 20
57.842010
 11
-58.326614
 21
56.254299
  0
LINE
  8
0
 10
-58.326630
 20
53.079002
 11
-55.576633
 21
51.491287
  0
LINE
  8
0
 10
-55.576618
 20
51.491173
 11
-52.826622
 21
53.078884
  0
LINE
  8
0
 10
-52.826653
 20
53.078957
 11
-52.826653
 21
56.254372
  0
LINE
  8
0
 10
-52.826637
 20
56.254398
 11
-55.576637
 21
57.842117
  0
LINE
  8
0
 10
-58.326653
 20
56.254372
 11
-58.326653
 21
53.078957
  0
LINE
  8
0
 10
-58.576653
 20
65.966667
 11
-58.576653
 21
65.466667
  0
LINE
  8
0
 10
-52.576653
 20
65.966667
 11
-52.576653
 21
65.466667
  0
LINE
  8
0
 10
-58.376656
 20
66.638489
 11
-58.376656
 21
65.966660
  0
LINE
  8
0
 10
-52.776649
 20
66.638489
 11
-52.776649
 21
65.966660
  0
LINE
  8
0
 10
-52.576653
 20
65.466667
 11
-58.576653
 21
65.466667
  0
ARC
  8
0
 10
-53.443321
 20
66.638489
 40
0.666668
 50
0.000000
 51
60.507767
  0
CIRCLE
  8
0
 10
-55.576653
 20
54.666664
 40
5.000000
  0
CIRCLE
  8
0
 10
-55.576653
 20
54.666664
 40
6.000000
  0
CIRCLE
  8
0
 10
-55.576653
 20
54.666664
 40
4.500000
  0
ARC
  8
0
 10
-60.576653
 20
50.666664
 40
2.000000
 50
180.000000
 51
270.000000
  0
ARC
  8
0
 10
-50.576653
 20
50.666664
 40
2.000000
 50
270.000000
 51
0.000000
  0
CIRCLE
  8
0
 10
-55.576653
 20
54.666664
 40
1.250000
  0
CIRCLE
  8
0
 10
-55.576653
 20
54.666664
 40
2.750011
  0
CIRCLE
  8
0
 10
-55.576653
 20
54.666664
 40
1.500000
  0
ARC
  8
0
 10
-57.709984
 20
66.638489
 40
0.666670
 50
119.492233
 51
180.000000
  0
ARC
  8
0
 10
-55.576653
 20
62.866661
 40
4.999997
 50
60.507637
 51
119.492363
  0
POINT
  8
0
 10
56.500008
 20
144.666656
  0
POINT
  8
0
 10
12.500000
 20
144.666656
  0
LINE
  8
0
 10
4.500000
 20
149.166656
 11
4.500000
 21
140.166656
  0
LINE
  8
0
 10
5.000000
 20
139.666656
 11
6.250000
 21
139.666656
  0
LINE
  8
0
 10
5.000000
 20
149.666656
 11
6.250000
 21
149.666656
  0
LINE
  8
0
 10
4.999984
 20
139.666641
 11
4.499984
 21
140.166641
  0
LINE
  8
0
 10
5.000015
 20
149.666672
 11
4.500016
 21
149.166672
  0
LINE
  8
0
 10
-4.000000
 20
143.166656
 11
-2.549995
 21
143.166656
  0
LINE
  8
0
 10
-4.000000
 20
146.166656
 11
-2.549995
 21
146.166656
  0
LINE
  8
0
 10
-4.000000
 20
146.166656
 11
-4.000000
 21
143.166656
  0
LINE
  8
0
 10
-4.000004
 20
143.166656
 11
-4.500006
 21
143.666656
  0
LINE
  8
0
 10
-3.999889
 20
146.166550
 11
-4.499889
 21
145.666550
  0
LINE
  8
0
 10
2.500000
 20
146.166656
 11
2.500000
 21
143.166656
  0
LINE
  8
0
 10
-4.500000
 20
145.666656
 11
-4.500000
 21
143.666656
  0
LINE
  8
0
 10
-5.640850
 20
144.666656
 11
63.894943
 21
144.666656
  0
LINE
  8
0
 10
1.050003
 20
147.416656
 11
1.050003
 21
141.916656
  0
LINE
  8
0
 10
-2.549995
 20
147.416656
 11
-2.549995
 21
141.916656
  0
LINE
  8
0
 10
-0.750000
 20
141.916656
 11
-0.750000
 21
147.416656
  0
LINE
  8
0
 10
1.050003
 20
143.166656
 11
4.500000
 21
143.166656
  0
LINE
  8
0
 10
1.050003
 20
146.166656
 11
4.500000
 21
146.166656
  0
LINE
  8
0
 10
-4.249966
 20
143.416656
 11
-2.549995
 21
143.416656
  0
LINE
  8
0
 10
-4.249866
 20
145.916656
 11
-2.549995
 21
145.916656
  0
LINE
  8
0
 10
1.047989
 20
145.916656
 11
2.500000
 21
145.916656
  0
LINE
  8
0
 10
1.050003
 20
143.416656
 11
2.500000
 21
143.416656
  0
LINE
  8
0
 10
2.500028
 20
145.916626
 11
2.933040
 21
146.166626
  0
LINE
  8
0
 10
2.499953
 20
143.416595
 11
2.932966
 21
143.166595
  0
LINE
  8
0
 10
5.000000
 20
149.666656
 11
5.000000
 21
139.666656
  0
LINE
  8
0
 10
4.500000
 20
140.166656
 11
6.250000
 21
140.166656
  0
LINE
  8
0
 10
4.500000
 20
149.166656
 11
6.250000
 21
149.166656
  0
LINE
  8
0
 10
-2.549995
 20
141.916656
 11
1.050003
 21
141.916656
  0
LINE
  8
0
 10
-2.549995
 20
147.416656
 11
1.050003
 21
147.416656
  0
LINE
  8
0
 10
-2.304375
 20
144.666656
 11
-0.995621
 21
144.666656
  0
LINE
  8
0
 10
0.804375
 20
144.666656
 11
-0.504379
 21
144.666656
  0
LINE
  8
0
 10
12.500000
 20
151.666656
 11
12.500000
 21
137.666656
  0
LINE
  8
0
 10
6.250000
 20
138.666656
 11
9.250000
 21
138.666656
  0
LINE
  8
0
 10
9.250000
 20
150.666656
 11
9.250000
 21
138.666656
  0
LINE
  8
0
 10
6.250000
 20
150.666656
 11
6.250000
 21
138.666656
  0
LINE
  8
0
 10
6.250000
 20
150.666656
 11
9.250000
 21
150.666656
  0
LINE
  8
0
 10
6.498718
 20
144.666656
 11
9.001282
 21
144.666656
  0
LINE
  8
0
 10
9.250000
 20
139.666656
 11
12.500000
 21
139.666656
  0
LINE
  8
0
 10
9.250000
 20
140.166656
 11
11.000000
 21
140.166656
  0
LINE
  8
0
 10
9.250000
 20
149.166656
 11
11.000000
 21
149.166656
  0
LINE
  8
0
 10
9.250000
 20
149.666656
 11
12.500000
 21
149.666656
  0
LINE
  8
0
 10
11.000000
 20
149.666656
 11
11.000000
 21
139.666656
  0
LINE
  8
0
 10
11.000023
 20
140.166702
 11
11.500023
 21
139.666702
  0
LINE
  8
0
 10
10.999973
 20
149.166672
 11
11.499973
 21
149.666672
  0
LINE
  8
0
 10
12.500000
 20
151.666656
 11
15.500000
 21
151.666656
  0
LINE
  8
0
 10
12.500000
 20
137.666656
 11
24.000000
 21
137.666656
  0
LINE
  8
0
 10
12.500000
 20
148.666656
 11
24.000000
 21
148.666656
  0
LINE
  8
0
 10
12.500000
 20
140.666656
 11
24.000000
 21
140.666656
  0
LINE
  8
0
 10
50.500008
 20
148.416656
 11
50.500008
 21
139.166656
  0
LINE
  8
0
 10
18.500000
 20
148.416656
 11
18.500000
 21
138.905121
  0
LINE
  8
0
 10
50.000008
 20
145.416656
 11
50.000008
 21
143.916656
  0
LINE
  8
0
 10
56.500008
 20
148.666656
 11
56.500008
 21
140.666656
  0
LINE
  8
0
 10
35.500000
 20
137.166656
 11
39.000000
 21
137.166656
  0
LINE
  8
0
 10
42.000008
 20
135.150146
 11
42.000008
 21
154.166656
  0
LINE
  8
0
 10
57.500008
 20
141.166656
 11
57.500008
 21
137.166656
  0
LINE
  8
0
 10
15.500000
 20
152.166656
 11
24.000000
 21
152.166656
  0
LINE
  8
0
 10
36.750008
 20
140.666656
 11
36.750008
 21
137.166656
  0
LINE
  8
0
 10
14.000000
 20
150.166656
 11
43.750000
 21
150.166656
  0
LINE
  8
0
 10
57.500000
 20
140.666656
 11
65.000000
 21
140.666656
  0
LINE
  8
0
 10
57.500000
 20
137.666656
 11
65.000000
 21
137.666656
  0
LINE
  8
0
 10
15.500000
 20
152.166656
 11
15.500000
 21
148.666656
  0
LINE
  8
0
 10
16.500000
 20
152.166656
 11
16.500000
 21
148.666656
  0
LINE
  8
0
 10
45.000008
 20
136.166656
 11
45.000008
 21
153.166656
  0
LINE
  8
0
 10
39.000008
 20
136.166656
 11
39.000008
 21
153.166656
  0
LINE
  8
0
 10
45.000000
 20
136.166656
 11
39.000000
 21
136.166656
  0
LINE
  8
0
 10
45.000000
 20
153.166656
 11
39.000000
 21
153.166656
  0
LINE
  8
0
 10
30.000000
 20
152.166656
 11
37.500000
 21
152.166656
  0
LINE
  8
0
 10
45.000000
 20
147.666656
 11
44.000000
 21
147.666656
  0
LINE
  8
0
 10
45.000000
 20
141.666656
 11
44.000000
 21
141.666656
  0
LINE
  8
0
 10
40.000008
 20
136.166656
 11
40.000008
 21
141.666656
  0
LINE
  8
0
 10
44.000008
 20
136.166656
 11
44.000008
 21
141.666656
  0
LINE
  8
0
 10
44.000008
 20
147.666656
 11
44.000008
 21
153.166656
  0
LINE
  8
0
 10
40.000008
 20
147.666656
 11
40.000008
 21
153.166656
  0
LINE
  8
0
 10
40.000000
 20
141.666656
 11
39.000000
 21
141.666656
  0
LINE
  8
0
 10
40.000000
 20
147.666656
 11
39.000000
 21
147.666656
  0
LINE
  8
0
 10
44.000000
 20
152.166656
 11
40.000000
 21
152.166656
  0
LINE
  8
0
 10
43.500000
 20
137.166656
 11
40.500000
 21
137.166656
  0
LINE
  8
0
 10
40.500008
 20
137.166656
 11
40.500008
 21
137.666656
  0
LINE
  8
0
 10
43.500008
 20
137.166656
 11
43.500008
 21
137.666656
  0
LINE
  8
0
 10
34.000000
 20
139.166656
 11
65.500000
 21
139.166656
  0
LINE
  8
0
 10
56.500000
 20
141.166656
 11
57.500000
 21
141.166656
  0
LINE
  8
0
 10
43.500008
 20
144.966675
 11
43.500008
 21
144.366669
  0
LINE
  8
0
 10
40.500008
 20
144.966675
 11
40.500008
 21
144.366669
  0
LINE
  8
0
 10
42.299995
 20
146.166656
 11
42.299995
 21
145.566681
  0
LINE
  8
0
 10
41.700020
 20
146.166656
 11
41.700020
 21
145.566681
  0
LINE
  8
0
 10
42.300003
 20
146.166656
 11
41.699997
 21
146.166656
  0
LINE
  8
0
 10
42.300003
 20
143.166656
 11
41.699997
 21
143.166656
  0
LINE
  8
0
 10
43.500000
 20
144.966644
 11
42.899994
 21
144.966644
  0
LINE
  8
0
 10
43.500000
 20
144.366669
 11
42.899994
 21
144.366669
  0
LINE
  8
0
 10
42.299995
 20
143.766663
 11
42.299995
 21
143.166656
  0
LINE
  8
0
 10
41.700020
 20
143.766663
 11
41.700020
 21
143.166656
  0
LINE
  8
0
 10
41.099998
 20
144.966644
 11
40.500000
 21
144.966644
  0
LINE
  8
0
 10
41.099998
 20
144.366669
 11
40.500000
 21
144.366669
  0
LINE
  8
0
 10
25.500000
 20
144.366669
 11
26.100006
 21
144.366669
  0
LINE
  8
0
 10
25.500000
 20
144.966675
 11
26.100006
 21
144.966675
  0
LINE
  8
0
 10
27.000000
 20
154.166656
 11
27.000000
 21
135.166656
  0
LINE
  8
0
 10
26.699997
 20
145.566681
 11
26.699997
 21
146.166656
  0
LINE
  8
0
 10
27.900002
 20
144.366669
 11
28.500000
 21
144.366669
  0
LINE
  8
0
 10
24.000000
 20
153.166656
 11
24.000000
 21
136.166656
  0
LINE
  8
0
 10
30.000000
 20
153.166656
 11
30.000000
 21
136.166656
  0
LINE
  8
0
 10
24.000000
 20
153.166656
 11
30.000000
 21
153.166656
  0
LINE
  8
0
 10
24.000000
 20
136.166656
 11
30.000000
 21
136.166656
  0
LINE
  8
0
 10
27.299995
 20
145.566650
 11
27.299995
 21
146.166656
  0
LINE
  8
0
 10
27.900002
 20
144.966675
 11
28.500000
 21
144.966675
  0
LINE
  8
0
 10
24.000000
 20
141.666656
 11
25.000000
 21
141.666656
  0
LINE
  8
0
 10
24.000000
 20
147.666656
 11
25.000000
 21
147.666656
  0
LINE
  8
0
 10
29.000000
 20
153.166656
 11
29.000000
 21
147.666656
  0
LINE
  8
0
 10
25.000000
 20
153.166656
 11
25.000000
 21
147.666656
  0
LINE
  8
0
 10
25.000000
 20
141.666656
 11
25.000000
 21
136.166656
  0
LINE
  8
0
 10
29.000000
 20
141.666656
 11
29.000000
 21
136.166656
  0
LINE
  8
0
 10
29.000000
 20
147.666656
 11
30.000000
 21
147.666656
  0
LINE
  8
0
 10
29.000000
 20
141.666656
 11
30.000000
 21
141.666656
  0
LINE
  8
0
 10
25.000000
 20
137.166656
 11
29.000000
 21
137.166656
  0
LINE
  8
0
 10
25.500000
 20
152.166656
 11
28.500000
 21
152.166656
  0
LINE
  8
0
 10
28.500000
 20
152.166656
 11
28.500000
 21
151.666656
  0
LINE
  8
0
 10
25.500000
 20
152.166656
 11
25.500000
 21
151.666656
  0
LINE
  8
0
 10
25.499992
 20
144.366669
 11
25.499992
 21
144.966675
  0
LINE
  8
0
 10
28.500000
 20
144.366669
 11
28.500000
 21
144.966675
  0
LINE
  8
0
 10
26.699997
 20
143.166656
 11
26.699997
 21
143.766663
  0
LINE
  8
0
 10
27.299995
 20
143.166656
 11
27.299995
 21
143.766663
  0
LINE
  8
0
 10
26.699997
 20
143.166656
 11
27.300003
 21
143.166656
  0
LINE
  8
0
 10
26.699997
 20
146.166656
 11
27.300003
 21
146.166656
  0
LINE
  8
0
 10
45.000000
 20
137.166656
 11
57.500000
 21
137.166656
  0
LINE
  8
0
 10
45.000000
 20
148.666656
 11
64.500000
 21
148.666656
  0
LINE
  8
0
 10
45.000000
 20
151.666656
 11
64.500000
 21
151.666656
  0
LINE
  8
0
 10
43.750008
 20
150.166656
 11
65.500000
 21
150.166656
  0
LINE
  8
0
 10
37.500008
 20
140.666656
 11
37.500008
 21
138.166656
  0
LINE
  8
0
 10
17.250000
 20
151.166656
 11
17.250000
 21
148.666656
  0
LINE
  8
0
 10
36.500008
 20
151.166656
 11
36.500008
 21
148.666656
  0
LINE
  8
0
 10
56.750008
 20
141.166656
 11
56.750008
 21
138.166656
  0
LINE
  8
0
 10
45.000000
 20
151.666656
 11
56.500000
 21
151.666656
  0
LINE
  8
0
 10
28.500000
 20
151.666656
 11
29.000000
 21
151.666656
  0
LINE
  8
0
 10
43.500000
 20
137.666656
 11
44.000000
 21
137.666656
  0
LINE
  8
0
 10
25.000000
 20
151.666656
 11
25.500000
 21
151.666656
  0
LINE
  8
0
 10
37.500000
 20
151.666656
 11
39.000000
 21
151.666656
  0
LINE
  8
0
 10
40.000000
 20
137.666656
 11
40.500000
 21
137.666656
  0
LINE
  8
0
 10
57.000000
 20
137.666656
 11
57.026390
 21
137.666656
  0
LINE
  8
0
 10
30.000000
 20
148.666656
 11
39.000000
 21
148.666656
  0
LINE
  8
0
 10
30.000000
 20
140.666656
 11
39.000000
 21
140.666656
  0
LINE
  8
0
 10
30.000000
 20
137.666656
 11
35.500000
 21
137.666656
  0
LINE
  8
0
 10
45.000000
 20
140.666656
 11
56.500000
 21
140.666656
  0
LINE
  8
0
 10
45.000000
 20
148.666656
 11
56.500000
 21
148.666656
  0
LINE
  8
0
 10
35.500008
 20
140.666656
 11
35.500008
 21
137.166656
  0
LINE
  8
0
 10
37.500008
 20
152.166656
 11
37.500008
 21
148.666656
  0
ARC
  8
0
 10
1.421478
 20
146.041656
 40
3.971478
 50
159.743790
 51
200.256210
  0
ARC
  8
0
 10
-4.721474
 20
146.041656
 40
3.971478
 50
339.743774
 51
20.256201
  0
ARC
  8
0
 10
1.421478
 20
143.291656
 40
3.971477
 50
159.743790
 51
200.256195
  0
ARC
  8
0
 10
-4.721474
 20
143.291656
 40
3.971478
 50
339.743774
 51
20.256201
  0
ARC
  8
0
 10
3.221474
 20
143.291656
 40
3.971479
 50
159.743805
 51
200.256210
  0
ARC
  8
0
 10
-2.921478
 20
143.291656
 40
3.971480
 50
339.743805
 51
20.256216
  0
ARC
  8
0
 10
3.221474
 20
146.041656
 40
3.971479
 50
159.743805
 51
200.256210
  0
ARC
  8
0
 10
-2.921478
 20
146.041656
 40
3.971479
 50
339.743805
 51
20.256210
  0
ARC
  8
0
 10
-8.967392
 20
147.666656
 40
18.217396
 50
350.521484
 51
9.478467
  0
ARC
  8
0
 10
24.467392
 20
141.666656
 40
18.217396
 50
170.521439
 51
189.478424
  0
ARC
  8
0
 10
-8.967392
 20
141.666656
 40
18.217396
 50
350.521484
 51
9.478467
  0
ARC
  8
0
 10
24.467392
 20
147.666656
 40
18.217398
 50
170.521484
 51
189.478470
  0
ARC
  8
0
 10
64.812508
 20
149.416656
 40
0.812500
 50
112.619865
 51
247.380142
  0
ARC
  8
0
 10
64.187508
 20
149.416656
 40
0.812500
 50
292.619873
 51
67.380135
  0
CIRCLE
  8
0
 10
50.500008
 20
144.666656
 40
2.500000
  0
CIRCLE
  8
0
 10
50.500008
 20
144.666656
 40
2.100000
  0
CIRCLE
  8
0
 10
18.500000
 20
144.666656
 40
2.500000
  0
CIRCLE
  8
0
 10
18.500000
 20
144.666656
 40
2.100000
  0
CIRCLE
  8
0
 10
50.000008
 20
144.666656
 40
0.300000
  0
CIRCLE
  8
0
 10
18.500000
 20
144.666656
 40
0.300000
  0
ARC
  8
0
 10
64.687508
 20
139.916656
 40
0.812500
 50
292.619873
 51
67.380135
  0
ARC
  8
0
 10
64.687508
 20
138.416656
 40
0.812500
 50
292.619873
 51
67.380135
  0
ARC
  8
0
 10
65.312508
 20
138.416656
 40
0.812500
 50
112.619865
 51
247.380142
  0
CIRCLE
  8
0
 10
42.000008
 20
144.666656
 40
2.800000
  0
ARC
  8
0
 10
42.900002
 20
143.766663
 40
0.600006
 50
90.000000
 51
180.000000
  0
ARC
  8
0
 10
42.900002
 20
145.566681
 40
0.599998
 50
180.000000
 51
270.000000
  0
ARC
  8
0
 10
41.100014
 20
143.766663
 40
0.599998
 50
0.000000
 51
90.000000
  0
ARC
  8
0
 10
41.100014
 20
145.566681
 40
0.600006
 50
270.000000
 51
0.000000
  0
ARC
  8
0
 10
27.900002
 20
143.766663
 40
0.600006
 50
90.000000
 51
180.000000
  0
ARC
  8
0
 10
27.900002
 20
145.566681
 40
0.600000
 50
180.000000
 51
270.000000
  0
CIRCLE
  8
0
 10
27.000000
 20
144.666656
 40
2.800000
  0
ARC
  8
0
 10
26.099998
 20
143.766663
 40
0.600000
 50
0.000000
 51
90.000000
  0
ARC
  8
0
 10
26.099998
 20
145.566681
 40
0.600006
 50
270.000000
 51
0.000000
  0
ARC
  8
0
 10
64.187508
 20
150.916656
 40
0.812500
 50
292.619873
 51
67.380135
  0
POLYLINE
  8
0
 66
     1
  0
VERTEX
  8
0
 10
29.999989
 20
151.536835
  0
VERTEX
  8
0
 10
30.145533
 20
151.625305
  0
VERTEX
  8
0
 10
30.406250
 20
151.666656
  0
VERTEX
  8
0
 10
31.015791
 20
151.417343
  0
VERTEX
  8
0
 10
31.625000
 20
151.166656
  0
VERTEX
  8
0
 10
32.233768
 20
151.414108
  0
VERTEX
  8
0
 10
32.843758
 20
151.666656
  0
VERTEX
  8
0
 10
33.455414
 20
151.426163
  0
VERTEX
  8
0
 10
34.062508
 20
151.166656
  0
VERTEX
  8
0
 10
34.663372
 20
151.381165
  0
VERTEX
  8
0
 10
35.281258
 20
151.666656
  0
VERTEX
  8
0
 10
35.922390
 20
151.549088
  0
VERTEX
  8
0
 10
36.500008
 20
151.166656
  0
SEQEND
  0
POLYLINE
  8
0
 66
     1
  0
VERTEX
  8
0
 10
17.250000
 20
151.166656
  0
VERTEX
  8
0
 10
17.827635
 20
151.549057
  0
VERTEX
  8
0
 10
18.468750
 20
151.666656
  0
VERTEX
  8
0
 10
19.086557
 20
151.381378
  0
VERTEX
  8
0
 10
19.687500
 20
151.166656
  0
VERTEX
  8
0
 10
20.294889
 20
151.425354
  0
VERTEX
  8
0
 10
20.906250
 20
151.666656
  0
VERTEX
  8
0
 10
21.511765
 20
151.417206
  0
VERTEX
  8
0
 10
22.125000
 20
151.166656
  0
VERTEX
  8
0
 10
22.808470
 20
151.420166
  0
VERTEX
  8
0
 10
23.406250
 20
151.666656
  0
VERTEX
  8
0
 10
23.714508
 20
151.571625
  0
VERTEX
  8
0
 10
23.999628
 20
151.403244
  0
SEQEND
  0
POLYLINE
  8
0
 66
     1
  0
VERTEX
  8
0
 10
44.999817
 20
138.022583
  0
VERTEX
  8
0
 10
45.350365
 20
137.796539
  0
VERTEX
  8
0
 10
45.781258
 20
137.666656
  0
VERTEX
  8
0
 10
46.390957
 20
137.915756
  0
VERTEX
  8
0
 10
47.000008
 20
138.166656
  0
VERTEX
  8
0
 10
47.609291
 20
137.916916
  0
VERTEX
  8
0
 10
48.218758
 20
137.666656
  0
VERTEX
  8
0
 10
48.828167
 20
137.916550
  0
VERTEX
  8
0
 10
49.437508
 20
138.166656
  0
VERTEX
  8
0
 10
50.046833
 20
137.916855
  0
VERTEX
  8
0
 10
50.656258
 20
137.666656
  0
VERTEX
  8
0
 10
51.265797
 20
137.915970
  0
VERTEX
  8
0
 10
51.875008
 20
138.166656
  0
VERTEX
  8
0
 10
52.483772
 20
137.919205
  0
VERTEX
  8
0
 10
53.093758
 20
137.666656
  0
VERTEX
  8
0
 10
53.705414
 20
137.907150
  0
VERTEX
  8
0
 10
54.312508
 20
138.166656
  0
VERTEX
  8
0
 10
54.913372
 20
137.952148
  0
VERTEX
  8
0
 10
55.531258
 20
137.666656
  0
VERTEX
  8
0
 10
56.172390
 20
137.784225
  0
VERTEX
  8
0
 10
56.750008
 20
138.166656
  0
SEQEND
  0
POLYLINE
  8
0
 66
     1
  0
VERTEX
  8
0
 10
37.500008
 20
138.166656
  0
VERTEX
  8
0
 10
38.139175
 20
137.795074
  0
VERTEX
  8
0
 10
38.718758
 20
137.666656
  0
VERTEX
  8
0
 10
38.862732
 20
137.705566
  0
VERTEX
  8
0
 10
39.000542
 20
137.763611
  0
SEQEND
  0
POINT
  8
0
 10
243.709198
 20
54.666664
  0
POINT
  8
0
 10
197.209198
 20
54.666664
  0
LINE
  8
0
 10
243.709198
 20
64.166664
 11
243.709198
 21
48.666664
  0
LINE
  8
0
 10
197.209198
 20
64.166664
 11
197.209198
 21
48.666664
  0
LINE
  8
0
 10
189.209198
 20
59.166664
 11
189.209198
 21
50.166660
  0
LINE
  8
0
 10
197.209198
 20
64.166664
 11
243.709198
 21
64.166664
  0
LINE
  8
0
 10
197.209198
 20
48.666664
 11
243.709198
 21
48.666664
  0
LINE
  8
0
 10
189.709198
 20
49.666664
 11
190.959198
 21
49.666664
  0
LINE
  8
0
 10
189.709198
 20
59.666664
 11
190.959198
 21
59.666664
  0
LINE
  8
0
 10
195.709198
 20
59.666664
 11
195.709198
 21
49.666664
  0
LINE
  8
0
 10
189.709183
 20
49.666641
 11
189.209183
 21
50.166641
  0
LINE
  8
0
 10
189.709167
 20
59.666653
 11
189.209167
 21
59.166653
  0
LINE
  8
0
 10
180.709198
 20
53.166664
 11
182.159210
 21
53.166664
  0
LINE
  8
0
 10
180.709198
 20
56.166664
 11
182.159210
 21
56.166664
  0
LINE
  8
0
 10
180.709198
 20
56.166664
 11
180.709198
 21
53.166664
  0
LINE
  8
0
 10
180.709167
 20
53.166664
 11
180.209167
 21
53.666664
  0
LINE
  8
0
 10
180.709152
 20
56.166721
 11
180.209137
 21
55.666710
  0
LINE
  8
0
 10
187.209198
 20
56.166664
 11
187.209198
 21
53.166664
  0
LINE
  8
0
 10
180.209198
 20
55.666664
 11
180.209198
 21
53.666664
  0
LINE
  8
0
 10
178.709198
 20
54.666664
 11
245.209198
 21
54.666664
  0
LINE
  8
0
 10
185.759216
 20
57.416664
 11
185.759216
 21
51.916664
  0
LINE
  8
0
 10
182.159210
 20
57.416664
 11
182.159210
 21
51.916664
  0
LINE
  8
0
 10
182.404816
 20
57.842087
 11
183.713562
 21
57.842087
  0
LINE
  8
0
 10
182.404816
 20
56.254372
 11
183.713593
 21
56.254372
  0
LINE
  8
0
 10
182.159241
 20
57.416664
 11
182.404861
 21
57.842091
  0
LINE
  8
0
 10
183.959213
 20
57.416672
 11
183.713593
 21
57.842091
  0
LINE
  8
0
 10
182.404816
 20
53.078957
 11
183.713593
 21
53.078957
  0
LINE
  8
0
 10
182.404816
 20
51.491241
 11
183.713562
 21
51.491241
  0
LINE
  8
0
 10
182.159225
 20
51.916668
 11
182.404831
 21
51.491245
  0
LINE
  8
0
 10
183.959229
 20
51.916622
 11
183.713593
 21
51.491196
  0
LINE
  8
0
 10
183.959198
 20
51.916664
 11
183.959198
 21
57.416664
  0
LINE
  8
0
 10
185.759216
 20
57.416656
 11
185.513596
 21
57.842087
  0
LINE
  8
0
 10
184.204834
 20
56.254372
 11
185.513580
 21
56.254372
  0
LINE
  8
0
 10
184.204834
 20
57.842087
 11
185.513580
 21
57.842087
  0
LINE
  8
0
 10
183.959229
 20
57.416630
 11
184.204849
 21
57.842056
  0
LINE
  8
0
 10
185.759232
 20
51.916649
 11
185.513611
 21
51.491222
  0
LINE
  8
0
 10
184.204834
 20
53.078957
 11
185.513580
 21
53.078957
  0
LINE
  8
0
 10
184.204834
 20
51.491241
 11
185.513580
 21
51.491241
  0
LINE
  8
0
 10
183.959213
 20
51.916687
 11
184.204834
 21
51.491261
  0
LINE
  8
0
 10
185.759216
 20
53.166664
 11
189.209198
 21
53.166664
  0
LINE
  8
0
 10
185.759216
 20
56.166664
 11
189.209198
 21
56.166664
  0
LINE
  8
0
 10
180.459229
 20
53.416664
 11
182.159210
 21
53.416664
  0
LINE
  8
0
 10
180.459335
 20
55.916664
 11
182.159210
 21
55.916664
  0
LINE
  8
0
 10
185.757202
 20
55.916664
 11
187.209198
 21
55.916664
  0
LINE
  8
0
 10
185.759216
 20
53.416664
 11
187.209198
 21
53.416664
  0
LINE
  8
0
 10
187.209152
 20
55.916695
 11
187.642166
 21
56.166695
  0
LINE
  8
0
 10
187.209198
 20
53.416622
 11
187.642212
 21
53.166626
  0
LINE
  8
0
 10
189.709198
 20
59.666664
 11
189.709198
 21
49.666664
  0
LINE
  8
0
 10
193.959198
 20
59.666664
 11
197.209198
 21
59.666664
  0
LINE
  8
0
 10
193.959198
 20
49.666664
 11
197.209198
 21
49.666664
  0
LINE
  8
0
 10
197.209198
 20
62.666664
 11
243.709198
 21
62.666664
  0
LINE
  8
0
 10
197.209198
 20
58.166664
 11
243.709198
 21
58.166664
  0
LINE
  8
0
 10
189.209198
 20
50.166664
 11
190.959198
 21
50.166664
  0
LINE
  8
0
 10
189.209198
 20
59.166664
 11
190.959198
 21
59.166664
  0
LINE
  8
0
 10
193.959198
 20
59.166664
 11
195.709198
 21
59.166664
  0
LINE
  8
0
 10
193.959198
 20
50.166664
 11
195.709198
 21
50.166664
  0
LINE
  8
0
 10
195.709183
 20
50.166584
 11
196.575211
 21
49.666584
  0
LINE
  8
0
 10
195.709152
 20
59.166695
 11
196.575180
 21
59.666695
  0
LINE
  8
0
 10
193.959213
 20
48.666660
 11
193.710495
 21
47.738449
  0
LINE
  8
0
 10
190.959091
 20
48.666645
 11
191.207794
 21
47.738430
  0
LINE
  8
0
 10
191.207916
 20
47.738457
 11
193.659180
 21
47.738457
  0
LINE
  8
0
 10
193.959198
 20
60.666664
 11
193.959198
 21
48.666695
  0
LINE
  8
0
 10
190.959198
 20
60.666664
 11
190.959198
 21
48.666702
  0
LINE
  8
0
 10
191.207916
 20
61.594872
 11
193.659180
 21
61.594872
  0
LINE
  8
0
 10
191.207916
 20
51.202560
 11
193.710480
 21
51.202560
  0
LINE
  8
0
 10
193.959290
 20
60.666676
 11
193.710571
 21
61.594891
  0
LINE
  8
0
 10
190.959274
 20
60.666653
 11
191.207993
 21
61.594860
  0
LINE
  8
0
 10
191.207916
 20
58.130764
 11
193.710480
 21
58.130764
  0
LINE
  8
0
 10
238.709198
 20
60.575706
 11
238.709198
 21
49.022121
  0
CIRCLE
  8
0
 10
238.709198
 20
54.666664
 40
1.500000
  0
ARC
  8
0
 10
189.213623
 20
54.666656
 40
5.254407
 50
162.412155
 51
179.999924
  0
ARC
  8
0
 10
183.564911
 20
57.048229
 40
1.405714
 50
145.616013
 51
214.383987
  0
ARC
  8
0
 10
187.413605
 20
54.666656
 40
5.254407
 50
162.412155
 51
179.999924
  0
ARC
  8
0
 10
178.704803
 20
54.666656
 40
5.254410
 50
0.000042
 51
17.587797
  0
ARC
  8
0
 10
182.553467
 20
57.048229
 40
1.405714
 50
325.616028
 51
34.383984
  0
ARC
  8
0
 10
187.413605
 20
54.666672
 40
5.254410
 50
180.000000
 51
197.587753
  0
ARC
  8
0
 10
183.564911
 20
52.285099
 40
1.405716
 50
145.615891
 51
214.383987
  0
ARC
  8
0
 10
178.704803
 20
54.666672
 40
5.254407
 50
342.412170
 51
359.999908
  0
ARC
  8
0
 10
182.553467
 20
52.285099
 40
1.405714
 50
325.616028
 51
34.383984
  0
ARC
  8
0
 10
184.353485
 20
52.285099
 40
1.405714
 50
325.616028
 51
34.383984
  0
ARC
  8
0
 10
185.364929
 20
57.048229
 40
1.405714
 50
145.616013
 51
214.383987
  0
ARC
  8
0
 10
185.364929
 20
52.285099
 40
1.405714
 50
145.616013
 51
214.383987
  0
ARC
  8
0
 10
189.213623
 20
54.666672
 40
5.254410
 50
180.000046
 51
197.587845
  0
ARC
  8
0
 10
180.504791
 20
54.666672
 40
5.254406
 50
342.412201
 51
0.000000
  0
ARC
  8
0
 10
180.504791
 20
54.666656
 40
5.254410
 50
0.000042
 51
17.587797
  0
ARC
  8
0
 10
184.353485
 20
57.048229
 40
1.405714
 50
325.616028
 51
34.383984
  0
ARC
  8
0
 10
187.803802
 20
59.862816
 40
6.155407
 50
343.656952
 51
16.342976
  0
ARC
  8
0
 10
197.114594
 20
59.862816
 40
6.155407
 50
163.656952
 51
196.343002
  0
ARC
  8
0
 10
187.803802
 20
49.470512
 40
6.155405
 50
343.657013
 51
16.343044
  0
ARC
  8
0
 10
197.114594
 20
49.470512
 40
6.155408
 50
163.656921
 51
196.342972
  0
ARC
  8
0
 10
169.710785
 20
54.666660
 40
24.248425
 50
351.786682
 51
8.213260
  0
ARC
  8
0
 10
215.207611
 20
54.666660
 40
24.248423
 50
171.786697
 51
188.213272
  0
CIRCLE
  8
0
 10
238.709198
 20
54.666664
 40
3.500000
  0
POINT
  8
0
 10
144.009201
 20
54.666664
  0
POINT
  8
0
 10
136.209198
 20
54.666664
  0
LINE
  8
0
 10
136.209198
 20
65.666664
 11
136.209198
 21
46.238464
  0
LINE
  8
0
 10
129.209198
 20
58.166664
 11
129.209198
 21
50.666664
  0
LINE
  8
0
 10
143.209198
 20
58.166664
 11
143.209198
 21
50.666664
  0
LINE
  8
0
 10
140.209198
 20
64.166664
 11
140.209198
 21
62.666664
  0
LINE
  8
0
 10
132.209198
 20
64.166664
 11
132.209198
 21
62.666664
  0
LINE
  8
0
 10
132.709198
 20
62.666664
 11
132.709198
 21
59.574142
  0
LINE
  8
0
 10
139.709198
 20
62.666664
 11
139.709198
 21
59.574150
  0
LINE
  8
0
 10
132.209198
 20
64.166664
 11
140.209198
 21
64.166664
  0
LINE
  8
0
 10
132.209198
 20
62.666664
 11
132.709198
 21
62.666664
  0
LINE
  8
0
 10
128.409195
 20
58.166664
 11
130.271362
 21
58.166664
  0
LINE
  8
0
 10
131.209198
 20
48.666664
 11
134.601501
 21
48.666664
  0
LINE
  8
0
 10
139.709198
 20
62.666664
 11
140.209198
 21
62.666664
  0
LINE
  8
0
 10
142.147034
 20
58.166664
 11
144.009201
 21
58.166664
  0
LINE
  8
0
 10
133.459198
 20
56.254372
 11
133.458694
 21
56.253502
  0
LINE
  8
0
 10
133.459213
 20
53.078960
 11
133.458710
 21
53.079834
  0
LINE
  8
0
 10
136.209167
 20
57.842072
 11
133.459167
 21
56.254353
  0
LINE
  8
0
 10
133.459198
 20
56.254372
 11
133.459198
 21
53.078957
  0
LINE
  8
0
 10
133.459198
 20
53.078991
 11
136.209198
 21
51.491276
  0
LINE
  8
0
 10
136.209198
 20
51.491257
 11
138.959198
 21
53.078972
  0
LINE
  8
0
 10
138.959198
 20
53.078957
 11
138.959198
 21
56.254372
  0
LINE
  8
0
 10
138.959198
 20
56.254356
 11
136.209198
 21
57.842072
  0
LINE
  8
0
 10
142.209198
 20
58.130764
 11
142.209198
 21
51.202560
  0
LINE
  8
0
 10
130.209198
 20
58.130768
 11
130.209198
 21
51.202560
  0
LINE
  8
0
 10
130.209167
 20
51.202553
 11
136.209167
 21
47.738453
  0
LINE
  8
0
 10
130.209167
 20
58.130783
 11
136.209167
 21
61.594887
  0
LINE
  8
0
 10
142.209229
 20
51.202538
 11
136.209213
 21
47.738434
  0
LINE
  8
0
 10
144.709198
 20
54.666664
 11
127.709198
 21
54.666664
  0
LINE
  8
0
 10
142.209198
 20
58.130768
 11
136.209198
 21
61.594875
  0
LINE
  8
0
 10
137.816895
 20
48.666664
 11
141.209198
 21
48.666664
  0
LINE
  8
0
 10
128.409195
 20
58.166664
 11
128.409195
 21
51.166664
  0
LINE
  8
0
 10
144.009201
 20
58.166664
 11
144.009201
 21
51.166664
  0
LINE
  8
0
 10
144.009201
 20
51.166664
 11
143.209198
 21
51.166664
  0
LINE
  8
0
 10
129.209198
 20
51.166664
 11
128.409195
 21
51.166664
  0
ARC
  8
0
 10
141.209198
 20
50.666664
 40
2.000000
 50
270.000000
 51
0.000000
  0
CIRCLE
  8
0
 10
136.209198
 20
54.666664
 40
5.000000
  0
CIRCLE
  8
0
 10
136.209198
 20
54.666664
 40
2.750011
  0
CIRCLE
  8
0
 10
136.209198
 20
54.666664
 40
1.500000
  0
CIRCLE
  8
0
 10
136.209198
 20
54.666664
 40
6.000000
  0
CIRCLE
  8
0
 10
136.209198
 20
54.666664
 40
1.250000
  0
CIRCLE
  8
0
 10
136.209198
 20
54.666664
 40
4.500000
  0
ARC
  8
0
 10
131.209198
 20
50.666664
 40
2.000000
 50
180.000000
 51
270.000000
  0
POINT
  8
0
 10
243.709198
 20
144.666656
  0
POINT
  8
0
 10
197.209198
 20
144.666656
  0
LINE
  8
0
 10
182.159210
 20
141.916656
 11
185.759216
 21
141.916656
  0
LINE
  8
0
 10
182.159210
 20
147.416656
 11
185.759216
 21
147.416656
  0
LINE
  8
0
 10
182.404816
 20
144.666656
 11
183.713562
 21
144.666656
  0
LINE
  8
0
 10
185.513580
 20
144.666656
 11
184.204834
 21
144.666656
  0
LINE
  8
0
 10
197.209198
 20
151.666656
 11
197.209198
 21
137.666656
  0
LINE
  8
0
 10
190.959198
 20
138.666656
 11
193.959198
 21
138.666656
  0
LINE
  8
0
 10
193.959198
 20
150.666656
 11
193.959198
 21
138.666656
  0
LINE
  8
0
 10
190.959198
 20
150.666656
 11
190.959198
 21
138.666656
  0
LINE
  8
0
 10
190.959198
 20
150.666656
 11
193.959198
 21
150.666656
  0
LINE
  8
0
 10
191.207916
 20
144.666656
 11
193.710480
 21
144.666656
  0
LINE
  8
0
 10
238.709198
 20
154.379974
 11
238.709198
 21
135.203613
  0
LINE
  8
0
 10
235.209198
 20
152.466675
 11
242.209198
 21
152.466675
  0
LINE
  8
0
 10
235.209198
 20
136.866669
 11
242.209198
 21
136.866669
  0
LINE
  8
0
 10
242.209198
 20
152.466675
 11
242.209198
 21
151.666656
  0
LINE
  8
0
 10
235.209198
 20
152.466675
 11
235.209198
 21
151.666656
  0
LINE
  8
0
 10
235.209198
 20
137.666656
 11
235.209198
 21
136.866669
  0
LINE
  8
0
 10
242.209198
 20
137.666656
 11
242.209198
 21
136.866669
  0
LINE
  8
0
 10
195.709198
 20
149.166641
 11
196.575226
 21
149.666641
  0
LINE
  8
0
 10
243.709198
 20
151.666656
 11
243.709198
 21
137.666656
  0
LINE
  8
0
 10
197.209198
 20
151.666656
 11
243.709198
 21
151.666656
  0
LINE
  8
0
 10
197.209198
 20
137.666656
 11
243.709198
 21
137.666656
  0
LINE
  8
0
 10
197.209198
 20
148.666656
 11
243.709198
 21
148.666656
  0
LINE
  8
0
 10
197.209198
 20
140.666656
 11
243.709198
 21
140.666656
  0
LINE
  8
0
 10
230.209198
 20
148.416656
 11
230.209198
 21
140.916656
  0
LINE
  8
0
 10
203.209198
 20
148.416656
 11
203.209198
 21
140.916656
  0
LINE
  8
0
 10
229.709198
 20
145.416656
 11
229.709198
 21
143.916656
  0
LINE
  8
0
 10
189.209198
 20
149.166656
 11
189.209198
 21
140.166656
  0
LINE
  8
0
 10
189.709198
 20
139.666656
 11
190.959198
 21
139.666656
  0
LINE
  8
0
 10
189.709198
 20
149.666656
 11
190.959198
 21
149.666656
  0
LINE
  8
0
 10
195.709198
 20
149.666656
 11
195.709198
 21
139.666656
  0
LINE
  8
0
 10
189.709167
 20
139.666626
 11
189.209167
 21
140.166626
  0
LINE
  8
0
 10
189.709152
 20
149.666656
 11
189.209167
 21
149.166672
  0
LINE
  8
0
 10
180.709198
 20
143.166656
 11
182.159210
 21
143.166656
  0
LINE
  8
0
 10
180.709198
 20
146.166656
 11
182.159210
 21
146.166656
  0
LINE
  8
0
 10
180.709198
 20
146.166656
 11
180.709198
 21
143.166656
  0
LINE
  8
0
 10
180.709167
 20
143.166656
 11
180.209167
 21
143.666656
  0
LINE
  8
0
 10
180.709244
 20
146.166641
 11
180.209229
 21
145.666626
  0
LINE
  8
0
 10
187.209198
 20
146.166656
 11
187.209198
 21
143.166656
  0
LINE
  8
0
 10
180.209198
 20
145.666656
 11
180.209198
 21
143.666656
  0
LINE
  8
0
 10
178.709198
 20
144.666656
 11
245.209198
 21
144.666656
  0
LINE
  8
0
 10
185.759216
 20
147.416656
 11
185.759216
 21
141.916656
  0
LINE
  8
0
 10
182.159210
 20
147.416656
 11
182.159210
 21
141.916656
  0
LINE
  8
0
 10
183.959198
 20
141.916656
 11
183.959198
 21
147.416656
  0
LINE
  8
0
 10
185.759216
 20
143.166656
 11
189.209198
 21
143.166656
  0
LINE
  8
0
 10
185.759216
 20
146.166656
 11
189.209198
 21
146.166656
  0
LINE
  8
0
 10
180.459229
 20
143.416656
 11
182.159210
 21
143.416656
  0
LINE
  8
0
 10
180.459335
 20
145.916656
 11
182.159210
 21
145.916656
  0
LINE
  8
0
 10
185.757202
 20
145.916656
 11
187.209198
 21
145.916656
  0
LINE
  8
0
 10
185.759216
 20
143.416656
 11
187.209198
 21
143.416656
  0
LINE
  8
0
 10
187.209229
 20
145.916656
 11
187.642242
 21
146.166656
  0
LINE
  8
0
 10
187.209122
 20
143.416534
 11
187.642136
 21
143.166534
  0
LINE
  8
0
 10
189.709198
 20
149.666656
 11
189.709198
 21
139.666656
  0
LINE
  8
0
 10
193.959198
 20
149.666656
 11
197.209198
 21
149.666656
  0
LINE
  8
0
 10
193.959198
 20
139.666656
 11
197.209198
 21
139.666656
  0
LINE
  8
0
 10
189.209198
 20
140.166656
 11
190.959198
 21
140.166656
  0
LINE
  8
0
 10
189.209198
 20
149.166656
 11
190.959198
 21
149.166656
  0
LINE
  8
0
 10
193.959198
 20
149.166656
 11
195.709198
 21
149.166656
  0
LINE
  8
0
 10
193.959198
 20
140.166656
 11
195.709198
 21
140.166656
  0
LINE
  8
0
 10
195.709122
 20
140.166473
 11
196.575150
 21
139.666473
  0
CIRCLE
  8
0
 10
230.209198
 20
144.666656
 40
2.500000
  0
CIRCLE
  8
0
 10
230.209198
 20
144.666656
 40
2.100000
  0
CIRCLE
  8
0
 10
203.209198
 20
144.666656
 40
2.500000
  0
CIRCLE
  8
0
 10
203.209198
 20
144.666656
 40
2.100000
  0
CIRCLE
  8
0
 10
229.709198
 20
144.666656
 40
0.300000
  0
CIRCLE
  8
0
 10
203.209198
 20
144.666656
 40
0.300000
  0
ARC
  8
0
 10
186.130676
 20
146.041656
 40
3.971481
 50
159.743805
 51
200.256195
  0
ARC
  8
0
 10
179.987732
 20
146.041656
 40
3.971481
 50
339.743805
 51
20.256191
  0
ARC
  8
0
 10
186.130676
 20
143.291656
 40
3.971481
 50
159.743805
 51
200.256195
  0
ARC
  8
0
 10
179.987732
 20
143.291656
 40
3.971481
 50
339.743805
 51
20.256191
  0
ARC
  8
0
 10
187.930664
 20
143.291656
 40
3.971481
 50
159.743805
 51
200.256195
  0
ARC
  8
0
 10
181.787720
 20
143.291656
 40
3.971481
 50
339.743805
 51
20.256191
  0
ARC
  8
0
 10
187.930664
 20
146.041656
 40
3.971481
 50
159.743805
 51
200.256195
  0
ARC
  8
0
 10
181.787720
 20
146.041656
 40
3.971481
 50
339.743805
 51
20.256191
  0
ARC
  8
0
 10
175.741806
 20
147.666656
 40
18.217403
 50
350.521484
 51
9.478464
  0
ARC
  8
0
 10
209.176575
 20
141.666656
 40
18.217390
 50
170.521439
 51
189.478424
  0
ARC
  8
0
 10
175.741806
 20
141.666656
 40
18.217403
 50
350.521484
 51
9.478464
  0
ARC
  8
0
 10
209.176575
 20
147.666656
 40
18.217403
 50
170.521484
 51
189.478470
  0
POINT
  8
0
 10
-174.942123
 20
-138.905029
  0
POINT
  8
0
 10
-130.942123
 20
-138.905029
  0
LINE
  8
0
 10
-174.942123
 20
-130.905029
 11
-174.942123
 21
-146.305038
  0
LINE
  8
0
 10
-176.542114
 20
-130.905029
 11
-176.542114
 21
-146.305038
  0
LINE
  8
0
 10
-176.542114
 20
-130.905029
 11
-174.942123
 21
-130.905029
  0
LINE
  8
0
  6
DASHED
 10
-171.242126
 20
-148.305038
 11
-171.242126
 21
-149.905029
  0
LINE
  8
0
 10
-169.542114
 20
-146.248810
 11
-169.542114
 21
-151.761383
  0
LINE
  8
0
  6
PHANTOM
 10
-167.842133
 20
-148.305038
 11
-167.842133
 21
-149.905029
  0
LINE
  8
0
 10
-165.542114
 20
-148.305038
 11
-165.542114
 21
-149.905029
  0
LINE
  8
0
 10
-172.942123
 20
-149.905029
 11
-165.542114
 21
-149.905029
  0
LINE
  8
0
 10
-172.942123
 20
-148.305038
 11
-165.542114
 21
-148.305038
  0
ARC
  8
0
 10
-172.942123
 20
-146.305038
 40
2.000000
 50
180.000000
 51
270.000000
  0
ARC
  8
0
 10
-172.942123
 20
-146.305038
 40
3.600006
 50
180.000000
 51
270.000000
  0
POINT
  8
0
 10
-234.460831
 20
-138.905029
  0
POINT
  8
0
 10
-245.942123
 20
-138.905029
  0
LINE
  8
0
 10
-245.942123
 20
-124.128242
 11
-245.942123
 21
-153.238373
  0
LINE
  8
0
 10
-230.706131
 20
-138.905029
 11
-260.971619
 21
-138.905029
  0
LINE
  8
0
 10
-231.942123
 20
-149.905029
 11
-259.942139
 21
-149.905029
  0
LINE
  8
0
 10
-238.906418
 20
-130.905029
 11
-252.977814
 21
-130.905029
  0
LINE
  8
0
 10
-231.942123
 20
-148.305054
 11
-231.942123
 21
-149.905029
  0
LINE
  8
0
 10
-259.942139
 20
-148.305038
 11
-259.942139
 21
-149.905029
  0
LINE
  8
0
  6
DASHED
 10
-231.942123
 20
-148.305038
 11
-259.942139
 21
-148.305038
  0
LINE
  8
0
 10
-259.942108
 20
-148.305038
 11
-255.875595
 21
-133.128571
  0
LINE
  8
0
 10
-236.008621
 20
-133.128571
 11
-231.942108
 21
-148.305038
  0
LINE
  8
0
 10
-255.942139
 20
-145.353333
 11
-255.942139
 21
-153.238373
  0
LINE
  8
0
 10
-235.942123
 20
-145.386658
 11
-235.942123
 21
-153.238373
  0
LINE
  8
0
  6
DASHED
 10
-254.242126
 20
-148.305038
 11
-254.242126
 21
-149.905029
  0
LINE
  8
0
  6
DASHED
 10
-257.642120
 20
-148.305038
 11
-257.642120
 21
-149.905029
  0
LINE
  8
0
  6
DASHED
 10
-237.642120
 20
-148.305038
 11
-237.642120
 21
-149.905029
  0
LINE
  8
0
  6
DASHED
 10
-234.242126
 20
-148.305038
 11
-234.242126
 21
-149.905029
  0
ARC
  8
0
 10
-238.906418
 20
-133.905029
 40
3.000004
 50
15.000010
 51
90.000000
  0
ARC
  8
0
 10
-252.977814
 20
-133.905029
 40
3.000000
 50
90.000000
 51
164.999985
  0
POINT
  8
0
 10
-174.942123
 20
-48.905037
  0
POINT
  8
0
 10
-130.942123
 20
-48.905037
  0
LINE
  8
0
 10
-176.542114
 20
-34.905037
 11
-168.542114
 21
-34.905037
  0
LINE
  8
0
 10
-169.542114
 20
-55.777889
 11
-169.542114
 21
-61.985252
  0
LINE
  8
0
 10
-172.595306
 20
-58.905037
 11
-166.333984
 21
-58.905037
  0
LINE
  8
0
 10
-172.649292
 20
-38.905037
 11
-166.549881
 21
-38.905037
  0
LINE
  8
0
 10
-165.542114
 20
-55.905037
 11
-165.542114
 21
-59.905037
  0
LINE
  8
0
 10
-176.542114
 20
-34.905037
 11
-176.542114
 21
-62.905037
  0
LINE
  8
0
 10
-174.942123
 20
-34.905037
 11
-174.942123
 21
-62.905037
  0
LINE
  8
0
 10
-165.542114
 20
-37.905037
 11
-165.542114
 21
-41.905037
  0
LINE
  8
0
 10
-169.542114
 20
-36.022285
 11
-169.542114
 21
-42.013733
  0
LINE
  8
0
 10
-176.542114
 20
-62.905037
 11
-168.542114
 21
-62.905037
  0
ARC
  8
0
 10
-168.542114
 20
-59.905037
 40
3.000000
 50
270.000000
 51
0.000000
  0
ARC
  8
0
 10
-168.542114
 20
-37.905037
 40
3.000000
 50
0.000000
 51
90.000000
  0
CIRCLE
  8
0
 10
-169.542114
 20
-38.905037
 40
1.700000
  0
CIRCLE
  8
0
 10
-169.542114
 20
-58.905037
 40
1.700000
  0
POINT
  8
0
 10
10.000000
 20
-138.905029
  0
POINT
  8
0
 10
54.000000
 20
-138.905029
  0
LINE
  8
0
 10
8.400002
 20
-146.905029
 11
10.000000
 21
-146.905029
  0
LINE
  8
0
 10
8.400002
 20
-130.905029
 11
10.000000
 21
-130.905029
  0
LINE
  8
0
 10
10.000000
 20
-130.905029
 11
10.000000
 21
-146.905029
  0
LINE
  8
0
 10
8.400002
 20
-130.905029
 11
8.400002
 21
-146.905029
  0
POINT
  8
0
 10
-50.076645
 20
-138.905029
  0
POINT
  8
0
 10
-34.076645
 20
-138.905029
  0
LINE
  8
0
 10
-34.076645
 20
-133.905029
 11
-34.076645
 21
-143.905029
  0
LINE
  8
0
 10
-66.076645
 20
-133.905029
 11
-66.076645
 21
-143.905029
  0
LINE
  8
0
 10
-63.076645
 20
-146.905029
 11
-37.076653
 21
-146.905029
  0
LINE
  8
0
 10
-63.076645
 20
-130.905029
 11
-37.076653
 21
-130.905029
  0
LINE
  8
0
 10
-38.076645
 20
-135.766388
 11
-38.076645
 21
-142.256073
  0
LINE
  8
0
 10
-62.076645
 20
-134.728043
 11
-62.076645
 21
-142.645447
  0
LINE
  8
0
 10
-69.334702
 20
-138.905029
 11
-32.092850
 21
-138.905029
  0
CIRCLE
  8
0
 10
-38.076645
 20
-138.905029
 40
1.700000
  0
ARC
  8
0
 10
-63.076645
 20
-133.905029
 40
3.000000
 50
90.000000
 51
180.000000
  0
ARC
  8
0
 10
-63.076645
 20
-143.905029
 40
3.000000
 50
180.000000
 51
270.000000
  0
ARC
  8
0
 10
-37.076645
 20
-143.905029
 40
3.000000
 50
270.000000
 51
0.000000
  0
ARC
  8
0
 10
-37.076645
 20
-133.905029
 40
3.000000
 50
0.000000
 51
90.000000
  0
CIRCLE
  8
0
 10
-62.076645
 20
-138.905029
 40
1.700000
  0
POINT
  8
0
 10
54.000000
 20
-48.905037
  0
POINT
  8
0
 10
10.000000
 20
-48.905037
  0
LINE
  8
0
 10
6.240417
 20
-36.905037
 11
12.470505
 21
-36.905037
  0
LINE
  8
0
 10
10.000000
 20
-32.905037
 11
10.000000
 21
-64.905037
  0
LINE
  8
0
 10
8.400002
 20
-32.905037
 11
8.400002
 21
-64.905037
  0
LINE
  8
0
 10
8.400002
 20
-64.905037
 11
10.000000
 21
-64.905037
  0
LINE
  8
0
 10
8.400002
 20
-32.905037
 11
10.000000
 21
-32.905037
  0
LINE
  8
0
 10
6.045723
 20
-60.905037
 11
12.275818
 21
-60.905037
  0
POINT
  8
0
 10
234.666687
 20
-132.333344
  0
POINT
  8
0
 10
242.425507
 20
-132.333344
  0
LINE
  8
0
  6
DASHED
 10
241.966675
 20
-146.733337
 11
241.966675
 21
-148.333344
  0
LINE
  8
0
  6
DASHED
 10
245.366669
 20
-146.733337
 11
245.366669
 21
-148.333344
  0
LINE
  8
0
 10
241.688065
 20
-130.307297
 11
247.666656
 21
-146.733368
  0
LINE
  8
0
 10
230.464355
 20
-128.333344
 11
238.868988
 21
-128.333344
  0
LINE
  8
0
  6
DASHED
 10
223.966675
 20
-146.733337
 11
223.966675
 21
-148.333344
  0
LINE
  8
0
  6
DASHED
 10
227.366669
 20
-146.733337
 11
227.366669
 21
-148.333344
  0
LINE
  8
0
 10
221.666687
 20
-148.333344
 11
247.666687
 21
-148.333344
  0
LINE
  8
0
 10
221.666687
 20
-146.733337
 11
221.666687
 21
-148.333344
  0
LINE
  8
0
 10
247.666687
 20
-146.733353
 11
247.666687
 21
-148.333344
  0
LINE
  8
0
 10
225.666687
 20
-144.561462
 11
225.666687
 21
-150.531952
  0
LINE
  8
0
 10
243.666687
 20
-144.561462
 11
243.666687
 21
-150.358902
  0
LINE
  8
0
  6
DASHED
 10
221.666687
 20
-146.733337
 11
247.666687
 21
-146.733337
  0
LINE
  8
0
 10
221.666718
 20
-146.733353
 11
227.645309
 21
-130.307297
  0
LINE
  8
0
 10
233.100815
 20
-134.679871
 11
233.177155
 21
-134.394958
  0
LINE
  8
0
 10
233.870987
 20
-135.158081
 11
233.936356
 21
-134.787354
  0
LINE
  8
0
 10
233.998840
 20
-134.433014
 11
234.056473
 21
-134.106186
  0
LINE
  8
0
 10
235.398087
 20
-134.787170
 11
235.463440
 21
-135.157867
  0
LINE
  8
0
 10
236.157013
 20
-134.394699
 11
236.233368
 21
-134.679642
  0
LINE
  8
0
 10
235.277969
 20
-134.105972
 11
235.335602
 21
-134.432816
  0
ARC
  8
0
 10
236.051422
 20
-134.728378
 40
0.187498
 50
298.488037
 51
14.998698
  0
ARC
  8
0
 10
230.464355
 20
-131.333344
 40
3.000000
 50
90.000000
 51
159.999969
  0
ARC
  8
0
 10
238.868988
 20
-131.333344
 40
2.999999
 50
20.000036
 51
90.000000
  0
ARC
  8
0
 10
234.666687
 20
-132.145828
 40
2.500004
 50
309.563843
 51
230.436935
  0
CIRCLE
  8
0
 10
234.666687
 20
-132.333344
 40
1.875000
  0
CIRCLE
  8
0
 10
234.666687
 20
-132.333344
 40
1.500000
  0
ARC
  8
0
 10
234.683014
 20
-132.146545
 40
3.125006
 50
241.512833
 51
254.908783
  0
ARC
  8
0
 10
232.875305
 20
-134.314056
 40
0.312499
 50
344.998840
 51
50.436581
  0
ARC
  8
0
 10
233.281921
 20
-134.728394
 40
0.187494
 50
165.001297
 51
241.511978
  0
ARC
  8
0
 10
233.914978
 20
-134.600891
 40
0.187502
 50
63.635128
 51
276.363892
  0
ARC
  8
0
 10
236.458069
 20
-134.314041
 40
0.312491
 50
129.563416
 51
195.001160
  0
ARC
  8
0
 10
235.418396
 20
-134.600891
 40
0.187494
 50
263.640747
 51
116.354446
  0
ARC
  8
0
 10
234.650330
 20
-132.146545
 40
3.125005
 50
285.092621
 51
298.487793
  0
POINT
  8
0
 10
147.516663
 20
-132.333344
  0
POINT
  8
0
 10
136.166672
 20
-132.333344
  0
LINE
  8
0
 10
136.166672
 20
-121.333336
 11
136.166672
 21
-151.794708
  0
LINE
  8
0
 10
149.384888
 20
-132.333344
 11
123.523193
 21
-132.333344
  0
LINE
  8
0
 10
145.666672
 20
-128.333344
 11
145.666672
 21
-145.233337
  0
LINE
  8
0
 10
126.666672
 20
-128.333344
 11
126.666672
 21
-145.233337
  0
LINE
  8
0
 10
142.566681
 20
-148.333344
 11
129.766663
 21
-148.333344
  0
LINE
  8
0
 10
142.566681
 20
-146.733337
 11
129.766663
 21
-146.733337
  0
LINE
  8
0
 10
128.266663
 20
-128.333344
 11
128.266663
 21
-145.233337
  0
LINE
  8
0
 10
144.066681
 20
-128.333344
 11
144.066681
 21
-145.233337
  0
LINE
  8
0
 10
147.516663
 20
-133.833344
 11
146.696671
 21
-133.833344
  0
LINE
  8
0
 10
147.516663
 20
-130.833344
 11
146.696671
 21
-130.833344
  0
LINE
  8
0
 10
147.516663
 20
-130.833344
 11
147.516663
 21
-133.833344
  0
LINE
  8
0
 10
124.816673
 20
-130.833344
 11
124.816673
 21
-133.833344
  0
LINE
  8
0
 10
146.016663
 20
-129.833344
 11
146.016663
 21
-134.833344
  0
LINE
  8
0
 10
126.316673
 20
-129.833344
 11
126.316673
 21
-134.833344
  0
LINE
  8
0
 10
125.636673
 20
-129.833344
 11
125.636673
 21
-134.833344
  0
LINE
  8
0
 10
146.696671
 20
-129.833344
 11
146.696671
 21
-134.833344
  0
LINE
  8
0
 10
146.696671
 20
-129.833344
 11
146.016663
 21
-129.833344
  0
LINE
  8
0
 10
146.696671
 20
-134.833344
 11
146.016663
 21
-134.833344
  0
LINE
  8
0
 10
126.316673
 20
-129.833344
 11
125.636673
 21
-129.833344
  0
LINE
  8
0
 10
128.366669
 20
-130.833344
 11
128.266663
 21
-130.833344
  0
LINE
  8
0
 10
128.366669
 20
-133.833344
 11
128.266663
 21
-133.833344
  0
LINE
  8
0
 10
126.316673
 20
-134.833344
 11
125.636673
 21
-134.833344
  0
LINE
  8
0
 10
126.666672
 20
-133.833344
 11
126.316673
 21
-133.833344
  0
LINE
  8
0
 10
125.636673
 20
-133.833344
 11
124.816673
 21
-133.833344
  0
LINE
  8
0
 10
125.636673
 20
-130.833344
 11
124.816673
 21
-130.833344
  0
LINE
  8
0
 10
126.666672
 20
-130.833344
 11
126.316673
 21
-130.833344
  0
LINE
  8
0
 10
144.066681
 20
-130.833344
 11
143.966675
 21
-130.833344
  0
LINE
  8
0
 10
146.016663
 20
-130.833344
 11
145.666672
 21
-130.833344
  0
LINE
  8
0
 10
146.016663
 20
-133.833344
 11
145.666672
 21
-133.833344
  0
LINE
  8
0
 10
144.066681
 20
-133.833344
 11
143.966675
 21
-133.833344
  0
LINE
  8
0
 10
145.666672
 20
-128.333344
 11
144.066681
 21
-128.333344
  0
LINE
  8
0
 10
128.266663
 20
-128.333344
 11
126.666672
 21
-128.333344
  0
LINE
  8
0
  6
DASHED
 10
137.866669
 20
-146.733337
 11
137.866669
 21
-148.333344
  0
LINE
  8
0
  6
DASHED
 10
134.466675
 20
-146.733337
 11
134.466675
 21
-148.333344
  0
ARC
  8
0
 10
142.566681
 20
-145.233337
 40
3.100006
 50
270.000000
 51
0.000000
  0
ARC
  8
0
 10
129.766663
 20
-145.233337
 40
1.500000
 50
180.000000
 51
270.000000
  0
ARC
  8
0
 10
142.566681
 20
-145.233337
 40
1.500000
 50
270.000000
 51
0.000000
  0
ARC
  8
0
 10
129.766663
 20
-145.233337
 40
3.099998
 50
180.000000
 51
270.000000
  0
POINT
  8
0
 10
258.666687
 20
-48.333336
  0
POINT
  8
0
 10
237.666687
 20
-48.333336
  0
LINE
  8
0
 10
167.617279
 20
-48.333336
 11
261.458527
 21
-48.333336
  0
LINE
  8
0
 10
237.666687
 20
-31.059654
 11
237.666687
 21
-65.501907
  0
LINE
  8
0
 10
258.666687
 20
-34.833336
 11
258.666687
 21
-61.833336
  0
LINE
  8
0
 10
216.666687
 20
-34.833336
 11
216.666687
 21
-38.333336
  0
LINE
  8
0
 10
216.666687
 20
-61.833336
 11
258.666687
 21
-61.833336
  0
LINE
  8
0
 10
216.666687
 20
-34.833336
 11
258.666687
 21
-34.833336
  0
LINE
  8
0
 10
216.666687
 20
-37.133339
 11
258.666687
 21
-37.133339
  0
LINE
  8
0
 10
216.666687
 20
-59.533337
 11
258.666687
 21
-59.533337
  0
LINE
  8
0
 10
216.666687
 20
-58.333336
 11
216.666687
 21
-61.833336
  0
LINE
  8
0
 10
252.166687
 20
-43.608604
 11
252.166687
 21
-52.894268
  0
LINE
  8
0
 10
240.666687
 20
-32.783333
 11
240.666687
 21
-33.783333
  0
LINE
  8
0
 10
234.666687
 20
-32.783333
 11
234.666687
 21
-33.783333
  0
LINE
  8
0
 10
234.666687
 20
-32.783333
 11
240.666687
 21
-32.783333
  0
LINE
  8
0
 10
234.666687
 20
-63.883335
 11
240.666687
 21
-63.883335
  0
LINE
  8
0
 10
233.666687
 20
-62.083336
 11
241.666687
 21
-62.083336
  0
LINE
  8
0
 10
233.666687
 20
-34.583336
 11
241.666687
 21
-34.583336
  0
LINE
  8
0
 10
233.666687
 20
-62.883335
 11
241.666687
 21
-62.883335
  0
LINE
  8
0
 10
233.666687
 20
-33.783333
 11
241.666687
 21
-33.783333
  0
LINE
  8
0
 10
233.666687
 20
-33.783333
 11
233.666687
 21
-34.583336
  0
LINE
  8
0
 10
241.666687
 20
-33.783333
 11
241.666687
 21
-34.583336
  0
LINE
  8
0
 10
233.666687
 20
-62.083336
 11
233.666687
 21
-62.883335
  0
LINE
  8
0
 10
234.666687
 20
-59.333336
 11
234.666687
 21
-59.533337
  0
LINE
  8
0
 10
240.666687
 20
-59.333336
 11
240.666687
 21
-59.533337
  0
LINE
  8
0
 10
241.666687
 20
-62.083336
 11
241.666687
 21
-62.883335
  0
LINE
  8
0
 10
234.666687
 20
-61.833336
 11
234.666687
 21
-62.083336
  0
LINE
  8
0
 10
234.666687
 20
-62.883335
 11
234.666687
 21
-63.883335
  0
LINE
  8
0
 10
240.666687
 20
-61.833336
 11
240.666687
 21
-62.083336
  0
LINE
  8
0
 10
240.666687
 20
-62.883335
 11
240.666687
 21
-63.883335
  0
LINE
  8
0
 10
240.666687
 20
-37.133339
 11
240.666687
 21
-37.333336
  0
LINE
  8
0
 10
240.666687
 20
-34.583336
 11
240.666687
 21
-34.833336
  0
LINE
  8
0
 10
234.666687
 20
-34.583336
 11
234.666687
 21
-34.833336
  0
LINE
  8
0
 10
234.666687
 20
-37.133339
 11
234.666687
 21
-37.333336
  0
CIRCLE
  8
0
 10
252.166687
 20
-48.333336
 40
2.750000
  0
ENDSEC
  0
EOF
