  0
SECTION
  2
HEADER
  9
$ACADVER
  1
AC1012
  9
$DWGCODEPAGE
  3
dos932
  9
$INSBASE
 10
0.0
 20
0.0
 30
0.0
  9
$EXTMIN
 10
-281.25
 20
-195.0
 30
0.0
  9
$EXTMAX
 10
282.099853515625
 20
195.5
 30
0.0
  9
$LIMMIN
 10
-281.25
 20
-195.0
  9
$LIMMAX
 10
282.099853515625
 20
195.5
  9
$ORTHOMODE
 70
               0
  9
$REGENMODE
 70
               1
  9
$FILLMODE
 70
               1
  9
$QTEXTMODE
 70
               0
  9
$MIRRTEXT
 70
               1
  9
$DRAGMODE
 70
               2
  9
$LTSCALE
 40
1.0
  9
$OSMODE
 70
               0
  9
$ATTMODE
 70
               1
  9
$TEXTSIZE
 40
3.2000000476837158
  9
$TRACEWID
 40
0.05
  9
$TEXTSTYLE
  7
MX_NOTE_STANDARD
  9
$CLAYER
  8
0
  9
$CELTYPE
  6
CONTINUOUS
  9
$CECOLOR
 62
             256
  9
$CELTSCALE
 40
1.0
  9
$DELOBJ
 70
               1
  9
$DISPSILH
 70
               0
  9
$DIMSCALE
 40
1.0
  9
$DIMASZ
 40
2.5
  9
$DIMEXO
 40
1.5
  9
$DIMDLI
 40
3.75
  9
$DIMRND
 40
0.0
  9
$DIMDLE
 40
0.0
  9
$DIMEXE
 40
1.5
  9
$DIMTP
 40
0.0
  9
$DIMTM
 40
0.0
  9
$DIMTXT
 40
3.2000000476837158
  9
$DIMCEN
 40
2.5
  9
$DIMTSZ
 40
0.0
  9
$DIMTOL
 70
               0
  9
$DIMLIM
 70
               0
  9
$DIMTIH
 70
               0
  9
$DIMTOH
 70
               0
  9
$DIMSE1
 70
               0
  9
$DIMSE2
 70
               0
  9
$DIMTAD
 70
               1
  9
$DIMZIN
 70
               8
  9
$DIMBLK
  1

  9
$DIMASO
 70
               1
  9
$DIMSHO
 70
               1
  9
$DIMPOST
  1

  9
$DIMAPOST
  1

  9
$DIMALT
 70
               0
  9
$DIMALTD
 70
               4
  9
$DIMALTF
 40
0.03937007874016
  9
$DIMLFAC
 40
1.0
  9
$DIMTOFL
 70
               1
  9
$DIMTVP
 40
0.0
  9
$DIMTIX
 70
               0
  9
$DIMSOXD
 70
               0
  9
$DIMSAH
 70
               0
  9
$DIMBLK1
  1

  9
$DIMBLK2
  1

  9
$DIMSTYLE
  2
MXDIMSTYLE
  9
$DIMCLRD
 70
               0
  9
$DIMCLRE
 70
               0
  9
$DIMCLRT
 70
               0
  9
$DIMTFAC
 40
1.0
  9
$DIMGAP
 40
1.0
  9
$DIMJUST
 70
               0
  9
$DIMSD1
 70
               0
  9
$DIMSD2
 70
               0
  9
$DIMTOLJ
 70
               1
  9
$DIMTZIN
 70
               0
  9
$DIMALTZ
 70
               0
  9
$DIMALTTZ
 70
               0
  9
$DIMFIT
 70
               3
  9
$DIMUPT
 70
               1
  9
$DIMUNIT
 70
               2
  9
$DIMDEC
 70
               4
  9
$DIMTDEC
 70
               4
  9
$DIMALTU
 70
               2
  9
$DIMALTTD
 70
               4
  9
$DIMTXSTY
  7
MX_NOTE_STANDARD
  9
$DIMAUNIT
 70
               0
  9
$LUNITS
 70
               2
  9
$LUPREC
 70
               4
  9
$SKETCHINC
 40
0.1
  9
$FILLETRAD
 40
0.0
  9
$AUNITS
 70
               0
  9
$AUPREC
 70
               0
  9
$MENU
  1
acad
  9
$ELEVATION
 40
0.0
  9
$PELEVATION
 40
0.0
  9
$THICKNESS
 40
0.0
  9
$LIMCHECK
 70
               0
  9
$BLIPMODE
 70
               1
  9
$CHAMFERA
 40
0.0
  9
$CHAMFERB
 40
0.0
  9
$CHAMFERC
 40
0.0
  9
$CHAMFERD
 40
0.0
  9
$SKPOLY
 70
               0
  9
$TDCREATE
 40
2453378.356747685
  9
$TDUPDATE
 40
2453378.356747685
  9
$TDINDWG
 40
0.0000000000
  9
$TDUSRTIMER
 40
0.0000000000
  9
$USRTIMER
 70
               1
  9
$ANGBASE
 50
0.0
  9
$ANGDIR
 70
               0
  9
$PDMODE
 70
               0
  9
$PDSIZE
 40
0.0
  9
$PLINEWID
 40
0.0
  9
$COORDS
 70
               1
  9
$SPLFRAME
 70
               0
  9
$SPLINETYPE
 70
               6
  9
$SPLINESEGS
 70
               8
  9
$ATTDIA
 70
               0
  9
$ATTREQ
 70
               1
  9
$HANDLING
 70
               1
  9
$HANDSEED
  5
5B3
  9
$SURFTAB1
 70
               6
  9
$SURFTAB2
 70
               6
  9
$SURFTYPE
 70
               6
  9
$SURFU
 70
               6
  9
$SURFV
 70
               6
  9
$UCSNAME
  2

  9
$UCSORG
 10
0.0
 20
0.0
 30
0.0
  9
$UCSXDIR
 10
1.0
 20
0.0
 30
0.0
  9
$UCSYDIR
 10
0.0
 20
1.0
 30
0.0
  9
$PUCSNAME
  2

  9
$PUCSORG
 10
0.0
 20
0.0
 30
0.0
  9
$PUCSXDIR
 10
1.0
 20
0.0
 30
0.0
  9
$PUCSYDIR
 10
0.0
 20
1.0
 30
0.0
  9
$USERI1
 70
               0
  9
$USERI2
 70
               0
  9
$USERI3
 70
               0
  9
$USERI4
 70
               0
  9
$USERI5
 70
               0
  9
$USERR1
 40
0.0
  9
$USERR2
 40
0.0
  9
$USERR3
 40
0.0
  9
$USERR4
 40
0.0
  9
$USERR5
 40
0.0
  9
$WORLDVIEW
 70
               1
  9
$SHADEDGE
 70
               3
  9
$SHADEDIF
 70
              70
  9
$TILEMODE
 70
               1
  9
$MAXACTVP
 70
              16
  9
$PINSBASE
 10
0.0
 20
0.0
 30
0.0
  9
$PLIMCHECK
 70
               0
  9
$PEXTMIN
 10
1.0000000000000000E+20
 20
1.0000000000000000E+20
 30
1.0000000000000000E+20
  9
$PEXTMAX
 10
-1.0000000000000000E+20
 20
-1.0000000000000000E+20
 30
-1.0000000000000000E+20
  9
$PLIMMIN
 10
0.0
 20
0.0
  9
$PLIMMAX
 10
12.0
 20
9.0
  9
$UNITMODE
 70
               0
  9
$VISRETAIN
 70
               0
  9
$PLINEGEN
 70
               1
  9
$PSLTSCALE
 70
               0
  9
$TREEDEPTH
 70
            3020
  9
$PICKSTYLE
 70
               1
  9
$CMLSTYLE
  2
Standard
  9
$CMLJUST
 70
               0
  9
$CMLSCALE
 40
1.0
  9
$SAVEIMAGES
 70
               0
  0
ENDSEC
  0
SECTION
  2
CLASSES
  0
CLASS
  1
LWPOLYLINE
  2
AcDbPolyline
  3
"AutoCAD"
 90
        0
280
               0
281
               1
  0
CLASS
  1
IMAGE
  2
AcDbRasterImage
  3
ISM
 90
      127
280
               0
281
               1
  0
CLASS
  1
OLE2FRAME
  2
AcDbOle2Frame
  3
""
 90
        0
280
               0
281
               1
  0
CLASS
  1
HATCH
  2
AcDbHatch
  3
"ACAD_SEDONA"
 90
        0
280
               0
281
               1
  0
CLASS
  1
DICTIONARYVAR
  2
AcDbDictionaryVar
  3
"AutoCAD"
 90
        0
280
               0
281
               0
  0
CLASS
  1
RASTERVARIABLES
  2
AcDbRasterVariables
  3
ISM
 90
        0
280
               0
281
               0
  0
CLASS
  1
IMAGEDEF
  2
AcDbRasterImageDef
  3
ISM
 90
        0
280
               0
281
               0
  0
CLASS
  1
IMAGEDEF_REACTOR
  2
AcDbRasterImageDefReactor
  3
ISM
 90
        1
280
               0
281
               0
  0
CLASS
  1
IDBUFFER
  2
AcDbIdBuffer
  3
"Acad"
 90
        0
280
               0
281
               0
  0
CLASS
  1
SPATIAL_FILTER
  2
AcDbSpatialFilter
  3
"Acad"
 90
        0
280
               0
281
               0
  0
CLASS
  1
XRECORD
  2
AcDbXrecord
  3
"<Built In>"
 90
        0
280
               0
281
               0
  0
CLASS
  1
SORTENTSTABLE
  2
AcDbSortentsTable
  3
"AutoCAD"
 90
        0
280
               0
281
               0
  0
CLASS
  1
LAYER_INDEX
  2
AcDbLayerIndex
  3
"Acad"
 90
        0
280
               0
281
               0
  0
CLASS
  1
SPATIAL_INDEX
  2
AcDbSpatialIndex
  3
"Acad"
 90
        0
280
               0
281
               0
  0
CLASS
  1
OBJECT_PTR
  2
CAseDLPNTableRecord
  3
"ASE-LPNTableRecord"
 90
        1
280
               0
281
               0
  0
CLASS
  1
LAYOUT
  2
AcDbLayout
  3
"AutoCAD 2000"
 90
        1
280
               0
281
               0
  0
CLASS
  1
PLOTSETTINGS
  2
AcDbPlotSettings
  3
"AutoCAD 2000"
 90
        1
280
               0
281
               0
  0
CLASS
  1
ACDBDICTIONARYWDFLT
  2
AcDbDictionaryWithDefault
  3
"AutoCAD 2000"
 90
        1
280
               0
281
               0
  0
CLASS
  1
ACDBPLACEHOLDER
  2
AcDbPlaceHolder
  3
"AutoCAD 2000"
 90
        1
280
               0
281
               0
  0
ENDSEC
  0
SECTION
  2
TABLES
  0
TABLE
  2
VPORT
  5
7
100
AcDbSymbolTable
 70
               1
  0
VPORT
  5
15
100
AcDbSymbolTableRecord
100
AcDbViewportTableRecord
  2
*ACTIVE
 70
               0
 10
0.0
 20
0.0
 11
1.0
 21
1.0
 12
0.4249267578125
 22
0.25
 13
0.0
 23
0.0
 14
1.0
 24
1.0
 15
0.0
 25
0.0
 16
0.0
 26
0.0
 36
1.0
 17
0.0
 27
0.0
 37
0.0
 40
394.40500000000003
 41
1.7320508075688772
 42
50.0
 43
0.0
 44
0.0
 50
0.0
 51
0.0
 71
               0
 72
             100
 73
               1
 74
               1
 75
               0
 76
               0
 77
               0
 78
               0
  0
ENDTAB
  0
TABLE
  2
LTYPE
  5
4
100
AcDbSymbolTable
 70
               6
  0
LTYPE
  5
11
100
AcDbSymbolTableRecord
100
AcDbLinetypeTableRecord
  2
BYBLOCK
 70
              64
  3

 72
              65
 73
               0
 40
0.0
  0
LTYPE
  5
12
100
AcDbSymbolTableRecord
100
AcDbLinetypeTableRecord
  2
BYLAYER
 70
              64
  3

 72
              65
 73
               0
 40
0.0
  0
LTYPE
  5
13
100
AcDbSymbolTableRecord
100
AcDbLinetypeTableRecord
  2
CONTINUOUS
 70
              64
  3
Solid line
 72
              65
 73
               0
 40
0.0
  0
LTYPE
  5
29
100
AcDbSymbolTableRecord
100
AcDbLinetypeTableRecord
  2
DASHED
 70
              64
  3
Dashed __ __ __ __ __ __ __ __ __ __ __ __ __ _
 72
              65
 73
               2
 40
4.0
 49
2.0
 74
               0
 49
-2.0
 74
               0
  0
LTYPE
  5
3E
100
AcDbSymbolTableRecord
100
AcDbLinetypeTableRecord
  2
CENTER
 70
              64
  3
Center ____ _ ____ _ ____ _ ____ _ ____ _ ____
 72
              65
 73
               4
 40
26.0
 49
20.0
 74
               0
 49
-2.0
 74
               0
 49
2.0
 74
               0
 49
-2.0
 74
               0
  0
LTYPE
  5
E9
100
AcDbSymbolTableRecord
100
AcDbLinetypeTableRecord
  2
PHANTOM
 70
              64
  3
Phantom ______  __  __  ______  __  __  ______
 72
              65
 73
               6
 40
30.0
 49
20.0
 74
               0
 49
-2.0
 74
               0
 49
2.0
 74
               0
 49
-2.0
 74
               0
 49
2.0
 74
               0
 49
-2.0
 74
               0
  0
ENDTAB
  0
TABLE
  2
LAYER
  5
2
100
AcDbSymbolTable
 70
               2
  0
LAYER
  5
14
100
AcDbSymbolTableRecord
100
AcDbLayerTableRecord
  2
0
 70
               0
 62
               7
  6
CONTINUOUS
  0
LAYER
  5
1D
100
AcDbSymbolTableRecord
100
AcDbLayerTableRecord
  2
DEFPOINTS
 70
               0
 62
               7
  6
CONTINUOUS
  0
ENDTAB
  0
TABLE
  2
STYLE
  5
3
100
AcDbSymbolTable
 70
               1
  0
STYLE
  5
17
100
AcDbSymbolTableRecord
100
AcDbTextStyleTableRecord
  2
MX_NOTE_STANDARD
 70
               0
 40
0.0
 41
1.0
 50
0.0
 71
               0
 42
3.2000000476837158
  3
txt.shx
  4
extfont.shx
  0
ENDTAB
  0
TABLE
  2
VIEW
  5
5
100
AcDbSymbolTable
 70
               0
  0
ENDTAB
  0
TABLE
  2
UCS
  5
6
100
AcDbSymbolTable
 70
               0
  0
ENDTAB
  0
TABLE
  2
APPID
  5
8
100
AcDbSymbolTable
 70
               1
  0
APPID
  5
16
100
AcDbSymbolTableRecord
100
AcDbRegAppTableRecord
  2
ACAD
 70
               0
  0
ENDTAB
  0
TABLE
  2
DIMSTYLE
  5
9
100
AcDbSymbolTable
 70
               1
  0
DIMSTYLE
105
18
100
AcDbSymbolTableRecord
100
AcDbDimStyleTableRecord
  2
MXDIMSTYLE
 70
               0
  3

  4

  5

  6

  7

 40
1.0
 41
2.5
 42
1.5
 43
3.75
 44
1.5
 45
0.0
 46
0.0
 47
0.0
 48
0.0
 71
               0
 72
               0
 73
               0
 74
               0
 75
               0
 76
               0
 77
               1
 78
               8
140
3.2000000476837158
141
2.5
142
0.0
143
0.03937007874016
144
1.0
145
0.0
146
1.0
147
1.0
170
               0
171
               4
172
               1
173
               0
174
               0
175
               0
176
               0
177
               0
178
               0
270
               2
271
               4
272
               4
273
               2
274
               4
275
               0
280
               0
281
               0
282
               0
283
               1
284
               0
285
               0
286
               0
287
               3
288
               1
340
17
  0
ENDTAB
  0
TABLE
  2
BLOCK_RECORD
  5
1
100
AcDbSymbolTable
 70
              10
  0
BLOCK_RECORD
  5
A
100
AcDbSymbolTableRecord
100
AcDbBlockTableRecord
  2
*MODEL_SPACE
  0
BLOCK_RECORD
  5
B
100
AcDbSymbolTableRecord
100
AcDbBlockTableRecord
  2
*PAPER_SPACE
  0
BLOCK_RECORD
  5
1E
100
AcDbSymbolTableRecord
100
AcDbBlockTableRecord
  2
NCT20-1
  0
BLOCK_RECORD
  5
1F
100
AcDbSymbolTableRecord
100
AcDbBlockTableRecord
  2
NCT20-2
  0
BLOCK_RECORD
  5
20
100
AcDbSymbolTableRecord
100
AcDbBlockTableRecord
  2
NCT20-3
  0
BLOCK_RECORD
  5
21
100
AcDbSymbolTableRecord
100
AcDbBlockTableRecord
  2
NCT20-4
  0
BLOCK_RECORD
  5
22
100
AcDbSymbolTableRecord
100
AcDbBlockTableRecord
  2
NCT20-5
  0
BLOCK_RECORD
  5
23
100
AcDbSymbolTableRecord
100
AcDbBlockTableRecord
  2
NCT20-6
  0
BLOCK_RECORD
  5
24
100
AcDbSymbolTableRecord
100
AcDbBlockTableRecord
  2
NCT20-7
  0
BLOCK_RECORD
  5
25
100
AcDbSymbolTableRecord
100
AcDbBlockTableRecord
  2
NCT20-8
  0
BLOCK_RECORD
  5
26
100
AcDbSymbolTableRecord
100
AcDbBlockTableRecord
  2
NCT20-9
  0
BLOCK_RECORD
  5
27
100
AcDbSymbolTableRecord
100
AcDbBlockTableRecord
  2
NCT20-10
  0
ENDTAB
  0
ENDSEC
  0
SECTION
  2
BLOCKS
  0
BLOCK
  5
D
100
AcDbEntity
  8
0
100
AcDbBlockBegin
  2
*MODEL_SPACE
 70
               0
 10
0.0
 20
0.0
 30
0.0
  3
*MODEL_SPACE
  1

  0
ENDBLK
  5
E
100
AcDbEntity
  8
0
100
AcDbBlockEnd
  0
BLOCK
  5
F
100
AcDbEntity
 67
               1
  8
0
100
AcDbBlockBegin
  2
*PAPER_SPACE
 70
               0
 10
0.0
 20
0.0
 30
0.0
  3
*PAPER_SPACE
  1

  0
ENDBLK
  5
10
100
AcDbEntity
 67
               1
  8
0
100
AcDbBlockEnd
  0
BLOCK
  5
28
100
AcDbEntity
  8
0
100
AcDbBlockBegin
  2
NCT20-1
 70
               0
 10
0.0
 20
0.0
 30
0.0
  3
NCT20-1
  1

  0
LINE
  5
2A
100
AcDbEntity
  8
0
  6
DASHED
 62
               2
100
AcDbLine
 10
-2.5
 20
-3.5
 30
0.0
 11
-2.5
 21
-6.7894597256052407
 31
0.0
  0
LINE
  5
2B
100
AcDbEntity
  8
0
  6
DASHED
 62
               2
100
AcDbLine
 10
2.5
 20
-3.5
 30
0.0
 11
2.5
 21
-6.7894597256052407
 31
0.0
  0
LINE
  5
2C
100
AcDbEntity
  8
0
  6
DASHED
 62
               2
100
AcDbLine
 10
-2.1000000000000227
 20
-3.5
 30
0.0
 11
-2.1000000000000227
 21
-7.4888067257199395
 31
0.0
  0
LINE
  5
2D
100
AcDbEntity
  8
0
  6
DASHED
 62
               2
100
AcDbLine
 10
2.0999999999999943
 20
-3.5
 30
0.0
 11
2.0999999999999943
 21
-7.4888067257199395
 31
0.0
  0
LINE
  5
2E
100
AcDbEntity
  8
0
  6
DASHED
 62
               2
100
AcDbLine
 10
-5.5
 20
0.0
 30
0.0
 11
-5.0
 21
-0.5
 31
0.0
  0
LINE
  5
2F
100
AcDbEntity
  8
0
  6
DASHED
 62
               2
100
AcDbLine
 10
-5.0
 20
-0.5
 30
0.0
 11
-5.0
 21
-3.5
 31
0.0
  0
LINE
  5
30
100
AcDbEntity
  8
0
  6
DASHED
 62
               2
100
AcDbLine
 10
5.0
 20
-3.5
 30
0.0
 11
-5.0
 21
-3.5
 31
0.0
  0
LINE
  5
31
100
AcDbEntity
  8
0
  6
DASHED
 62
               2
100
AcDbLine
 10
5.0
 20
-0.5
 30
0.0
 11
5.0
 21
-3.5
 31
0.0
  0
LINE
  5
32
100
AcDbEntity
  8
0
  6
DASHED
 62
               2
100
AcDbLine
 10
5.0
 20
-0.5
 30
0.0
 11
5.5
 21
0.0
 31
0.0
  0
LINE
  5
33
100
AcDbEntity
  8
0
  6
CONTINUOUS
 62
               7
100
AcDbLine
 10
10.0
 20
-4.5
 30
0.0
 11
-10.0
 21
-4.5
 31
0.0
  0
LINE
  5
34
100
AcDbEntity
  8
0
  6
CONTINUOUS
 62
               7
100
AcDbLine
 10
10.0
 20
-5.5
 30
0.0
 11
-10.0
 21
-5.5
 31
0.0
  0
LINE
  5
35
100
AcDbEntity
  8
0
  6
CONTINUOUS
 62
               7
100
AcDbLine
 10
10.0
 20
-0.5
 30
0.0
 11
-10.0
 21
-0.5
 31
0.0
  0
LINE
  5
36
100
AcDbEntity
  8
0
  6
CONTINUOUS
 62
               7
100
AcDbLine
 10
-9.5
 20
0.0
 30
0.0
 11
-10.0
 21
-0.5
 31
0.0
  0
LINE
  5
37
100
AcDbEntity
  8
0
  6
CONTINUOUS
 62
               7
100
AcDbLine
 10
10.0
 20
-0.5
 30
0.0
 11
9.5
 21
0.0
 31
0.0
  0
LINE
  5
38
100
AcDbEntity
  8
0
  6
CONTINUOUS
 62
               7
100
AcDbLine
 10
-10.0
 20
-5.5
 30
0.0
 11
-10.0
 21
-25.699999999999989
 31
0.0
  0
LINE
  5
39
100
AcDbEntity
  8
0
  6
CONTINUOUS
 62
               7
100
AcDbLine
 10
10.0
 20
-5.5
 30
0.0
 11
10.0
 21
-25.699999999999989
 31
0.0
  0
LINE
  5
3A
100
AcDbEntity
  8
0
  6
CONTINUOUS
 62
               7
100
AcDbLine
 10
-10.0
 20
-4.5
 30
0.0
 11
-9.5
 21
-5.0
 31
0.0
  0
LINE
  5
3B
100
AcDbEntity
  8
0
  6
CONTINUOUS
 62
               7
100
AcDbLine
 10
10.0
 20
-4.5
 30
0.0
 11
9.5
 21
-5.0
 31
0.0
  0
LINE
  5
3C
100
AcDbEntity
  8
0
  6
CONTINUOUS
 62
               7
100
AcDbLine
 10
-10.0
 20
-5.5
 30
0.0
 11
-9.5
 21
-5.0
 31
0.0
  0
LINE
  5
3D
100
AcDbEntity
  8
0
  6
CONTINUOUS
 62
               7
100
AcDbLine
 10
9.5
 20
-5.0
 30
0.0
 11
10.0
 21
-5.5
 31
0.0
  0
LINE
  5
3F
100
AcDbEntity
  8
0
  6
CENTER
 62
               2
100
AcDbLine
 10
5.582299500478257
 20
-14.0
 30
0.0
 11
-5.6689152938675704
 21
-14.0
 31
0.0
  0
LINE
  5
40
100
AcDbEntity
  8
0
  6
CENTER
 62
               2
100
AcDbLine
 10
0.0
 20
2.0
 30
0.0
 11
0.0
 21
-28.0
 31
0.0
  0
LINE
  5
41
100
AcDbEntity
  8
0
  6
CONTINUOUS
 62
               7
100
AcDbLine
 10
9.5
 20
-5.0
 30
0.0
 11
-9.5
 21
-5.0
 31
0.0
  0
LINE
  5
42
100
AcDbEntity
  8
0
  6
CONTINUOUS
 62
               7
100
AcDbLine
 10
-10.0
 20
-0.5
 30
0.0
 11
-10.0
 21
-4.5
 31
0.0
  0
LINE
  5
43
100
AcDbEntity
  8
0
  6
CONTINUOUS
 62
               7
100
AcDbLine
 10
10.0
 20
-0.5
 30
0.0
 11
10.0
 21
-4.5
 31
0.0
  0
LINE
  5
44
100
AcDbEntity
  8
0
  6
CONTINUOUS
 62
               7
100
AcDbLine
 10
9.5
 20
0.0
 30
0.0
 11
-9.5
 21
0.0
 31
0.0
  0
LINE
  5
45
100
AcDbEntity
  8
0
  6
CONTINUOUS
 62
               7
100
AcDbLine
 10
-9.6999999999999886
 20
-26.0
 30
0.0
 11
-10.0
 21
-25.699999999999989
 31
0.0
  0
LINE
  5
46
100
AcDbEntity
  8
0
  6
CONTINUOUS
 62
               7
100
AcDbLine
 10
-9.6999999999999886
 20
-26.0
 30
0.0
 11
9.6999999999999886
 21
-26.0
 31
0.0
  0
LINE
  5
47
100
AcDbEntity
  8
0
  6
CONTINUOUS
 62
               7
100
AcDbLine
 10
10.0
 20
-25.699999999999989
 30
0.0
 11
9.6999999999999886
 21
-26.0
 31
0.0
  0
LINE
  5
48
100
AcDbEntity
  8
0
  6
CONTINUOUS
 62
               7
100
AcDbLine
 10
10.0
 20
-25.699999999999989
 30
0.0
 11
-10.0
 21
-25.699999999999989
 31
0.0
  0
LINE
  5
49
100
AcDbEntity
  8
0
  6
CONTINUOUS
 62
               4
100
AcDbLine
 10
-3.5
 20
-27.0
 30
0.0
 11
3.5
 21
-27.0
 31
0.0
  0
LINE
  5
4A
100
AcDbEntity
  8
0
  6
CONTINUOUS
 62
               4
100
AcDbLine
 10
3.5
 20
-26.0
 30
0.0
 11
3.5
 21
-27.0
 31
0.0
  0
LINE
  5
4B
100
AcDbEntity
  8
0
  6
CONTINUOUS
 62
               4
100
AcDbLine
 10
-3.5
 20
-26.0
 30
0.0
 11
-3.5
 21
-27.0
 31
0.0
  0
LINE
  5
4C
100
AcDbEntity
  8
0
  6
CONTINUOUS
 62
               7
100
AcDbLine
 10
-0.5999999999999943
 20
-17.5
 30
0.0
 11
-0.5999999999999943
 21
-10.5
 31
0.0
  0
LINE
  5
4D
100
AcDbEntity
  8
0
  6
CONTINUOUS
 62
               7
100
AcDbLine
 10
0.5999999999999943
 20
-17.5
 30
0.0
 11
0.5999999999999943
 21
-10.5
 31
0.0
  0
LINE
  5
4E
100
AcDbEntity
  8
0
  6
CONTINUOUS
 62
               7
100
AcDbLine
 10
2.0199999999999818
 20
-10.5
 30
0.0
 11
-2.0219999999999914
 21
-10.5
 31
0.0
  0
LINE
  5
4F
100
AcDbEntity
  8
0
  6
CONTINUOUS
 62
               7
100
AcDbLine
 10
-2.0219999999999914
 20
-17.5
 30
0.0
 11
2.0199999999999818
 21
-17.5
 31
0.0
  0
ARC
  5
50
100
AcDbEntity
  8
0
  6
CONTINUOUS
 62
               7
100
AcDbCircle
 10
0.0
 20
-14.0
 30
0.0
 40
4.0
100
AcDbArc
 50
301.02599610038487
 51
358.99183125293081
  0
ARC
  5
51
100
AcDbEntity
  8
0
  6
CONTINUOUS
 62
               7
100
AcDbCircle
 10
0.0
 20
-14.0
 30
0.0
 40
4.0
100
AcDbArc
 50
241.04497562814004
 51
298.95502437185871
  0
ARC
  5
52
100
AcDbEntity
  8
0
  6
CONTINUOUS
 62
               7
100
AcDbCircle
 10
0.0
 20
-14.0
 30
0.0
 40
4.0
100
AcDbArc
 50
181.05941658577635
 51
238.92275606090575
  0
ARC
  5
53
100
AcDbEntity
  8
0
  6
CONTINUOUS
 62
               7
100
AcDbCircle
 10
0.0
 20
-14.0
 30
0.0
 40
4.0
100
AcDbArc
 50
121.07724393909305
 51
178.94058341422343
  0
ARC
  5
54
100
AcDbEntity
  8
0
  6
CONTINUOUS
 62
               7
100
AcDbCircle
 10
0.0
 20
-14.0
 30
0.0
 40
4.0
100
AcDbArc
 50
61.044975628139497
 51
118.95502437186015
  0
ARC
  5
55
100
AcDbEntity
  8
0
  6
CONTINUOUS
 62
               7
100
AcDbCircle
 10
0.0
 20
-14.0
 30
0.0
 40
4.0
100
AcDbArc
 50
1.0081687470679896
 51
58.974003899614786
  0
LINE
  5
56
100
AcDbEntity
  8
0
  6
CONTINUOUS
 62
               7
100
AcDbLine
 10
2.0199999999999818
 20
-17.5
 30
0.0
 11
4.039999999999992
 21
-14.0
 31
0.0
  0
LINE
  5
57
100
AcDbEntity
  8
0
  6
CONTINUOUS
 62
               7
100
AcDbLine
 10
4.039999999999992
 20
-14.0
 30
0.0
 11
2.0199999999999818
 21
-10.5
 31
0.0
  0
LINE
  5
58
100
AcDbEntity
  8
0
  6
CONTINUOUS
 62
               7
100
AcDbLine
 10
-2.0219999999999914
 20
-10.5
 30
0.0
 11
-4.0420000000000016
 21
-14.0
 31
0.0
  0
LINE
  5
59
100
AcDbEntity
  8
0
  6
CONTINUOUS
 62
               7
100
AcDbLine
 10
-4.0420000000000016
 20
-14.0
 30
0.0
 11
-2.0219999999999914
 21
-17.5
 31
0.0
  0
ARC
  5
5A
100
AcDbEntity
  8
0
  6
CONTINUOUS
 62
               7
100
AcDbCircle
 10
-0.0013335632787062
 20
-13.999000000000024
 30
0.0
 40
3.5005717393672393
100
AcDbArc
 50
99.847107000931288
 51
260.15289299906789
  0
ARC
  5
5B
100
AcDbEntity
  8
0
  6
CONTINUOUS
 62
               7
100
AcDbCircle
 10
-0.00133361211644
 20
-13.999000000000024
 30
0.0
 40
3.5010288649282808
100
AcDbArc
 50
279.89011336923943
 51
80.109886630759732
  0
CIRCLE
  5
5C
100
AcDbEntity
  8
0
  6
CONTINUOUS
 62
               7
100
AcDbCircle
 10
0.0
 20
-14.0
 30
0.0
 40
4.2000000000000002
  0
ENDBLK
  5
5D
100
AcDbEntity
  8
0
100
AcDbBlockEnd
  0
BLOCK
  5
5E
100
AcDbEntity
  8
0
100
AcDbBlockBegin
  2
NCT20-2
 70
               0
 10
0.0
 20
0.0
 30
0.0
  3
NCT20-2
  1

  0
LINE
  5
5F
100
AcDbEntity
  8
0
  6
CENTER
 62
               2
100
AcDbLine
 10
-10.928806231895294
 20
0.0
 30
0.0
 11
11.629836014675902
 21
0.0
 31
0.0
  0
LINE
  5
60
100
AcDbEntity
  8
0
  6
CONTINUOUS
 62
               7
100
AcDbLine
 10
-11.699999988148136
 20
-5.0
 30
0.0
 11
-18.504363255897317
 21
-4.9083298105362019
 31
0.0
  0
LINE
  5
61
100
AcDbEntity
  8
0
  6
CONTINUOUS
 62
               7
100
AcDbLine
 10
-11.699999988148136
 20
5.0000000016734703
 30
0.0
 11
-17.799999988148159
 21
4.9178191812608247
 31
0.0
  0
LINE
  5
62
100
AcDbEntity
  8
0
  6
CONTINUOUS
 62
               7
100
AcDbLine
 10
-11.699999988148136
 20
-5.0
 30
0.0
 11
-7.9999999881480903
 21
-4.9677105891741462
 31
0.0
  0
LINE
  5
63
100
AcDbEntity
  8
0
  6
CONTINUOUS
 62
               7
100
AcDbLine
 10
-11.699999988148136
 20
5.0000000016734703
 30
0.0
 11
-7.9999999881480903
 21
4.9677105908476733
 31
0.0
  0
LINE
  5
64
100
AcDbEntity
  8
0
  6
CONTINUOUS
 62
               7
100
AcDbLine
 10
-17.799999988148159
 20
5.0
 30
0.0
 11
-17.899999988148181
 21
5.0
 31
0.0
  0
LINE
  5
65
100
AcDbEntity
  8
0
  6
CONTINUOUS
 62
               7
100
AcDbLine
 10
-18.182320269753461
 20
4.9126684608669393
 30
0.0
 11
-18.504363255897317
 21
4.9083298122096721
 31
0.0
  0
LINE
  5
66
100
AcDbEntity
  8
0
  6
CONTINUOUS
 62
               7
100
AcDbLine
 10
-18.99999998814809
 20
-4.4083488506776121
 30
0.0
 11
-18.99999998814809
 21
-2.2000000000000455
 31
0.0
  0
LINE
  5
67
100
AcDbEntity
  8
0
  6
CONTINUOUS
 62
               7
100
AcDbLine
 10
-17.799999988148159
 20
1.8999999999999773
 30
0.0
 11
-18.99999998814809
 21
1.8999999999999773
 31
0.0
  0
LINE
  5
68
100
AcDbEntity
  8
0
  6
CENTER
 62
               2
100
AcDbLine
 10
-17.195856974999231
 20
3.5
 30
0.0
 11
-19.399999988148068
 21
3.5
 31
0.0
  0
LINE
  5
69
100
AcDbEntity
  8
0
  6
CENTER
 62
               2
100
AcDbLine
 10
-11.148198118358607
 20
-1.4000000000000341
 30
0.0
 11
-19.451569244050063
 21
-1.4000000000000341
 31
0.0
  0
ARC
  5
6A
100
AcDbEntity
  8
0
  6
CONTINUOUS
 62
               7
100
AcDbCircle
 10
-15.399999988148068
 20
-1.4000000000000341
 30
0.0
 40
3.0
100
AcDbArc
 50
195.46600995342007
 51
344.53399004657871
  0
ARC
  5
6B
100
AcDbEntity
  8
0
  6
CONTINUOUS
 62
               7
100
AcDbCircle
 10
-15.399999988148068
 20
-1.4000000000000341
 30
0.0
 40
2.0
100
AcDbArc
 50
23.578178478201615
 51
359.99999999999915
  0
ARC
  5
6C
100
AcDbEntity
  8
0
  6
CONTINUOUS
 62
               7
100
AcDbCircle
 10
-15.399999988148068
 20
-1.4000000000000341
 30
0.0
 40
3.0
100
AcDbArc
 50
15.466009953420414
 51
164.53399004657908
  0
ARC
  5
6D
100
AcDbEntity
  8
0
  6
CONTINUOUS
 62
               7
100
AcDbCircle
 10
-15.399999988148068
 20
-1.4000000000000341
 30
0.0
 40
1.2999999999999972
100
AcDbArc
 50
179.99999999999963
 51
142.02012755514778
  0
LINE
  5
6E
100
AcDbEntity
  8
0
  6
CONTINUOUS
 62
               7
100
AcDbLine
 10
-18.99999998814809
 20
-0.6000000000000227
 30
0.0
 11
-18.99999998814809
 21
4.4083488490041418
 31
0.0
  0
LINE
  5
6F
100
AcDbEntity
  8
0
  6
CONTINUOUS
 62
               7
100
AcDbLine
 10
-17.699999988148136
 20
-0.6000000000000227
 30
0.0
 11
-19.949999988148136
 21
-0.6000000000000227
 31
0.0
  0
LINE
  5
70
100
AcDbEntity
  8
0
  6
CONTINUOUS
 62
               7
100
AcDbLine
 10
-17.699999988148136
 20
-2.2000000000000455
 30
0.0
 11
-19.349999988148113
 21
-2.2000000000000455
 31
0.0
  0
LINE
  5
71
100
AcDbEntity
  8
0
  6
CONTINUOUS
 62
               7
100
AcDbLine
 10
-19.349999988148113
 20
-1.4000000000000341
 30
0.0
 11
-19.949999988148136
 21
-1.4000000000000341
 31
0.0
  0
LINE
  5
72
100
AcDbEntity
  8
0
  6
CONTINUOUS
 62
               7
100
AcDbLine
 10
-19.949999988148136
 20
-0.6000000000000227
 30
0.0
 11
-19.949999988148136
 21
-1.4000000038210487
 31
0.0
  0
LINE
  5
73
100
AcDbEntity
  8
0
  6
CONTINUOUS
 62
               7
100
AcDbLine
 10
-19.349999988148113
 20
-0.6000000000000227
 30
0.0
 11
-19.349999988148113
 21
-2.2000000000000455
 31
0.0
  0
LINE
  5
74
100
AcDbEntity
  8
0
  6
CONTINUOUS
 62
               7
100
AcDbLine
 10
-17.699999988148136
 20
-0.6000000000000227
 30
0.0
 11
-17.699999988148136
 21
-2.2000000000000455
 31
0.0
  0
LINE
  5
75
100
AcDbEntity
  8
0
  6
CONTINUOUS
 62
               7
100
AcDbLine
 10
-14.699999988148136
 20
-0.6000000000000227
 30
0.0
 11
-16.949999988148136
 21
-0.6000000000000227
 31
0.0
  0
LINE
  5
76
100
AcDbEntity
  8
0
  6
CONTINUOUS
 62
               7
100
AcDbLine
 10
-14.699999988148136
 20
-2.2000000000000455
 30
0.0
 11
-16.349999988148113
 21
-2.2000000000000455
 31
0.0
  0
LINE
  5
77
100
AcDbEntity
  8
0
  6
CONTINUOUS
 62
               7
100
AcDbLine
 10
-16.949999988148136
 20
-0.6000000000000227
 30
0.0
 11
-16.949999988148136
 21
-1.4000000038210487
 31
0.0
  0
LINE
  5
78
100
AcDbEntity
  8
0
  6
CONTINUOUS
 62
               7
100
AcDbLine
 10
-16.349999988148113
 20
-1.4000000000000341
 30
0.0
 11
-16.949999988148136
 21
-1.4000000000000341
 31
0.0
  0
LINE
  5
79
100
AcDbEntity
  8
0
  6
CONTINUOUS
 62
               7
100
AcDbLine
 10
-16.349999988148113
 20
-0.6000000000000227
 30
0.0
 11
-16.349999988148113
 21
-2.2000000000000455
 31
0.0
  0
LINE
  5
7A
100
AcDbEntity
  8
0
  6
CONTINUOUS
 62
               7
100
AcDbLine
 10
-13.349999988148113
 20
-0.6000000000000227
 30
0.0
 11
-13.349999988148113
 21
-2.2000000000000455
 31
0.0
  0
LINE
  5
7B
100
AcDbEntity
  8
0
  6
CONTINUOUS
 62
               7
100
AcDbLine
 10
-13.949999988148136
 20
-0.6000000000000227
 30
0.0
 11
-13.949999988148136
 21
-1.4000000000000341
 31
0.0
  0
LINE
  5
7C
100
AcDbEntity
  8
0
  6
CONTINUOUS
 62
               7
100
AcDbLine
 10
-11.699999977691562
 20
-2.2000000000000455
 30
0.0
 11
-13.349999988148113
 21
-2.2000000000000455
 31
0.0
  0
LINE
  5
7D
100
AcDbEntity
  8
0
  6
CONTINUOUS
 62
               7
100
AcDbLine
 10
-11.699999977691562
 20
-0.6000000000000227
 30
0.0
 11
-13.949999988148136
 21
-0.6000000000000227
 31
0.0
  0
LINE
  5
7E
100
AcDbEntity
  8
0
  6
CONTINUOUS
 62
               7
100
AcDbLine
 10
-13.349999988148113
 20
-1.4000000000000341
 30
0.0
 11
-13.949999988148136
 21
-1.4000000000000341
 31
0.0
  0
LINE
  5
7F
100
AcDbEntity
  8
0
  6
CONTINUOUS
 62
               7
100
AcDbLine
 10
-14.699999988148136
 20
-2.2000000000000455
 30
0.0
 11
-14.699999988148136
 21
-0.6000000000000227
 31
0.0
  0
LINE
  5
80
100
AcDbEntity
  8
0
  6
CONTINUOUS
 62
               7
100
AcDbLine
 10
-18.399999988148181
 20
2.5
 30
0.0
 11
-18.399999988148181
 21
4.5
 31
0.0
  0
ARC
  5
81
100
AcDbEntity
  8
0
  6
CONTINUOUS
 62
               7
100
AcDbCircle
 10
-17.899999988148181
 20
2.5
 30
0.0
 40
0.5
100
AcDbArc
 50
179.99999999999963
 51
269.99999999999937
  0
ARC
  5
82
100
AcDbEntity
  8
0
  6
CONTINUOUS
 62
               7
100
AcDbCircle
 10
-17.899999988148181
 20
4.5
 30
0.0
 40
0.5
100
AcDbArc
 50
89.999999999999815
 51
179.99999999999963
  0
LINE
  5
83
100
AcDbEntity
  8
0
  6
CENTER
 62
               2
100
AcDbLine
 10
-15.399999988148068
 20
-5.2176395905285631
 30
0.0
 11
-15.399999988148068
 21
2.5602017170810996
 31
0.0
  0
ARC
  5
84
100
AcDbEntity
  8
0
  6
CONTINUOUS
 62
               7
100
AcDbCircle
 10
-18.49999998814809
 20
4.4083488506776121
 30
0.0
 40
0.5
100
AcDbArc
 50
90.500000000000142
 51
179.99999999999963
  0
ARC
  5
85
100
AcDbEntity
  8
0
  6
CONTINUOUS
 62
               7
100
AcDbCircle
 10
-18.49999998814809
 20
-4.4083488490041418
 30
0.0
 40
0.5
100
AcDbArc
 50
179.99999999999963
 51
269.49999999999909
  0
LINE
  5
86
100
AcDbEntity
  8
0
  6
CONTINUOUS
 62
               7
100
AcDbLine
 10
-17.799999988148159
 20
1.8999999999999773
 30
0.0
 11
-17.799999988148159
 21
5.0
 31
0.0
  0
LINE
  5
87
100
AcDbEntity
  8
0
  6
CONTINUOUS
 62
               7
100
AcDbLine
 10
-11.699999988148136
 20
5.0000000016734703
 30
0.0
 11
-11.699999988148136
 21
-5.0
 31
0.0
  0
LINE
  5
88
100
AcDbEntity
  8
0
  6
CENTER
 62
               2
100
AcDbLine
 10
0.0
 20
0.0
 30
0.0
 11
10.071733430556492
 21
5.8149180073379512
 31
0.0
  0
LINE
  5
89
100
AcDbEntity
  8
0
  6
CONTINUOUS
 62
               7
100
AcDbLine
 10
4.0500000000000114
 20
-9.5999999999999659
 30
0.0
 11
2.8000000000000114
 21
-9.5999999999999659
 31
0.0
  0
LINE
  5
8A
100
AcDbEntity
  8
0
  6
CONTINUOUS
 62
               7
100
AcDbLine
 10
3.5500000000000114
 20
-12.099999999999966
 30
0.0
 11
0.5
 21
-12.099999999999966
 31
0.0
  0
LINE
  5
8B
100
AcDbEntity
  8
0
  6
CONTINUOUS
 62
               7
100
AcDbLine
 10
2.0300000000000296
 20
-11.599999999999966
 30
0.0
 11
2.0300000000000296
 21
-9.7917873751424622
 31
0.0
  0
ARC
  5
8C
100
AcDbEntity
  8
0
  6
CONTINUOUS
 62
               7
100
AcDbCircle
 10
4.9717302995399564
 20
-5.2175398893984379
 30
0.0
 40
7.0277716396203269
100
AcDbArc
 50
245.25462085736197
 51
258.32841020147521
  0
ARC
  5
8D
100
AcDbEntity
  8
0
  6
CONTINUOUS
 62
               7
100
AcDbCircle
 10
-0.019504252191723
 20
-7.7456426961389298
 30
0.0
 40
4.3653794686807261
100
AcDbArc
 50
276.83471178066651
 51
298.00122980373817
  0
LINE
  5
8E
100
AcDbEntity
  8
0
  6
CONTINUOUS
 62
               7
100
AcDbLine
 10
4.0500000000000114
 20
-11.599999999999966
 30
0.0
 11
3.5500000000000114
 21
-12.099999999999966
 31
0.0
  0
LINE
  5
8F
100
AcDbEntity
  8
0
  6
CONTINUOUS
 62
               7
100
AcDbLine
 10
4.0500000000000114
 20
-11.599999999999966
 30
0.0
 11
4.0500000000000114
 21
-9.5999999999999659
 31
0.0
  0
LINE
  5
90
100
AcDbEntity
  8
0
  6
CONTINUOUS
 62
               7
100
AcDbLine
 10
0.5
 20
-12.099999999999966
 30
0.0
 11
0.5
 21
-10.599999999999966
 31
0.0
  0
LINE
  5
91
100
AcDbEntity
  8
0
  6
CONTINUOUS
 62
               7
100
AcDbLine
 10
0.5
 20
-10.599999999999966
 30
0.0
 11
-0.5
 21
-10.599999999999966
 31
0.0
  0
LINE
  5
92
100
AcDbEntity
  8
0
  6
CONTINUOUS
 62
               7
100
AcDbLine
 10
-0.5
 20
-12.099999999999966
 30
0.0
 11
-0.5
 21
-10.599999999999966
 31
0.0
  0
ARC
  5
93
100
AcDbEntity
  8
0
  6
CONTINUOUS
 62
               7
100
AcDbCircle
 10
0.0190627296830144
 20
-7.747050049135396
 30
0.0
 40
4.363929581700825
100
AcDbArc
 50
241.99521341413674
 51
263.16884500145613
  0
LINE
  5
94
100
AcDbEntity
  8
0
  6
CONTINUOUS
 62
               7
100
AcDbLine
 10
-0.5
 20
-12.099999999999966
 30
0.0
 11
-3.5500000000000114
 21
-12.099999999999966
 31
0.0
  0
ARC
  5
95
100
AcDbEntity
  8
0
  6
CONTINUOUS
 62
               7
100
AcDbCircle
 10
-4.9722187730059773
 20
-5.2160549300617731
 30
0.0
 40
7.0293247160888015
100
AcDbArc
 50
281.67304037350181
 51
294.74392856765866
  0
LINE
  5
96
100
AcDbEntity
  8
0
  6
CONTINUOUS
 62
               7
100
AcDbLine
 10
-2.0300000000000296
 20
-11.599999999999966
 30
0.0
 11
-2.0300000000000296
 21
-9.7917873751424622
 31
0.0
  0
LINE
  5
97
100
AcDbEntity
  8
0
  6
CONTINUOUS
 62
               7
100
AcDbLine
 10
-3.5500000000000114
 20
-12.099999999999966
 30
0.0
 11
-4.0500000000000114
 21
-11.599999999999966
 31
0.0
  0
LINE
  5
98
100
AcDbEntity
  8
0
  6
CONTINUOUS
 62
               7
100
AcDbLine
 10
-4.0500000000000114
 20
-11.599999999999966
 30
0.0
 11
-4.0500000000000114
 21
-9.5999999999999659
 31
0.0
  0
LINE
  5
99
100
AcDbEntity
  8
0
  6
CONTINUOUS
 62
               7
100
AcDbLine
 10
-2.8000000000000114
 20
-9.5999999999999659
 30
0.0
 11
-4.0500000000000114
 21
-9.5999999999999659
 31
0.0
  0
LINE
  5
9A
100
AcDbEntity
  8
0
  6
CONTINUOUS
 62
               7
100
AcDbLine
 10
4.0
 20
-9.5999999999999659
 30
0.0
 11
4.0
 21
-9.1651513899116708
 31
0.0
  0
LINE
  5
9B
100
AcDbEntity
  8
0
  6
CONTINUOUS
 62
               7
100
AcDbLine
 10
-4.0
 20
-9.5999999999999659
 30
0.0
 11
-4.0
 21
-9.1651513899116708
 31
0.0
  0
CIRCLE
  5
9C
100
AcDbEntity
  8
0
  6
CONTINUOUS
 62
               2
100
AcDbCircle
 10
0.0
 20
0.0
 30
0.0
 40
2.5
  0
CIRCLE
  5
9D
100
AcDbEntity
  8
0
  6
CONTINUOUS
 62
               7
100
AcDbCircle
 10
0.0
 20
0.0
 30
0.0
 40
2.1000000000000001
  0
LINE
  5
9E
100
AcDbEntity
  8
0
  6
CENTER
 62
               2
100
AcDbLine
 10
0.0
 20
0.0
 30
0.0
 11
-5.8166019384642027
 21
10.074650084823702
 31
0.0
  0
CIRCLE
  5
9F
100
AcDbEntity
  8
0
  6
CONTINUOUS
 62
               7
100
AcDbCircle
 10
-3.75
 20
6.4951905283833185
 30
0.0
 40
1.25
  0
CIRCLE
  5
A0
100
AcDbEntity
  8
0
  6
CONTINUOUS
 62
               7
100
AcDbCircle
 10
7.5
 20
0.0
 30
0.0
 40
1.25
  0
CIRCLE
  5
A1
100
AcDbEntity
  8
0
  6
CONTINUOUS
 62
               2
100
AcDbCircle
 10
7.5
 20
0.0
 30
0.0
 40
1.5
  0
CIRCLE
  5
A2
100
AcDbEntity
  8
0
  6
CONTINUOUS
 62
               2
100
AcDbCircle
 10
-3.75
 20
6.4951905283833185
 30
0.0
 40
1.5
  0
CIRCLE
  5
A3
100
AcDbEntity
  8
0
  6
CONTINUOUS
 62
               2
100
AcDbCircle
 10
-3.75
 20
-6.4951905283832616
 30
0.0
 40
1.5
  0
CIRCLE
  5
A4
100
AcDbEntity
  8
0
  6
CONTINUOUS
 62
               7
100
AcDbCircle
 10
-3.75
 20
-6.4951905283832616
 30
0.0
 40
1.25
  0
LINE
  5
A5
100
AcDbEntity
  8
0
  6
CENTER
 62
               2
100
AcDbLine
 10
0.0
 20
12.0
 30
0.0
 11
0.0
 21
-12.0
 31
0.0
  0
LINE
  5
A6
100
AcDbEntity
  8
0
  6
CENTER
 62
               2
100
AcDbLine
 10
0.0
 20
0.0
 30
0.0
 11
-5.8166019384642027
 21
-10.074650084823645
 31
0.0
  0
CIRCLE
  5
A7
100
AcDbEntity
  8
0
  6
CONTINUOUS
 62
               7
100
AcDbCircle
 10
0.0
 20
0.0
 30
0.0
 40
5.0
  0
CIRCLE
  5
A8
100
AcDbEntity
  8
0
  6
CONTINUOUS
 62
               7
100
AcDbCircle
 10
0.0
 20
0.0
 30
0.0
 40
5.5
  0
ARC
  5
A9
100
AcDbEntity
  8
0
  6
CONTINUOUS
 62
               7
100
AcDbCircle
 10
0.0
 20
0.0
 30
0.0
 40
9.4999999999999929
100
AcDbArc
 50
212.6368975035532
 51
147.363102496446
  0
ARC
  5
AA
100
AcDbEntity
  8
0
  6
CONTINUOUS
 62
               7
100
AcDbCircle
 10
0.0
 20
0.0
 30
0.0
 40
10.0
100
AcDbArc
 50
209.82552560780528
 51
150.17447440319103
  0
CIRCLE
  5
AB
100
AcDbEntity
  8
0
  6
CENTER
 62
               2
100
AcDbCircle
 10
0.0
 20
0.0
 30
0.0
 40
7.5
  0
LINE
  5
AC
100
AcDbEntity
  8
0
  6
CONTINUOUS
 62
               7
100
AcDbLine
 10
-7.9999999881480903
 20
5.123475382979791
 30
0.0
 11
-7.9999999881480903
 21
-5.123475382979791
 31
0.0
  0
ENDBLK
  5
AD
100
AcDbEntity
  8
0
100
AcDbBlockEnd
  0
BLOCK
  5
AE
100
AcDbEntity
  8
0
100
AcDbBlockBegin
  2
NCT20-3
 70
               0
 10
0.0
 20
0.0
 30
0.0
  3
NCT20-3
  1

  0
LINE
  5
AF
100
AcDbEntity
  8
0
  6
CONTINUOUS
 62
               7
100
AcDbLine
 10
-2.8000000000000114
 20
-9.5999999999999659
 30
0.0
 11
-4.0500000000000114
 21
-9.5999999999999659
 31
0.0
  0
LINE
  5
B0
100
AcDbEntity
  8
0
  6
CONTINUOUS
 62
               7
100
AcDbLine
 10
-4.0500000000000114
 20
-11.599999999999966
 30
0.0
 11
-4.0500000000000114
 21
-9.5999999999999659
 31
0.0
  0
LINE
  5
B1
100
AcDbEntity
  8
0
  6
CONTINUOUS
 62
               7
100
AcDbLine
 10
-3.5500000000000114
 20
-12.099999999999966
 30
0.0
 11
-4.0500000000000114
 21
-11.599999999999966
 31
0.0
  0
LINE
  5
B2
100
AcDbEntity
  8
0
  6
CONTINUOUS
 62
               7
100
AcDbLine
 10
-2.0300000000000011
 20
-11.599999999999966
 30
0.0
 11
-2.0300000000000011
 21
-9.7917873751424622
 31
0.0
  0
ARC
  5
B3
100
AcDbEntity
  8
0
  6
CONTINUOUS
 62
               7
100
AcDbCircle
 10
-4.9722187730059773
 20
-5.2160549300617731
 30
0.0
 40
7.0293247160888015
100
AcDbArc
 50
281.67304037350181
 51
294.74392856765866
  0
LINE
  5
B4
100
AcDbEntity
  8
0
  6
CONTINUOUS
 62
               7
100
AcDbLine
 10
-0.5
 20
-12.099999999999966
 30
0.0
 11
-3.5500000000000114
 21
-12.099999999999966
 31
0.0
  0
ARC
  5
B5
100
AcDbEntity
  8
0
  6
CONTINUOUS
 62
               7
100
AcDbCircle
 10
0.0190627296830144
 20
-7.747050049135396
 30
0.0
 40
4.363929581700825
100
AcDbArc
 50
241.99521341413674
 51
263.16884500145613
  0
LINE
  5
B6
100
AcDbEntity
  8
0
  6
CONTINUOUS
 62
               7
100
AcDbLine
 10
-0.5
 20
-12.099999999999966
 30
0.0
 11
-0.5
 21
-10.599999999999966
 31
0.0
  0
LINE
  5
B7
100
AcDbEntity
  8
0
  6
CONTINUOUS
 62
               7
100
AcDbLine
 10
0.5
 20
-10.599999999999966
 30
0.0
 11
-0.5
 21
-10.599999999999966
 31
0.0
  0
LINE
  5
B8
100
AcDbEntity
  8
0
  6
CONTINUOUS
 62
               7
100
AcDbLine
 10
0.5
 20
-12.099999999999966
 30
0.0
 11
0.5
 21
-10.599999999999966
 31
0.0
  0
LINE
  5
B9
100
AcDbEntity
  8
0
  6
CONTINUOUS
 62
               7
100
AcDbLine
 10
4.0499999999999829
 20
-11.599999999999966
 30
0.0
 11
4.0499999999999829
 21
-9.5999999999999659
 31
0.0
  0
LINE
  5
BA
100
AcDbEntity
  8
0
  6
CONTINUOUS
 62
               7
100
AcDbLine
 10
4.0499999999999829
 20
-11.599999999999966
 30
0.0
 11
3.5499999999999829
 21
-12.099999999999966
 31
0.0
  0
ARC
  5
BB
100
AcDbEntity
  8
0
  6
CONTINUOUS
 62
               7
100
AcDbCircle
 10
-0.019504252191723
 20
-7.7456426961389298
 30
0.0
 40
4.3653794686807261
100
AcDbArc
 50
276.83471178066651
 51
298.00122980373817
  0
ARC
  5
BC
100
AcDbEntity
  8
0
  6
CONTINUOUS
 62
               7
100
AcDbCircle
 10
4.9717302995399848
 20
-5.2175398893984379
 30
0.0
 40
7.0277716396203269
100
AcDbArc
 50
245.25462085736197
 51
258.32841020147521
  0
LINE
  5
BD
100
AcDbEntity
  8
0
  6
CONTINUOUS
 62
               7
100
AcDbLine
 10
2.0300000000000011
 20
-11.599999999999966
 30
0.0
 11
2.0300000000000011
 21
-9.7917873751424622
 31
0.0
  0
LINE
  5
BE
100
AcDbEntity
  8
0
  6
CONTINUOUS
 62
               7
100
AcDbLine
 10
3.5499999999999829
 20
-12.099999999999966
 30
0.0
 11
0.5
 21
-12.099999999999966
 31
0.0
  0
LINE
  5
BF
100
AcDbEntity
  8
0
  6
CONTINUOUS
 62
               7
100
AcDbLine
 10
4.0499999999999829
 20
-9.5999999999999659
 30
0.0
 11
2.8000000000000114
 21
-9.5999999999999659
 31
0.0
  0
LINE
  5
C0
100
AcDbEntity
  8
0
  6
CONTINUOUS
 62
               7
100
AcDbLine
 10
4.0
 20
-9.5999999999999659
 30
0.0
 11
4.0
 21
-9.1651513899116708
 31
0.0
  0
LINE
  5
C1
100
AcDbEntity
  8
0
  6
CONTINUOUS
 62
               7
100
AcDbLine
 10
-4.0
 20
-9.5999999999999659
 30
0.0
 11
-4.0
 21
-9.1651513899116708
 31
0.0
  0
CIRCLE
  5
C2
100
AcDbEntity
  8
0
  6
CONTINUOUS
 62
               7
100
AcDbCircle
 10
0.0
 20
0.0
 30
0.0
 40
2.1000000000000001
  0
CIRCLE
  5
C3
100
AcDbEntity
  8
0
  6
CONTINUOUS
 62
               2
100
AcDbCircle
 10
0.0
 20
0.0
 30
0.0
 40
2.5
  0
CIRCLE
  5
C4
100
AcDbEntity
  8
0
  6
CONTINUOUS
 62
               7
100
AcDbCircle
 10
-6.49519052838329
 20
3.75
 30
0.0
 40
1.25
  0
CIRCLE
  5
C5
100
AcDbEntity
  8
0
  6
CONTINUOUS
 62
               7
100
AcDbCircle
 10
6.4951905283832616
 20
3.75
 30
0.0
 40
1.25
  0
CIRCLE
  5
C6
100
AcDbEntity
  8
0
  6
CONTINUOUS
 62
               2
100
AcDbCircle
 10
6.4951905283832616
 20
3.75
 30
0.0
 40
1.5
  0
CIRCLE
  5
C7
100
AcDbEntity
  8
0
  6
CONTINUOUS
 62
               2
100
AcDbCircle
 10
-6.49519052838329
 20
3.75
 30
0.0
 40
1.5
  0
CIRCLE
  5
C8
100
AcDbEntity
  8
0
  6
CONTINUOUS
 62
               2
100
AcDbCircle
 10
0.0
 20
-7.5
 30
0.0
 40
1.5
  0
CIRCLE
  5
C9
100
AcDbEntity
  8
0
  6
CONTINUOUS
 62
               7
100
AcDbCircle
 10
0.0
 20
-7.5
 30
0.0
 40
1.25
  0
CIRCLE
  5
CA
100
AcDbEntity
  8
0
  6
CENTER
 62
               2
100
AcDbCircle
 10
0.0
 20
0.0
 30
0.0
 40
7.5
  0
CIRCLE
  5
CB
100
AcDbEntity
  8
0
  6
CONTINUOUS
 62
               7
100
AcDbCircle
 10
0.0
 20
0.0
 30
0.0
 40
10.0
  0
CIRCLE
  5
CC
100
AcDbEntity
  8
0
  6
CONTINUOUS
 62
               7
100
AcDbCircle
 10
0.0
 20
0.0
 30
0.0
 40
9.4999999999999929
  0
LINE
  5
CD
100
AcDbEntity
  8
0
  6
CENTER
 62
               2
100
AcDbLine
 10
0.0
 20
12.0
 30
0.0
 11
0.0
 21
-11.395944991941462
 31
0.0
  0
LINE
  5
CE
100
AcDbEntity
  8
0
  6
CENTER
 62
               2
100
AcDbLine
 10
12.0
 20
0.0
 30
0.0
 11
-12.0
 21
0.0
 31
0.0
  0
LINE
  5
CF
100
AcDbEntity
  8
0
  6
CENTER
 62
               2
100
AcDbLine
 10
0.0
 20
0.0
 30
0.0
 11
10.071733430556492
 21
5.8149180073379512
 31
0.0
  0
LINE
  5
D0
100
AcDbEntity
  8
0
  6
CENTER
 62
               2
100
AcDbLine
 10
0.0
 20
0.0
 30
0.0
 11
-10.074650084823674
 21
5.8166019384642595
 31
0.0
  0
CIRCLE
  5
D1
100
AcDbEntity
  8
0
  6
CONTINUOUS
 62
               7
100
AcDbCircle
 10
0.0
 20
0.0
 30
0.0
 40
5.0
  0
CIRCLE
  5
D2
100
AcDbEntity
  8
0
  6
CONTINUOUS
 62
               7
100
AcDbCircle
 10
0.0
 20
0.0
 30
0.0
 40
5.5
  0
ENDBLK
  5
D3
100
AcDbEntity
  8
0
100
AcDbBlockEnd
  0
BLOCK
  5
D4
100
AcDbEntity
  8
0
100
AcDbBlockBegin
  2
NCT20-4
 70
               0
 10
0.0
 20
0.0
 30
0.0
  3
NCT20-4
  1

  0
LINE
  5
D5
100
AcDbEntity
  8
0
  6
CONTINUOUS
 62
               7
100
AcDbLine
 10
-0.5999999999999943
 20
-17.5
 30
0.0
 11
-0.5999999999999943
 21
-10.5
 31
0.0
  0
LINE
  5
D6
100
AcDbEntity
  8
0
  6
CONTINUOUS
 62
               7
100
AcDbLine
 10
0.5999999999999943
 20
-17.5
 30
0.0
 11
0.5999999999999943
 21
-10.5
 31
0.0
  0
LINE
  5
D7
100
AcDbEntity
  8
0
  6
CONTINUOUS
 62
               7
100
AcDbLine
 10
2.0199999999999818
 20
-10.5
 30
0.0
 11
-2.0219999999999914
 21
-10.5
 31
0.0
  0
LINE
  5
D8
100
AcDbEntity
  8
0
  6
CONTINUOUS
 62
               7
100
AcDbLine
 10
-2.0219999999999914
 20
-17.5
 30
0.0
 11
2.0199999999999818
 21
-17.5
 31
0.0
  0
ARC
  5
D9
100
AcDbEntity
  8
0
  6
CONTINUOUS
 62
               7
100
AcDbCircle
 10
0.0
 20
-14.0
 30
0.0
 40
4.0
100
AcDbArc
 50
301.02599610038487
 51
358.99183125293081
  0
ARC
  5
DA
100
AcDbEntity
  8
0
  6
CONTINUOUS
 62
               7
100
AcDbCircle
 10
0.0
 20
-14.0
 30
0.0
 40
4.0
100
AcDbArc
 50
241.04497562814004
 51
298.95502437185871
  0
ARC
  5
DB
100
AcDbEntity
  8
0
  6
CONTINUOUS
 62
               7
100
AcDbCircle
 10
0.0
 20
-14.0
 30
0.0
 40
4.0
100
AcDbArc
 50
181.05941658577635
 51
238.92275606090575
  0
ARC
  5
DC
100
AcDbEntity
  8
0
  6
CONTINUOUS
 62
               7
100
AcDbCircle
 10
0.0
 20
-14.0
 30
0.0
 40
4.0
100
AcDbArc
 50
121.07724393909305
 51
178.94058341422343
  0
ARC
  5
DD
100
AcDbEntity
  8
0
  6
CONTINUOUS
 62
               7
100
AcDbCircle
 10
0.0
 20
-14.0
 30
0.0
 40
4.0
100
AcDbArc
 50
61.044975628139497
 51
118.95502437186015
  0
ARC
  5
DE
100
AcDbEntity
  8
0
  6
CONTINUOUS
 62
               7
100
AcDbCircle
 10
0.0
 20
-14.0
 30
0.0
 40
4.0
100
AcDbArc
 50
1.0081687470679896
 51
58.974003899614786
  0
LINE
  5
DF
100
AcDbEntity
  8
0
  6
CONTINUOUS
 62
               7
100
AcDbLine
 10
2.0199999999999818
 20
-17.5
 30
0.0
 11
4.039999999999992
 21
-14.0
 31
0.0
  0
LINE
  5
E0
100
AcDbEntity
  8
0
  6
CONTINUOUS
 62
               7
100
AcDbLine
 10
4.039999999999992
 20
-14.0
 30
0.0
 11
2.0199999999999818
 21
-10.5
 31
0.0
  0
LINE
  5
E1
100
AcDbEntity
  8
0
  6
CONTINUOUS
 62
               7
100
AcDbLine
 10
-2.0219999999999914
 20
-10.5
 30
0.0
 11
-4.0420000000000016
 21
-14.0
 31
0.0
  0
LINE
  5
E2
100
AcDbEntity
  8
0
  6
CONTINUOUS
 62
               7
100
AcDbLine
 10
-4.0420000000000016
 20
-14.0
 30
0.0
 11
-2.0219999999999914
 21
-17.5
 31
0.0
  0
ARC
  5
E3
100
AcDbEntity
  8
0
  6
CONTINUOUS
 62
               7
100
AcDbCircle
 10
-0.0013335632787062
 20
-13.999000000000024
 30
0.0
 40
3.5005717393672393
100
AcDbArc
 50
99.847107000931288
 51
260.15289299906789
  0
ARC
  5
E4
100
AcDbEntity
  8
0
  6
CONTINUOUS
 62
               7
100
AcDbCircle
 10
-0.00133361211644
 20
-13.999000000000024
 30
0.0
 40
3.5010288649282808
100
AcDbArc
 50
279.89011336923943
 51
80.109886630759732
  0
CIRCLE
  5
E5
100
AcDbEntity
  8
0
  6
CONTINUOUS
 62
               7
100
AcDbCircle
 10
0.0
 20
-14.0
 30
0.0
 40
4.2000000000000002
  0
LINE
  5
E6
100
AcDbEntity
  8
0
  6
CONTINUOUS
 62
               4
100
AcDbLine
 10
-3.5
 20
-26.0
 30
0.0
 11
-3.5
 21
-27.0
 31
0.0
  0
LINE
  5
E7
100
AcDbEntity
  8
0
  6
CONTINUOUS
 62
               4
100
AcDbLine
 10
3.5
 20
-26.0
 30
0.0
 11
3.5
 21
-27.0
 31
0.0
  0
LINE
  5
E8
100
AcDbEntity
  8
0
  6
CONTINUOUS
 62
               4
100
AcDbLine
 10
-3.5
 20
-27.0
 30
0.0
 11
3.5
 21
-27.0
 31
0.0
  0
LINE
  5
EA
100
AcDbEntity
  8
0
  6
PHANTOM
 62
               2
100
AcDbLine
 10
-27.591154277324677
 20
-6.099999975623291
 30
0.0
 11
-29.785085305571556
 21
-2.299999963702362
 31
0.0
  0
LINE
  5
EB
100
AcDbEntity
  8
0
  6
PHANTOM
 62
               2
100
AcDbLine
 10
-28.51491467654705
 20
-6.1000000054256134
 30
0.0
 11
-30.708845719695088
 21
-2.299999963702362
 31
0.0
  0
LINE
  5
EC
100
AcDbEntity
  8
0
  6
PHANTOM
 62
               2
100
AcDbLine
 10
-32.57209438085556
 20
-5.6999999994651489
 30
0.0
 11
-34.304145202040672
 21
-2.6999999696628265
 31
0.0
  0
LINE
  5
ED
100
AcDbEntity
  8
0
  6
PHANTOM
 62
               2
100
AcDbLine
 10
-33.495854765176773
 20
-5.6999999994651489
 30
0.0
 11
-35.227905571460724
 21
-2.6999999994651489
 31
0.0
  0
LINE
  5
EE
100
AcDbEntity
  8
0
  6
CONTINUOUS
 62
               7
100
AcDbLine
 10
-30.362435538355783
 20
-2.8999999999999204
 30
0.0
 11
-31.899999988148064
 21
-2.8999999999999204
 31
0.0
  0
LINE
  5
EF
100
AcDbEntity
  8
0
  6
CONTINUOUS
 62
               7
100
AcDbLine
 10
-28.861324838462735
 20
-5.4999999999999432
 30
0.0
 11
-31.899999988148064
 21
-5.4999999999999432
 31
0.0
  0
LINE
  5
F0
100
AcDbEntity
  8
0
  6
CONTINUOUS
 62
               7
100
AcDbLine
 10
-26.399999988148068
 20
-2.8999999999999204
 30
0.0
 11
-29.438675139133409
 21
-2.8999999999999204
 31
0.0
  0
LINE
  5
F1
100
AcDbEntity
  8
0
  6
CONTINUOUS
 62
               7
100
AcDbLine
 10
-26.399999988148068
 20
-5.4999999999999432
 30
0.0
 11
-27.937564439240361
 21
-5.4999999999999432
 31
0.0
  0
LINE
  5
F2
100
AcDbEntity
  8
0
  6
CONTINUOUS
 62
               7
100
AcDbLine
 10
-35.899999988148068
 20
-3.4999999999999432
 30
0.0
 11
-37.899999988148068
 21
-3.4999999999999432
 31
0.0
  0
LINE
  5
F3
100
AcDbEntity
  8
0
  6
CONTINUOUS
 62
               7
100
AcDbLine
 10
-35.899999988148068
 20
-3.9999999999999432
 30
0.0
 11
-37.899999988148068
 21
-3.9999999999999432
 31
0.0
  0
LINE
  5
F4
100
AcDbEntity
  8
0
  6
CONTINUOUS
 62
               7
100
AcDbLine
 10
-35.899999988148068
 20
-4.3999999999999204
 30
0.0
 11
-37.899999988148068
 21
-4.3999999999999204
 31
0.0
  0
LINE
  5
F5
100
AcDbEntity
  8
0
  6
CONTINUOUS
 62
               7
100
AcDbLine
 10
-35.899999988148068
 20
-4.8999999999999204
 30
0.0
 11
-37.899999988148068
 21
-4.8999999999999204
 31
0.0
  0
LINE
  5
F6
100
AcDbEntity
  8
0
  6
CONTINUOUS
 62
               7
100
AcDbLine
 10
-33.842264926124813
 20
-5.0999999999999091
 30
0.0
 11
-35.899999988148068
 21
-5.0999999999999091
 31
0.0
  0
LINE
  5
F7
100
AcDbEntity
  8
0
  6
CONTINUOUS
 62
               7
100
AcDbLine
 10
-31.899999988148064
 20
-5.0999999999999091
 30
0.0
 11
-32.859999988148104
 21
-5.0999999999999091
 31
0.0
  0
LINE
  5
F8
100
AcDbEntity
  8
0
  6
CONTINUOUS
 62
               7
100
AcDbLine
 10
-34.881495409895194
 20
-3.2999999999998977
 30
0.0
 11
-35.899999988148068
 21
-3.2999999999998977
 31
0.0
  0
LINE
  5
F9
100
AcDbEntity
  8
0
  6
CONTINUOUS
 62
               7
100
AcDbLine
 10
-34.361880168009975
 20
-4.1999999999999318
 30
0.0
 11
-35.899999988148068
 21
-4.1999999999999318
 31
0.0
  0
LINE
  5
FA
100
AcDbEntity
  8
0
  6
CONTINUOUS
 62
               7
100
AcDbLine
 10
-31.899999988148064
 20
-4.1999999999999318
 30
0.0
 11
-33.379999988148086
 21
-4.1999999999999318
 31
0.0
  0
LINE
  5
FB
100
AcDbEntity
  8
0
  6
CONTINUOUS
 62
               7
100
AcDbLine
 10
-31.899999988148064
 20
-3.2999999999998977
 30
0.0
 11
-33.899999988148068
 21
-3.2999999999998977
 31
0.0
  0
LINE
  5
FC
100
AcDbEntity
  8
0
  6
CONTINUOUS
 62
               7
100
AcDbLine
 10
-35.899999988148068
 20
-5.0999999999999091
 30
0.0
 11
-35.899999988148068
 21
-3.2999999999998977
 31
0.0
  0
LINE
  5
FD
100
AcDbEntity
  8
0
  6
CONTINUOUS
 62
               7
100
AcDbLine
 10
-37.899999988148068
 20
-3.9999999999999432
 30
0.0
 11
-37.899999988148068
 21
-3.4999999999999432
 31
0.0
  0
LINE
  5
FE
100
AcDbEntity
  8
0
  6
CONTINUOUS
 62
               7
100
AcDbLine
 10
-37.899999988148068
 20
-4.8999999999999204
 30
0.0
 11
-37.899999988148068
 21
-4.3999999999999204
 31
0.0
  0
LINE
  5
FF
100
AcDbEntity
  8
0
  6
CENTER
 62
               2
100
AcDbLine
 10
-31.001543729590022
 20
-3.7499999999999432
 30
0.0
 11
-38.522492207121047
 21
-3.7499999999999432
 31
0.0
  0
LINE
  5
100
100
AcDbEntity
  8
0
  6
CENTER
 62
               2
100
AcDbLine
 10
-31.001543729590022
 20
-4.6499999999999204
 30
0.0
 11
-38.522492207121047
 21
-4.6499999999999204
 31
0.0
  0
LINE
  5
101
100
AcDbEntity
  8
0
  6
CONTINUOUS
 62
               7
100
AcDbLine
 10
-31.899999988148064
 20
-5.4999999999999432
 30
0.0
 11
-31.899999988148064
 21
-2.8999999999999204
 31
0.0
  0
LINE
  5
102
100
AcDbEntity
  8
0
  6
CONTINUOUS
 62
               7
100
AcDbLine
 10
-21.899999988148068
 20
-2.4499999999999318
 30
0.0
 11
-20.899999988148068
 21
-2.4499999999999318
 31
0.0
  0
LINE
  5
103
100
AcDbEntity
  8
0
  6
CONTINUOUS
 62
               7
100
AcDbLine
 10
-21.899999988148068
 20
-5.9499999999999318
 30
0.0
 11
-20.899999988148068
 21
-5.9499999999999318
 31
0.0
  0
LINE
  5
104
100
AcDbEntity
  8
0
  6
CONTINUOUS
 62
               7
100
AcDbLine
 10
-24.399999988148068
 20
-2.4499999999999318
 30
0.0
 11
-23.399999988148068
 21
-2.4499999999999318
 31
0.0
  0
LINE
  5
105
100
AcDbEntity
  8
0
  6
CONTINUOUS
 62
               7
100
AcDbLine
 10
-24.399999988148068
 20
-5.9499999999999318
 30
0.0
 11
-23.399999988148068
 21
-5.9499999999999318
 31
0.0
  0
LINE
  5
106
100
AcDbEntity
  8
0
  6
CONTINUOUS
 62
               7
100
AcDbLine
 10
-20.899999988148068
 20
-1.4142857142856542
 30
0.0
 11
-19.399999988148068
 21
-1.1999999999999318
 31
0.0
  0
LINE
  5
107
100
AcDbEntity
  8
0
  6
CONTINUOUS
 62
               7
100
AcDbLine
 10
-23.399999988148068
 20
-1.771428571428487
 30
0.0
 11
-21.899999988148068
 21
-1.5571428571428214
 31
0.0
  0
LINE
  5
108
100
AcDbEntity
  8
0
  6
CONTINUOUS
 62
               7
100
AcDbLine
 10
-20.899999988148068
 20
-6.9857142857142094
 30
0.0
 11
-19.399999988148068
 21
-7.1999999999999318
 31
0.0
  0
LINE
  5
109
100
AcDbEntity
  8
0
  6
CONTINUOUS
 62
               7
100
AcDbLine
 10
-23.399999988148068
 20
-6.6285714285713766
 30
0.0
 11
-21.899999988148068
 21
-6.842857142857099
 31
0.0
  0
LINE
  5
10A
100
AcDbEntity
  8
0
  6
CONTINUOUS
 62
               7
100
AcDbLine
 10
-20.899999988148068
 20
-1.4142857142856542
 30
0.0
 11
-20.899999988148068
 21
-6.9857142857142094
 31
0.0
  0
LINE
  5
10B
100
AcDbEntity
  8
0
  6
CONTINUOUS
 62
               7
100
AcDbLine
 10
-21.899999988148068
 20
-1.5571428571428214
 30
0.0
 11
-21.899999988148068
 21
-6.842857142857099
 31
0.0
  0
LINE
  5
10C
100
AcDbEntity
  8
0
  6
CONTINUOUS
 62
               7
100
AcDbLine
 10
-23.399999988148068
 20
-1.771428571428487
 30
0.0
 11
-23.399999988148068
 21
-6.6285714285713766
 31
0.0
  0
LINE
  5
10D
100
AcDbEntity
  8
0
  6
CONTINUOUS
 62
               7
100
AcDbLine
 10
-24.399999988148068
 20
-1.9142857142856542
 30
0.0
 11
-24.399999988148068
 21
-6.4857142857142094
 31
0.0
  0
LINE
  5
10E
100
AcDbEntity
  8
0
  6
CONTINUOUS
 62
               7
100
AcDbLine
 10
-26.399999988148068
 20
-2.1999999999999318
 30
0.0
 11
-24.399999988148068
 21
-1.9142857142856542
 31
0.0
  0
LINE
  5
10F
100
AcDbEntity
  8
0
  6
CONTINUOUS
 62
               7
100
AcDbLine
 10
-26.399999988148068
 20
-6.1999999999999318
 30
0.0
 11
-24.399999988148068
 21
-6.4857142857142094
 31
0.0
  0
LINE
  5
110
100
AcDbEntity
  8
0
  6
CONTINUOUS
 62
               7
100
AcDbLine
 10
-26.399999988148068
 20
-2.1999999999999318
 30
0.0
 11
-26.399999988148068
 21
-6.1999999999999318
 31
0.0
  0
LINE
  5
111
100
AcDbEntity
  8
0
  6
CONTINUOUS
 62
               7
100
AcDbLine
 10
-19.399999988148068
 20
-1.1999999999999318
 30
0.0
 11
-19.399999988148068
 21
-7.1999999999999318
 31
0.0
  0
LINE
  5
112
100
AcDbEntity
  8
0
  6
CONTINUOUS
 62
               7
100
AcDbLine
 10
-19.399999988148068
 20
-7.1999999999999318
 30
0.0
 11
-18.99999998814809
 21
-7.1999999999999318
 31
0.0
  0
LINE
  5
113
100
AcDbEntity
  8
0
  6
CONTINUOUS
 62
               7
100
AcDbLine
 10
-19.399999988148068
 20
-1.1999999999999318
 30
0.0
 11
-18.99999998814809
 21
-1.1999999999999318
 31
0.0
  0
LINE
  5
114
100
AcDbEntity
  8
0
  6
CONTINUOUS
 62
               7
100
AcDbLine
 10
-18.182320272248575
 20
-20.412668459159931
 30
0.0
 11
-18.50436325589726
 21
-20.408329810536259
 31
0.0
  0
LINE
  5
115
100
AcDbEntity
  8
0
  6
CONTINUOUS
 62
               7
100
AcDbLine
 10
-17.799999988148102
 20
-20.5
 30
0.0
 11
-17.899999988148096
 21
-20.5
 31
0.0
  0
LINE
  5
116
100
AcDbEntity
  8
0
  6
CONTINUOUS
 62
               7
100
AcDbLine
 10
-18.399999988148096
 20
-20.0
 30
0.0
 11
-18.399999988148096
 21
-18.0
 31
0.0
  0
ARC
  5
117
100
AcDbEntity
  8
0
  6
CONTINUOUS
 62
               7
100
AcDbCircle
 10
-17.899999988148096
 20
-18.0
 30
0.0
 40
0.5
100
AcDbArc
 50
89.999999999999815
 51
179.99999999999963
  0
LINE
  5
118
100
AcDbEntity
  8
0
  6
CONTINUOUS
 62
               7
100
AcDbLine
 10
-17.799999988148102
 20
-17.5
 30
0.0
 11
-17.899999988148096
 21
-17.5
 31
0.0
  0
ARC
  5
119
100
AcDbEntity
  8
0
  6
CONTINUOUS
 62
               7
100
AcDbCircle
 10
-17.899999988148096
 20
-20.0
 30
0.0
 40
0.5
100
AcDbArc
 50
179.99999999999963
 51
269.99999999999937
  0
LINE
  5
11A
100
AcDbEntity
  8
0
  6
CONTINUOUS
 62
               7
100
AcDbLine
 10
-8.0
 20
-0.0000000075924049
 30
0.0
 11
-8.0
 21
-21.000000007592405
 31
0.0
  0
LINE
  5
11B
100
AcDbEntity
  8
0
  6
CONTINUOUS
 62
               7
100
AcDbLine
 10
-8.0
 20
-21.0
 30
0.0
 11
-10.0
 21
-21.0
 31
0.0
  0
ARC
  5
11C
100
AcDbEntity
  8
0
  6
CONTINUOUS
 62
               7
100
AcDbCircle
 10
-18.49999998814809
 20
-19.908348849004142
 30
0.0
 40
0.5
100
AcDbArc
 50
179.99999999999963
 51
269.49999999999955
  0
LINE
  5
11D
100
AcDbEntity
  8
0
  6
CONTINUOUS
 62
               7
100
AcDbLine
 10
-11.699999988148079
 20
-20.499999999999943
 30
0.0
 11
-17.799999988148102
 21
-20.417819179587411
 31
0.0
  0
LINE
  5
11E
100
AcDbEntity
  8
0
  6
CONTINUOUS
 62
               7
100
AcDbLine
 10
-12.699999988148079
 20
-15.499999999999943
 30
0.0
 11
-13.599999988148056
 21
-15.499999999999943
 31
0.0
  0
LINE
  5
11F
100
AcDbEntity
  8
0
  6
CONTINUOUS
 62
               7
100
AcDbLine
 10
-13.599999988148056
 20
-16.699999999999932
 30
0.0
 11
-12.699999988148079
 21
-16.699999999999932
 31
0.0
  0
LINE
  5
120
100
AcDbEntity
  8
0
  6
CONTINUOUS
 62
               7
100
AcDbLine
 10
-12.699999988148079
 20
-15.499999999999943
 30
0.0
 11
-12.699999988148079
 21
-16.699999999999932
 31
0.0
  0
LINE
  5
121
100
AcDbEntity
  8
0
  6
CONTINUOUS
 62
               7
100
AcDbLine
 10
-13.599999988148056
 20
-15.499999999999943
 30
0.0
 11
-13.599999988148056
 21
-16.699999999999932
 31
0.0
  0
LINE
  5
122
100
AcDbEntity
  8
0
  6
CONTINUOUS
 62
               7
100
AcDbLine
 10
-12.699999988148079
 20
-15.599999999999966
 30
0.0
 11
-13.549999988148102
 21
-15.599999999999966
 31
0.0
  0
LINE
  5
123
100
AcDbEntity
  8
0
  6
CONTINUOUS
 62
               7
100
AcDbLine
 10
-12.699999988148079
 20
-16.599999999999966
 30
0.0
 11
-13.549999988148102
 21
-16.599999999999966
 31
0.0
  0
LINE
  5
124
100
AcDbEntity
  8
0
  6
CONTINUOUS
 62
               7
100
AcDbLine
 10
-13.549999988148102
 20
-15.599999999999966
 30
0.0
 11
-13.549999988148102
 21
-16.599999999999966
 31
0.0
  0
LINE
  5
125
100
AcDbEntity
  8
0
  6
CONTINUOUS
 62
               7
100
AcDbLine
 10
-12.849999988148056
 20
-15.599999999999966
 30
0.0
 11
-12.849999988148056
 21
-16.599999999999966
 31
0.0
  0
LINE
  5
126
100
AcDbEntity
  8
0
  6
CENTER
 62
               2
100
AcDbLine
 10
-17.195856974999174
 20
-19.0
 30
0.0
 11
-19.435449279208399
 21
-19.0
 31
0.0
  0
LINE
  5
127
100
AcDbEntity
  8
0
  6
CONTINUOUS
 62
               7
100
AcDbLine
 10
-17.799999988148102
 20
-20.5
 30
0.0
 11
-17.799999988148102
 21
-17.399999999999977
 31
0.0
  0
LINE
  5
128
100
AcDbEntity
  8
0
  6
CONTINUOUS
 62
               7
100
AcDbLine
 10
-17.799999988148102
 20
-17.399999999999977
 30
0.0
 11
-18.99999998814809
 21
-17.399999999999977
 31
0.0
  0
LINE
  5
129
100
AcDbEntity
  8
0
  6
CONTINUOUS
 62
               7
100
AcDbLine
 10
-11.699999988148079
 20
-20.499999999999943
 30
0.0
 11
-8.0
 21
-20.467710589277601
 31
0.0
  0
ARC
  5
12A
100
AcDbEntity
  8
0
  6
CONTINUOUS
 62
               7
100
AcDbCircle
 10
-18.49999998814809
 20
-1.0916511509958013
 30
0.0
 40
0.5
100
AcDbArc
 50
90.500000000000071
 51
179.99999999999963
  0
LINE
  5
12B
100
AcDbEntity
  8
0
  6
CONTINUOUS
 62
               7
100
AcDbLine
 10
-11.699999988148079
 20
-0.4999999999999432
 30
0.0
 11
-18.50436325589726
 21
-0.5916701894636844
 31
0.0
  0
LINE
  5
12C
100
AcDbEntity
  8
0
  6
CONTINUOUS
 62
               7
100
AcDbLine
 10
-13.599999988148056
 20
-4.2999999999999545
 30
0.0
 11
-12.699999988148079
 21
-4.2999999999999545
 31
0.0
  0
LINE
  5
12D
100
AcDbEntity
  8
0
  6
CONTINUOUS
 62
               7
100
AcDbLine
 10
-12.699999988148079
 20
-5.4999999999999432
 30
0.0
 11
-13.599999988148056
 21
-5.4999999999999432
 31
0.0
  0
LINE
  5
12E
100
AcDbEntity
  8
0
  6
CENTER
 62
               2
100
AcDbLine
 10
-31.899999988148064
 20
-4.1999999999999318
 30
0.0
 11
-17.799999988148102
 21
-4.1999999999999318
 31
0.0
  0
LINE
  5
12F
100
AcDbEntity
  8
0
  6
CONTINUOUS
 62
               7
100
AcDbLine
 10
-12.849999988148056
 20
-4.3999999999999204
 30
0.0
 11
-12.849999988148056
 21
-5.3999999999999204
 31
0.0
  0
LINE
  5
130
100
AcDbEntity
  8
0
  6
CONTINUOUS
 62
               7
100
AcDbLine
 10
-13.549999988148102
 20
-4.3999999999999204
 30
0.0
 11
-13.549999988148102
 21
-5.3999999999999204
 31
0.0
  0
LINE
  5
131
100
AcDbEntity
  8
0
  6
CONTINUOUS
 62
               7
100
AcDbLine
 10
-12.699999988148079
 20
-5.3999999999999204
 30
0.0
 11
-13.549999988148102
 21
-5.3999999999999204
 31
0.0
  0
LINE
  5
132
100
AcDbEntity
  8
0
  6
CONTINUOUS
 62
               7
100
AcDbLine
 10
-12.699999988148079
 20
-4.3999999999999204
 30
0.0
 11
-13.549999988148102
 21
-4.3999999999999204
 31
0.0
  0
LINE
  5
133
100
AcDbEntity
  8
0
  6
CONTINUOUS
 62
               7
100
AcDbLine
 10
-13.599999988148056
 20
-4.2999999999999545
 30
0.0
 11
-13.599999988148056
 21
-5.4999999999999432
 31
0.0
  0
LINE
  5
134
100
AcDbEntity
  8
0
  6
CONTINUOUS
 62
               7
100
AcDbLine
 10
-12.699999988148079
 20
-4.2999999999999545
 30
0.0
 11
-12.699999988148079
 21
-5.4999999999999432
 31
0.0
  0
LINE
  5
135
100
AcDbEntity
  8
0
  6
CONTINUOUS
 62
               7
100
AcDbLine
 10
-11.699999988148079
 20
-0.4999999999999432
 30
0.0
 11
-11.699999988148079
 21
-20.499999999999943
 31
0.0
  0
LINE
  5
136
100
AcDbEntity
  8
0
  6
CONTINUOUS
 62
               7
100
AcDbLine
 10
-18.99999998814809
 20
-1.0916511509958013
 30
0.0
 11
-18.99999998814809
 21
-19.908348849004142
 31
0.0
  0
LINE
  5
137
100
AcDbEntity
  8
0
  6
CONTINUOUS
 62
               7
100
AcDbLine
 10
-11.699999988148079
 20
-0.4999999999999432
 30
0.0
 11
-8.0
 21
-0.5322894107223419
 31
0.0
  0
LINE
  5
138
100
AcDbEntity
  8
0
  6
CONTINUOUS
 62
               7
100
AcDbLine
 10
10.0
 20
-25.699999999999989
 30
0.0
 11
-10.0
 21
-25.699999999999989
 31
0.0
  0
LINE
  5
139
100
AcDbEntity
  8
0
  6
CONTINUOUS
 62
               7
100
AcDbLine
 10
10.0
 20
-25.699999999999989
 30
0.0
 11
9.6999999999999886
 21
-26.0
 31
0.0
  0
LINE
  5
13A
100
AcDbEntity
  8
0
  6
CONTINUOUS
 62
               7
100
AcDbLine
 10
-9.6999999999999886
 20
-26.0
 30
0.0
 11
9.6999999999999886
 21
-26.0
 31
0.0
  0
LINE
  5
13B
100
AcDbEntity
  8
0
  6
CONTINUOUS
 62
               7
100
AcDbLine
 10
-9.6999999999999886
 20
-26.0
 30
0.0
 11
-10.0
 21
-25.699999999999989
 31
0.0
  0
LINE
  5
13C
100
AcDbEntity
  8
0
  6
CONTINUOUS
 62
               7
100
AcDbLine
 10
9.5
 20
0.0
 30
0.0
 11
-8.0
 21
0.0
 31
0.0
  0
LINE
  5
13D
100
AcDbEntity
  8
0
  6
CONTINUOUS
 62
               7
100
AcDbLine
 10
10.0
 20
-0.5
 30
0.0
 11
10.0
 21
-4.5
 31
0.0
  0
LINE
  5
13E
100
AcDbEntity
  8
0
  6
CONTINUOUS
 62
               7
100
AcDbLine
 10
9.5
 20
-5.0
 30
0.0
 11
-8.0
 21
-5.0
 31
0.0
  0
LINE
  5
13F
100
AcDbEntity
  8
0
  6
CENTER
 62
               2
100
AcDbLine
 10
0.0
 20
2.0
 30
0.0
 11
0.0
 21
-28.699999999999989
 31
0.0
  0
LINE
  5
140
100
AcDbEntity
  8
0
  6
CENTER
 62
               2
100
AcDbLine
 10
5.582299500478257
 20
-14.0
 30
0.0
 11
-5.6689152938675704
 21
-14.0
 31
0.0
  0
LINE
  5
141
100
AcDbEntity
  8
0
  6
CONTINUOUS
 62
               7
100
AcDbLine
 10
9.5
 20
-5.0
 30
0.0
 11
10.0
 21
-5.5
 31
0.0
  0
LINE
  5
142
100
AcDbEntity
  8
0
  6
CONTINUOUS
 62
               7
100
AcDbLine
 10
10.0
 20
-4.5
 30
0.0
 11
9.5
 21
-5.0
 31
0.0
  0
LINE
  5
143
100
AcDbEntity
  8
0
  6
CONTINUOUS
 62
               7
100
AcDbLine
 10
10.0
 20
-5.5
 30
0.0
 11
10.0
 21
-25.699999999999989
 31
0.0
  0
LINE
  5
144
100
AcDbEntity
  8
0
  6
CONTINUOUS
 62
               7
100
AcDbLine
 10
-10.0
 20
-21.0
 30
0.0
 11
-10.0
 21
-25.699999999999989
 31
0.0
  0
LINE
  5
145
100
AcDbEntity
  8
0
  6
CONTINUOUS
 62
               7
100
AcDbLine
 10
10.0
 20
-0.5
 30
0.0
 11
9.5
 21
0.0
 31
0.0
  0
LINE
  5
146
100
AcDbEntity
  8
0
  6
CONTINUOUS
 62
               7
100
AcDbLine
 10
10.0
 20
-0.5
 30
0.0
 11
-8.0
 21
-0.5
 31
0.0
  0
LINE
  5
147
100
AcDbEntity
  8
0
  6
CONTINUOUS
 62
               7
100
AcDbLine
 10
10.0
 20
-5.5
 30
0.0
 11
-8.0
 21
-5.5
 31
0.0
  0
LINE
  5
148
100
AcDbEntity
  8
0
  6
CONTINUOUS
 62
               7
100
AcDbLine
 10
10.0
 20
-4.5
 30
0.0
 11
-8.0
 21
-4.5
 31
0.0
  0
LINE
  5
149
100
AcDbEntity
  8
0
  6
DASHED
 62
               2
100
AcDbLine
 10
5.0
 20
-0.5
 30
0.0
 11
5.5
 21
0.0
 31
0.0
  0
LINE
  5
14A
100
AcDbEntity
  8
0
  6
DASHED
 62
               2
100
AcDbLine
 10
5.0
 20
-0.5
 30
0.0
 11
5.0
 21
-3.5
 31
0.0
  0
LINE
  5
14B
100
AcDbEntity
  8
0
  6
DASHED
 62
               2
100
AcDbLine
 10
5.0
 20
-3.5
 30
0.0
 11
-5.0
 21
-3.5
 31
0.0
  0
LINE
  5
14C
100
AcDbEntity
  8
0
  6
DASHED
 62
               2
100
AcDbLine
 10
-5.0
 20
-0.5
 30
0.0
 11
-5.0
 21
-3.5
 31
0.0
  0
LINE
  5
14D
100
AcDbEntity
  8
0
  6
DASHED
 62
               2
100
AcDbLine
 10
-5.5
 20
0.0
 30
0.0
 11
-5.0
 21
-0.5
 31
0.0
  0
LINE
  5
14E
100
AcDbEntity
  8
0
  6
DASHED
 62
               2
100
AcDbLine
 10
2.0999999999999943
 20
-3.5
 30
0.0
 11
2.0999999999999943
 21
-7.4888067257199395
 31
0.0
  0
LINE
  5
14F
100
AcDbEntity
  8
0
  6
DASHED
 62
               2
100
AcDbLine
 10
-2.0999999999999943
 20
-3.5
 30
0.0
 11
-2.0999999999999943
 21
-7.4888067257199395
 31
0.0
  0
LINE
  5
150
100
AcDbEntity
  8
0
  6
DASHED
 62
               2
100
AcDbLine
 10
2.5
 20
-3.5
 30
0.0
 11
2.5
 21
-6.7894597256052407
 31
0.0
  0
LINE
  5
151
100
AcDbEntity
  8
0
  6
DASHED
 62
               2
100
AcDbLine
 10
-2.5
 20
-3.5
 30
0.0
 11
-2.5
 21
-6.7894597256052407
 31
0.0
  0
ENDBLK
  5
152
100
AcDbEntity
  8
0
100
AcDbBlockEnd
  0
BLOCK
  5
153
100
AcDbEntity
  8
0
100
AcDbBlockBegin
  2
NCT20-5
 70
               0
 10
0.0
 20
0.0
 30
0.0
  3
NCT20-5
  1

  0
CIRCLE
  5
154
100
AcDbEntity
  8
0
  6
CONTINUOUS
 62
               7
100
AcDbCircle
 10
0.0
 20
0.0
 30
0.0
 40
5.5
  0
CIRCLE
  5
155
100
AcDbEntity
  8
0
  6
CONTINUOUS
 62
               7
100
AcDbCircle
 10
0.0
 20
0.0
 30
0.0
 40
5.0
  0
LINE
  5
156
100
AcDbEntity
  8
0
  6
CENTER
 62
               2
100
AcDbLine
 10
0.0
 20
0.0
 30
0.0
 11
-5.8166019384642311
 21
-10.074650084823702
 31
0.0
  0
LINE
  5
157
100
AcDbEntity
  8
0
  6
CENTER
 62
               2
100
AcDbLine
 10
-10.928806231895322
 20
0.0
 30
0.0
 11
11.629836014675902
 21
0.0
 31
0.0
  0
LINE
  5
158
100
AcDbEntity
  8
0
  6
CENTER
 62
               2
100
AcDbLine
 10
0.0
 20
11.999999999999986
 30
0.0
 11
0.0
 21
-12.0
 31
0.0
  0
ARC
  5
159
100
AcDbEntity
  8
0
  6
CONTINUOUS
 62
               7
100
AcDbCircle
 10
0.0
 20
0.0
 30
0.0
 40
9.4999999999999929
100
AcDbArc
 50
212.6368975035532
 51
147.363102496446
  0
ARC
  5
15A
100
AcDbEntity
  8
0
  6
CONTINUOUS
 62
               7
100
AcDbCircle
 10
0.0
 20
0.0
 30
0.0
 40
10.0
100
AcDbArc
 50
209.82552560780528
 51
150.17447440319103
  0
CIRCLE
  5
15B
100
AcDbEntity
  8
0
  6
CENTER
 62
               2
100
AcDbCircle
 10
0.0
 20
0.0
 30
0.0
 40
7.5
  0
CIRCLE
  5
15C
100
AcDbEntity
  8
0
  6
CONTINUOUS
 62
               7
100
AcDbCircle
 10
-3.75
 20
-6.4951905283833185
 30
0.0
 40
1.25
  0
CIRCLE
  5
15D
100
AcDbEntity
  8
0
  6
CONTINUOUS
 62
               2
100
AcDbCircle
 10
-3.75
 20
-6.4951905283833185
 30
0.0
 40
1.5
  0
CIRCLE
  5
15E
100
AcDbEntity
  8
0
  6
CONTINUOUS
 62
               2
100
AcDbCircle
 10
-3.75
 20
6.4951905283833185
 30
0.0
 40
1.5
  0
CIRCLE
  5
15F
100
AcDbEntity
  8
0
  6
CONTINUOUS
 62
               2
100
AcDbCircle
 10
7.5
 20
0.0
 30
0.0
 40
1.5
  0
CIRCLE
  5
160
100
AcDbEntity
  8
0
  6
CONTINUOUS
 62
               7
100
AcDbCircle
 10
7.5
 20
0.0
 30
0.0
 40
1.25
  0
CIRCLE
  5
161
100
AcDbEntity
  8
0
  6
CONTINUOUS
 62
               7
100
AcDbCircle
 10
-3.75
 20
6.4951905283833185
 30
0.0
 40
1.25
  0
LINE
  5
162
100
AcDbEntity
  8
0
  6
CONTINUOUS
 62
               7
100
AcDbLine
 10
-8.0
 20
5.123475382979791
 30
0.0
 11
-8.0
 21
-5.123475382979791
 31
0.0
  0
LINE
  5
163
100
AcDbEntity
  8
0
  6
CONTINUOUS
 62
               7
100
AcDbLine
 10
-11.699999988148079
 20
-5.0000000016734134
 30
0.0
 11
-11.699999988148079
 21
5.0
 31
0.0
  0
LINE
  5
164
100
AcDbEntity
  8
0
  6
CONTINUOUS
 62
               7
100
AcDbLine
 10
-18.99999998814809
 20
-4.4083488506776121
 30
0.0
 11
-18.99999998814809
 21
4.4083488490041418
 31
0.0
  0
LINE
  5
165
100
AcDbEntity
  8
0
  6
CONTINUOUS
 62
               7
100
AcDbLine
 10
-17.799999988148102
 20
1.8999999999999773
 30
0.0
 11
-18.99999998814809
 21
1.8999999999999773
 31
0.0
  0
LINE
  5
166
100
AcDbEntity
  8
0
  6
CONTINUOUS
 62
               7
100
AcDbLine
 10
-17.799999988148102
 20
1.8999999999999773
 30
0.0
 11
-17.799999988148102
 21
5.0
 31
0.0
  0
LINE
  5
167
100
AcDbEntity
  8
0
  6
CENTER
 62
               2
100
AcDbLine
 10
-17.195856974999202
 20
3.5
 30
0.0
 11
-19.399999988148096
 21
3.5
 31
0.0
  0
LINE
  5
168
100
AcDbEntity
  8
0
  6
CENTER
 62
               2
100
AcDbLine
 10
-31.899999988148092
 20
-1.4000000000000341
 30
0.0
 11
-17.799999988148102
 21
-1.4000000000000341
 31
0.0
  0
LINE
  5
169
100
AcDbEntity
  8
0
  6
CONTINUOUS
 62
               7
100
AcDbLine
 10
-19.399999988148096
 20
1.5999999999999659
 30
0.0
 11
-18.99999998814809
 21
1.5999999999999659
 31
0.0
  0
LINE
  5
16A
100
AcDbEntity
  8
0
  6
CONTINUOUS
 62
               7
100
AcDbLine
 10
-19.399999988148096
 20
-4.4000000000000341
 30
0.0
 11
-18.99999998814809
 21
-4.4000000000000341
 31
0.0
  0
LINE
  5
16B
100
AcDbEntity
  8
0
  6
PHANTOM
 62
               2
100
AcDbLine
 10
-27.591154277324677
 20
-3.2999999756233365
 30
0.0
 11
-29.785085305571556
 21
0.5000000362975925
 31
0.0
  0
LINE
  5
16C
100
AcDbEntity
  8
0
  6
PHANTOM
 62
               2
100
AcDbLine
 10
-28.51491467654705
 20
-3.3000000054256589
 30
0.0
 11
-30.708845719695088
 21
0.5000000362975925
 31
0.0
  0
LINE
  5
16D
100
AcDbEntity
  8
0
  6
PHANTOM
 62
               2
100
AcDbLine
 10
-32.57209438085556
 20
-2.8999999994651944
 30
0.0
 11
-34.304145202040672
 21
0.100000030337128
 31
0.0
  0
LINE
  5
16E
100
AcDbEntity
  8
0
  6
PHANTOM
 62
               2
100
AcDbLine
 10
-33.495854765176773
 20
-2.8999999994651944
 30
0.0
 11
-35.227905571460724
 21
0.1000000005348056
 31
0.0
  0
LINE
  5
16F
100
AcDbEntity
  8
0
  6
CONTINUOUS
 62
               7
100
AcDbLine
 10
-30.362435538355783
 20
-0.1000000000000227
 30
0.0
 11
-31.899999988148092
 21
-0.1000000000000227
 31
0.0
  0
LINE
  5
170
100
AcDbEntity
  8
0
  6
CONTINUOUS
 62
               7
100
AcDbLine
 10
-28.861324838462735
 20
-2.6999999999999886
 30
0.0
 11
-31.899999988148092
 21
-2.6999999999999886
 31
0.0
  0
LINE
  5
171
100
AcDbEntity
  8
0
  6
CONTINUOUS
 62
               7
100
AcDbLine
 10
-26.399999988148096
 20
-0.1000000000000227
 30
0.0
 11
-29.438675139133409
 21
-0.1000000000000227
 31
0.0
  0
LINE
  5
172
100
AcDbEntity
  8
0
  6
CONTINUOUS
 62
               7
100
AcDbLine
 10
-26.399999988148096
 20
-2.6999999999999886
 30
0.0
 11
-27.937564439240361
 21
-2.6999999999999886
 31
0.0
  0
LINE
  5
173
100
AcDbEntity
  8
0
  6
CONTINUOUS
 62
               7
100
AcDbLine
 10
-35.899999988148068
 20
-0.6999999999999886
 30
0.0
 11
-37.899999988148068
 21
-0.6999999999999886
 31
0.0
  0
LINE
  5
174
100
AcDbEntity
  8
0
  6
CONTINUOUS
 62
               7
100
AcDbLine
 10
-35.899999988148068
 20
-1.1999999999999886
 30
0.0
 11
-37.899999988148068
 21
-1.1999999999999886
 31
0.0
  0
LINE
  5
175
100
AcDbEntity
  8
0
  6
CONTINUOUS
 62
               7
100
AcDbLine
 10
-35.899999988148068
 20
-1.6000000000000227
 30
0.0
 11
-37.899999988148068
 21
-1.6000000000000227
 31
0.0
  0
LINE
  5
176
100
AcDbEntity
  8
0
  6
CONTINUOUS
 62
               7
100
AcDbLine
 10
-35.899999988148068
 20
-2.1000000000000227
 30
0.0
 11
-37.899999988148068
 21
-2.1000000000000227
 31
0.0
  0
LINE
  5
177
100
AcDbEntity
  8
0
  6
CONTINUOUS
 62
               7
100
AcDbLine
 10
-33.842264926124813
 20
-2.3000000000000114
 30
0.0
 11
-35.899999988148068
 21
-2.3000000000000114
 31
0.0
  0
LINE
  5
178
100
AcDbEntity
  8
0
  6
CONTINUOUS
 62
               7
100
AcDbLine
 10
-31.899999988148092
 20
-2.3000000000000114
 30
0.0
 11
-32.859999988148104
 21
-2.3000000000000114
 31
0.0
  0
LINE
  5
179
100
AcDbEntity
  8
0
  6
CONTINUOUS
 62
               7
100
AcDbLine
 10
-34.881495409895194
 20
-0.5
 30
0.0
 11
-35.899999988148068
 21
-0.5
 31
0.0
  0
LINE
  5
17A
100
AcDbEntity
  8
0
  6
CONTINUOUS
 62
               7
100
AcDbLine
 10
-34.361880168010003
 20
-1.4000000000000341
 30
0.0
 11
-35.899999988148068
 21
-1.4000000000000341
 31
0.0
  0
LINE
  5
17B
100
AcDbEntity
  8
0
  6
CONTINUOUS
 62
               7
100
AcDbLine
 10
-31.899999988148092
 20
-1.4000000000000341
 30
0.0
 11
-33.379999988148086
 21
-1.4000000000000341
 31
0.0
  0
LINE
  5
17C
100
AcDbEntity
  8
0
  6
CONTINUOUS
 62
               7
100
AcDbLine
 10
-31.899999988148092
 20
-0.5
 30
0.0
 11
-33.899999988148068
 21
-0.5
 31
0.0
  0
LINE
  5
17D
100
AcDbEntity
  8
0
  6
CONTINUOUS
 62
               7
100
AcDbLine
 10
-35.899999988148068
 20
-2.3000000000000114
 30
0.0
 11
-35.899999988148068
 21
-0.5
 31
0.0
  0
LINE
  5
17E
100
AcDbEntity
  8
0
  6
CONTINUOUS
 62
               7
100
AcDbLine
 10
-37.899999988148068
 20
-1.1999999999999886
 30
0.0
 11
-37.899999988148068
 21
-0.6999999999999886
 31
0.0
  0
LINE
  5
17F
100
AcDbEntity
  8
0
  6
CONTINUOUS
 62
               7
100
AcDbLine
 10
-37.899999988148068
 20
-2.1000000000000227
 30
0.0
 11
-37.899999988148068
 21
-1.6000000000000227
 31
0.0
  0
LINE
  5
180
100
AcDbEntity
  8
0
  6
CENTER
 62
               2
100
AcDbLine
 10
-31.001543729590022
 20
-0.9499999999999886
 30
0.0
 11
-38.522492207121047
 21
-0.9499999999999886
 31
0.0
  0
LINE
  5
181
100
AcDbEntity
  8
0
  6
CENTER
 62
               2
100
AcDbLine
 10
-31.001543729590022
 20
-1.8500000000000227
 30
0.0
 11
-38.522492207121047
 21
-1.8500000000000227
 31
0.0
  0
LINE
  5
182
100
AcDbEntity
  8
0
  6
CONTINUOUS
 62
               7
100
AcDbLine
 10
-31.899999988148092
 20
-2.6999999999999886
 30
0.0
 11
-31.899999988148092
 21
-0.1000000000000227
 31
0.0
  0
LINE
  5
183
100
AcDbEntity
  8
0
  6
CONTINUOUS
 62
               7
100
AcDbLine
 10
-21.899999988148096
 20
-3.1500000000000341
 30
0.0
 11
-20.899999988148096
 21
-3.1500000000000341
 31
0.0
  0
LINE
  5
184
100
AcDbEntity
  8
0
  6
CONTINUOUS
 62
               7
100
AcDbLine
 10
-21.899999988148096
 20
0.3499999999999659
 30
0.0
 11
-20.899999988148096
 21
0.3499999999999659
 31
0.0
  0
LINE
  5
185
100
AcDbEntity
  8
0
  6
CONTINUOUS
 62
               7
100
AcDbLine
 10
-24.399999988148096
 20
-3.1500000000000341
 30
0.0
 11
-23.399999988148096
 21
-3.1500000000000341
 31
0.0
  0
LINE
  5
186
100
AcDbEntity
  8
0
  6
CONTINUOUS
 62
               7
100
AcDbLine
 10
-24.399999988148096
 20
0.3499999999999659
 30
0.0
 11
-23.399999988148096
 21
0.3499999999999659
 31
0.0
  0
LINE
  5
187
100
AcDbEntity
  8
0
  6
CONTINUOUS
 62
               7
100
AcDbLine
 10
-20.899999988148096
 20
-4.1857142857143117
 30
0.0
 11
-19.399999988148096
 21
-4.4000000000000341
 31
0.0
  0
LINE
  5
188
100
AcDbEntity
  8
0
  6
CONTINUOUS
 62
               7
100
AcDbLine
 10
-23.399999988148096
 20
-3.8285714285714221
 30
0.0
 11
-21.899999988148096
 21
-4.0428571428571445
 31
0.0
  0
LINE
  5
189
100
AcDbEntity
  8
0
  6
CONTINUOUS
 62
               7
100
AcDbLine
 10
-20.899999988148096
 20
1.3857142857143003
 30
0.0
 11
-19.399999988148096
 21
1.5999999999999659
 31
0.0
  0
LINE
  5
18A
100
AcDbEntity
  8
0
  6
CONTINUOUS
 62
               7
100
AcDbLine
 10
-23.399999988148096
 20
1.0285714285714107
 30
0.0
 11
-21.899999988148096
 21
1.2428571428571331
 31
0.0
  0
LINE
  5
18B
100
AcDbEntity
  8
0
  6
CONTINUOUS
 62
               7
100
AcDbLine
 10
-20.899999988148096
 20
-4.1857142857143117
 30
0.0
 11
-20.899999988148096
 21
1.3857142857143003
 31
0.0
  0
LINE
  5
18C
100
AcDbEntity
  8
0
  6
CONTINUOUS
 62
               7
100
AcDbLine
 10
-21.899999988148096
 20
-4.0428571428571445
 30
0.0
 11
-21.899999988148096
 21
1.2428571428571331
 31
0.0
  0
LINE
  5
18D
100
AcDbEntity
  8
0
  6
CONTINUOUS
 62
               7
100
AcDbLine
 10
-23.399999988148096
 20
-3.8285714285714221
 30
0.0
 11
-23.399999988148096
 21
1.0285714285714107
 31
0.0
  0
LINE
  5
18E
100
AcDbEntity
  8
0
  6
CONTINUOUS
 62
               7
100
AcDbLine
 10
-24.399999988148096
 20
-3.6857142857143117
 30
0.0
 11
-24.399999988148096
 21
0.8857142857143003
 31
0.0
  0
LINE
  5
18F
100
AcDbEntity
  8
0
  6
CONTINUOUS
 62
               7
100
AcDbLine
 10
-26.399999988148096
 20
-3.4000000000000341
 30
0.0
 11
-24.399999988148096
 21
-3.6857142857143117
 31
0.0
  0
LINE
  5
190
100
AcDbEntity
  8
0
  6
CONTINUOUS
 62
               7
100
AcDbLine
 10
-26.399999988148096
 20
0.5999999999999659
 30
0.0
 11
-24.399999988148096
 21
0.8857142857143003
 31
0.0
  0
LINE
  5
191
100
AcDbEntity
  8
0
  6
CONTINUOUS
 62
               7
100
AcDbLine
 10
-26.399999988148096
 20
-3.4000000000000341
 30
0.0
 11
-26.399999988148096
 21
0.5999999999999659
 31
0.0
  0
LINE
  5
192
100
AcDbEntity
  8
0
  6
CONTINUOUS
 62
               7
100
AcDbLine
 10
-19.399999988148096
 20
-4.4000000000000341
 30
0.0
 11
-19.399999988148096
 21
1.5999999999999659
 31
0.0
  0
LINE
  5
193
100
AcDbEntity
  8
0
  6
CONTINUOUS
 62
               7
100
AcDbLine
 10
-11.699999988148079
 20
-5.0000000016734134
 30
0.0
 11
-18.504363255897289
 21
-4.9083298122096721
 31
0.0
  0
LINE
  5
194
100
AcDbEntity
  8
0
  6
CONTINUOUS
 62
               7
100
AcDbLine
 10
-11.699999988148079
 20
5.0
 30
0.0
 11
-17.799999988148102
 21
4.9178191795874682
 31
0.0
  0
ARC
  5
195
100
AcDbEntity
  8
0
  6
CONTINUOUS
 62
               7
100
AcDbCircle
 10
-18.49999998814809
 20
4.4083488490041418
 30
0.0
 40
0.5
100
AcDbArc
 50
90.500000000000071
 51
179.99999999999963
  0
ARC
  5
196
100
AcDbEntity
  8
0
  6
CONTINUOUS
 62
               7
100
AcDbCircle
 10
-18.49999998814809
 20
-4.4083488506776121
 30
0.0
 40
0.5
100
AcDbArc
 50
179.99999999999963
 51
269.49999999999915
  0
LINE
  5
197
100
AcDbEntity
  8
0
  6
CONTINUOUS
 62
               7
100
AcDbLine
 10
-11.699999988148079
 20
5.0
 30
0.0
 11
-8.0
 21
4.9677105892776012
 31
0.0
  0
LINE
  5
198
100
AcDbEntity
  8
0
  6
CONTINUOUS
 62
               7
100
AcDbLine
 10
-11.699999988148079
 20
-5.0000000016734134
 30
0.0
 11
-8.0
 21
-4.9677105909510715
 31
0.0
  0
LINE
  5
199
100
AcDbEntity
  8
0
  6
CENTER
 62
               2
100
AcDbLine
 10
0.0
 20
0.0
 30
0.0
 11
-5.8166019384642311
 21
10.074650084823702
 31
0.0
  0
LINE
  5
19A
100
AcDbEntity
  8
0
  6
CONTINUOUS
 62
               7
100
AcDbLine
 10
-18.399999988148124
 20
2.5
 30
0.0
 11
-18.399999988148124
 21
4.5
 31
0.0
  0
LINE
  5
19B
100
AcDbEntity
  8
0
  6
CONTINUOUS
 62
               7
100
AcDbLine
 10
-17.799999988148102
 20
2.0
 30
0.0
 11
-17.899999988148124
 21
2.0
 31
0.0
  0
LINE
  5
19C
100
AcDbEntity
  8
0
  6
CONTINUOUS
 62
               7
100
AcDbLine
 10
-17.799999988148102
 20
5.0
 30
0.0
 11
-17.899999988148124
 21
5.0
 31
0.0
  0
ARC
  5
19D
100
AcDbEntity
  8
0
  6
CONTINUOUS
 62
               7
100
AcDbCircle
 10
-17.899999988148124
 20
2.5
 30
0.0
 40
0.5
100
AcDbArc
 50
179.99999999999963
 51
269.99999999999937
  0
ARC
  5
19E
100
AcDbEntity
  8
0
  6
CONTINUOUS
 62
               7
100
AcDbCircle
 10
-17.899999988148124
 20
4.5
 30
0.0
 40
0.5
100
AcDbArc
 50
89.999999999999815
 51
179.99999999999963
  0
LINE
  5
19F
100
AcDbEntity
  8
0
  6
CONTINUOUS
 62
               7
100
AcDbLine
 10
-18.182320272248575
 20
4.9126684591599314
 30
0.0
 11
-18.504363255897289
 21
4.9083298105362587
 31
0.0
  0
CIRCLE
  5
1A0
100
AcDbEntity
  8
0
  6
CONTINUOUS
 62
               7
100
AcDbCircle
 10
0.0
 20
0.0
 30
0.0
 40
2.1000000000000001
  0
CIRCLE
  5
1A1
100
AcDbEntity
  8
0
  6
CONTINUOUS
 62
               2
100
AcDbCircle
 10
0.0
 20
0.0
 30
0.0
 40
2.5
  0
LINE
  5
1A2
100
AcDbEntity
  8
0
  6
CONTINUOUS
 62
               7
100
AcDbLine
 10
-4.0
 20
-9.6000000000000227
 30
0.0
 11
-4.0
 21
-9.1651513899116708
 31
0.0
  0
LINE
  5
1A3
100
AcDbEntity
  8
0
  6
CONTINUOUS
 62
               7
100
AcDbLine
 10
4.0
 20
-9.6000000000000227
 30
0.0
 11
4.0
 21
-9.1651513899116708
 31
0.0
  0
LINE
  5
1A4
100
AcDbEntity
  8
0
  6
CONTINUOUS
 62
               7
100
AcDbLine
 10
-2.8000000000000114
 20
-9.6000000000000227
 30
0.0
 11
-4.0500000000000114
 21
-9.6000000000000227
 31
0.0
  0
LINE
  5
1A5
100
AcDbEntity
  8
0
  6
CONTINUOUS
 62
               7
100
AcDbLine
 10
-4.0500000000000114
 20
-11.600000000000023
 30
0.0
 11
-4.0500000000000114
 21
-9.6000000000000227
 31
0.0
  0
LINE
  5
1A6
100
AcDbEntity
  8
0
  6
CONTINUOUS
 62
               7
100
AcDbLine
 10
-3.5500000000000114
 20
-12.100000000000023
 30
0.0
 11
-4.0500000000000114
 21
-11.600000000000023
 31
0.0
  0
LINE
  5
1A7
100
AcDbEntity
  8
0
  6
CONTINUOUS
 62
               7
100
AcDbLine
 10
-2.0300000000000011
 20
-11.600000000000023
 30
0.0
 11
-2.0300000000000011
 21
-9.7917873751424622
 31
0.0
  0
ARC
  5
1A8
100
AcDbEntity
  8
0
  6
CONTINUOUS
 62
               7
100
AcDbCircle
 10
-4.9722187730059773
 20
-5.2160549300617731
 30
0.0
 40
7.0293247160888015
100
AcDbArc
 50
281.67304037350181
 51
294.74392856765866
  0
LINE
  5
1A9
100
AcDbEntity
  8
0
  6
CONTINUOUS
 62
               7
100
AcDbLine
 10
-0.5
 20
-12.100000000000023
 30
0.0
 11
-3.5500000000000114
 21
-12.100000000000023
 31
0.0
  0
ARC
  5
1AA
100
AcDbEntity
  8
0
  6
CONTINUOUS
 62
               7
100
AcDbCircle
 10
0.0190627296830144
 20
-7.747050049135396
 30
0.0
 40
4.363929581700825
100
AcDbArc
 50
241.99521341413674
 51
263.16884500145613
  0
LINE
  5
1AB
100
AcDbEntity
  8
0
  6
CONTINUOUS
 62
               7
100
AcDbLine
 10
-0.5
 20
-12.100000000000023
 30
0.0
 11
-0.5
 21
-10.600000000000023
 31
0.0
  0
LINE
  5
1AC
100
AcDbEntity
  8
0
  6
CONTINUOUS
 62
               7
100
AcDbLine
 10
0.5
 20
-10.600000000000023
 30
0.0
 11
-0.5
 21
-10.600000000000023
 31
0.0
  0
LINE
  5
1AD
100
AcDbEntity
  8
0
  6
CONTINUOUS
 62
               7
100
AcDbLine
 10
0.5
 20
-12.100000000000023
 30
0.0
 11
0.5
 21
-10.600000000000023
 31
0.0
  0
LINE
  5
1AE
100
AcDbEntity
  8
0
  6
CONTINUOUS
 62
               7
100
AcDbLine
 10
4.0500000000000114
 20
-11.600000000000023
 30
0.0
 11
4.0500000000000114
 21
-9.6000000000000227
 31
0.0
  0
LINE
  5
1AF
100
AcDbEntity
  8
0
  6
CONTINUOUS
 62
               7
100
AcDbLine
 10
4.0500000000000114
 20
-11.600000000000023
 30
0.0
 11
3.5500000000000114
 21
-12.100000000000023
 31
0.0
  0
ARC
  5
1B0
100
AcDbEntity
  8
0
  6
CONTINUOUS
 62
               7
100
AcDbCircle
 10
-0.019504252191723
 20
-7.7456426961389298
 30
0.0
 40
4.3653794686807261
100
AcDbArc
 50
276.83471178066651
 51
298.00122980373817
  0
ARC
  5
1B1
100
AcDbEntity
  8
0
  6
CONTINUOUS
 62
               7
100
AcDbCircle
 10
4.9717302995399848
 20
-5.2175398893984379
 30
0.0
 40
7.0277716396203269
100
AcDbArc
 50
245.25462085736197
 51
258.32841020147521
  0
LINE
  5
1B2
100
AcDbEntity
  8
0
  6
CONTINUOUS
 62
               7
100
AcDbLine
 10
2.0300000000000011
 20
-11.600000000000023
 30
0.0
 11
2.0300000000000011
 21
-9.7917873751424622
 31
0.0
  0
LINE
  5
1B3
100
AcDbEntity
  8
0
  6
CONTINUOUS
 62
               7
100
AcDbLine
 10
3.5500000000000114
 20
-12.100000000000023
 30
0.0
 11
0.5
 21
-12.100000000000023
 31
0.0
  0
LINE
  5
1B4
100
AcDbEntity
  8
0
  6
CONTINUOUS
 62
               7
100
AcDbLine
 10
4.0500000000000114
 20
-9.6000000000000227
 30
0.0
 11
2.8000000000000114
 21
-9.6000000000000227
 31
0.0
  0
LINE
  5
1B5
100
AcDbEntity
  8
0
  6
CENTER
 62
               2
100
AcDbLine
 10
0.0
 20
0.0
 30
0.0
 11
10.071733430556492
 21
5.8149180073379512
 31
0.0
  0
ENDBLK
  5
1B6
100
AcDbEntity
  8
0
100
AcDbBlockEnd
  0
BLOCK
  5
1B7
100
AcDbEntity
  8
0
100
AcDbBlockBegin
  2
NCT20-6
 70
               0
 10
0.0
 20
0.0
 30
0.0
  3
NCT20-6
  1

  0
LINE
  5
1B8
100
AcDbEntity
  8
0
  6
CENTER
 62
               2
100
AcDbLine
 10
-31.899999988148064
 20
-4.1999999999999318
 30
0.0
 11
-17.799999988148102
 21
-4.1999999999999318
 31
0.0
  0
LINE
  5
1B9
100
AcDbEntity
  8
0
  6
CONTINUOUS
 62
               7
100
AcDbLine
 10
-19.399999988148124
 20
-1.1999999999999318
 30
0.0
 11
-19.399999988148124
 21
-7.1999999999999318
 31
0.0
  0
LINE
  5
1BA
100
AcDbEntity
  8
0
  6
CONTINUOUS
 62
               7
100
AcDbLine
 10
-19.399999988148124
 20
-7.1999999999999318
 30
0.0
 11
-18.99999998814809
 21
-7.1999999999999318
 31
0.0
  0
LINE
  5
1BB
100
AcDbEntity
  8
0
  6
CONTINUOUS
 62
               7
100
AcDbLine
 10
-19.399999988148124
 20
-1.1999999999999318
 30
0.0
 11
-18.99999998814809
 21
-1.1999999999999318
 31
0.0
  0
LINE
  5
1BC
100
AcDbEntity
  8
0
  6
CONTINUOUS
 62
               7
100
AcDbLine
 10
-26.399999988148068
 20
-2.1999999999999318
 30
0.0
 11
-26.399999988148068
 21
-6.1999999999999318
 31
0.0
  0
LINE
  5
1BD
100
AcDbEntity
  8
0
  6
CONTINUOUS
 62
               7
100
AcDbLine
 10
-26.399999988148068
 20
-6.1999999999999318
 30
0.0
 11
-24.399999988148068
 21
-6.4857142857142662
 31
0.0
  0
LINE
  5
1BE
100
AcDbEntity
  8
0
  6
CONTINUOUS
 62
               7
100
AcDbLine
 10
-26.399999988148068
 20
-2.1999999999999318
 30
0.0
 11
-24.399999988148068
 21
-1.9142857142856542
 31
0.0
  0
LINE
  5
1BF
100
AcDbEntity
  8
0
  6
CONTINUOUS
 62
               7
100
AcDbLine
 10
-24.399999988148068
 20
-1.9142857142856542
 30
0.0
 11
-24.399999988148068
 21
-6.4857142857142662
 31
0.0
  0
LINE
  5
1C0
100
AcDbEntity
  8
0
  6
CONTINUOUS
 62
               7
100
AcDbLine
 10
-23.399999988148124
 20
-1.771428571428487
 30
0.0
 11
-23.399999988148124
 21
-6.6285714285713766
 31
0.0
  0
LINE
  5
1C1
100
AcDbEntity
  8
0
  6
CONTINUOUS
 62
               7
100
AcDbLine
 10
-21.899999988148124
 20
-1.5571428571428214
 30
0.0
 11
-21.899999988148124
 21
-6.842857142857099
 31
0.0
  0
LINE
  5
1C2
100
AcDbEntity
  8
0
  6
CONTINUOUS
 62
               7
100
AcDbLine
 10
-20.899999988148124
 20
-1.4142857142856542
 30
0.0
 11
-20.899999988148124
 21
-6.9857142857142662
 31
0.0
  0
LINE
  5
1C3
100
AcDbEntity
  8
0
  6
CONTINUOUS
 62
               7
100
AcDbLine
 10
-23.399999988148124
 20
-6.6285714285713766
 30
0.0
 11
-21.899999988148124
 21
-6.842857142857099
 31
0.0
  0
LINE
  5
1C4
100
AcDbEntity
  8
0
  6
CONTINUOUS
 62
               7
100
AcDbLine
 10
-20.899999988148124
 20
-6.9857142857142662
 30
0.0
 11
-19.399999988148124
 21
-7.1999999999999318
 31
0.0
  0
LINE
  5
1C5
100
AcDbEntity
  8
0
  6
CONTINUOUS
 62
               7
100
AcDbLine
 10
-23.399999988148124
 20
-1.771428571428487
 30
0.0
 11
-21.899999988148124
 21
-1.5571428571428214
 31
0.0
  0
LINE
  5
1C6
100
AcDbEntity
  8
0
  6
CONTINUOUS
 62
               7
100
AcDbLine
 10
-20.899999988148124
 20
-1.4142857142856542
 30
0.0
 11
-19.399999988148124
 21
-1.1999999999999318
 31
0.0
  0
LINE
  5
1C7
100
AcDbEntity
  8
0
  6
CONTINUOUS
 62
               7
100
AcDbLine
 10
-24.399999988148068
 20
-5.9499999999999318
 30
0.0
 11
-23.399999988148124
 21
-5.9499999999999318
 31
0.0
  0
LINE
  5
1C8
100
AcDbEntity
  8
0
  6
CONTINUOUS
 62
               7
100
AcDbLine
 10
-24.399999988148068
 20
-2.4499999999999318
 30
0.0
 11
-23.399999988148124
 21
-2.4499999999999318
 31
0.0
  0
LINE
  5
1C9
100
AcDbEntity
  8
0
  6
CONTINUOUS
 62
               7
100
AcDbLine
 10
-21.899999988148124
 20
-5.9499999999999318
 30
0.0
 11
-20.899999988148124
 21
-5.9499999999999318
 31
0.0
  0
LINE
  5
1CA
100
AcDbEntity
  8
0
  6
CONTINUOUS
 62
               7
100
AcDbLine
 10
-21.899999988148124
 20
-2.4499999999999318
 30
0.0
 11
-20.899999988148124
 21
-2.4499999999999318
 31
0.0
  0
LINE
  5
1CB
100
AcDbEntity
  8
0
  6
CONTINUOUS
 62
               7
100
AcDbLine
 10
-31.899999988148064
 20
-2.8999999999999773
 30
0.0
 11
-31.899999988148064
 21
-5.4999999999999432
 31
0.0
  0
LINE
  5
1CC
100
AcDbEntity
  8
0
  6
CONTINUOUS
 62
               7
100
AcDbLine
 10
-26.399999988148068
 20
-2.8999999999999773
 30
0.0
 11
-27.937564439240361
 21
-2.8999999999999773
 31
0.0
  0
LINE
  5
1CD
100
AcDbEntity
  8
0
  6
CONTINUOUS
 62
               7
100
AcDbLine
 10
-26.399999988148068
 20
-5.4999999999999432
 30
0.0
 11
-29.438675139133409
 21
-5.4999999999999432
 31
0.0
  0
LINE
  5
1CE
100
AcDbEntity
  8
0
  6
CONTINUOUS
 62
               7
100
AcDbLine
 10
-28.861324838462735
 20
-2.8999999999999773
 30
0.0
 11
-31.899999988148064
 21
-2.8999999999999773
 31
0.0
  0
LINE
  5
1CF
100
AcDbEntity
  8
0
  6
CONTINUOUS
 62
               7
100
AcDbLine
 10
-30.362435538355783
 20
-5.4999999999999432
 30
0.0
 11
-31.899999988148064
 21
-5.4999999999999432
 31
0.0
  0
LINE
  5
1D0
100
AcDbEntity
  8
0
  6
PHANTOM
 62
               2
100
AcDbLine
 10
-33.495854765176773
 20
-2.7000000005347147
 30
0.0
 11
-35.227905571460724
 21
-5.7000000005347147
 31
0.0
  0
LINE
  5
1D1
100
AcDbEntity
  8
0
  6
PHANTOM
 62
               2
100
AcDbLine
 10
-32.57209438085556
 20
-2.7000000005347147
 30
0.0
 11
-34.304145202040672
 21
-5.7000000303370371
 31
0.0
  0
LINE
  5
1D2
100
AcDbEntity
  8
0
  6
PHANTOM
 62
               2
100
AcDbLine
 10
-28.51491467654705
 20
-2.2999999945742502
 30
0.0
 11
-30.708845719695088
 21
-6.1000000362975015
 31
0.0
  0
LINE
  5
1D3
100
AcDbEntity
  8
0
  6
PHANTOM
 62
               2
100
AcDbLine
 10
-27.591154277324677
 20
-2.3000000243765726
 30
0.0
 11
-29.785085305571556
 21
-6.1000000362975015
 31
0.0
  0
LINE
  5
1D4
100
AcDbEntity
  8
0
  6
CONTINUOUS
 62
               7
100
AcDbLine
 10
-31.899999988148064
 20
-5.0499999999999545
 30
0.0
 11
-33.928867510330178
 21
-5.0499999999999545
 31
0.0
  0
LINE
  5
1D5
100
AcDbEntity
  8
0
  6
CONTINUOUS
 62
               7
100
AcDbLine
 10
-31.899999988148064
 20
-4.2499999999999432
 30
0.0
 11
-33.466987295935837
 21
-4.2499999999999432
 31
0.0
  0
ARC
  5
1D6
100
AcDbEntity
  8
0
  6
CONTINUOUS
 62
               7
100
AcDbCircle
 10
-34.258994484654522
 20
-7.0499999999999545
 30
0.0
 40
2.0
100
AcDbArc
 50
109.20488889817132
 51
119.99999999999982
  0
ARC
  5
1D7
100
AcDbEntity
  8
0
  6
CONTINUOUS
 62
               7
100
AcDbCircle
 10
-34.473353838599394
 20
-6.2499999999999432
 30
0.0
 40
2.0
100
AcDbArc
 50
89.999999999999815
 51
119.99999999999973
  0
LINE
  5
1D8
100
AcDbEntity
  8
0
  6
CONTINUOUS
 62
               7
100
AcDbLine
 10
-31.899999988148064
 20
-3.3499999999999091
 30
0.0
 11
-32.947372054742232
 21
-3.3499999999999091
 31
0.0
  0
LINE
  5
1D9
100
AcDbEntity
  8
0
  6
CONTINUOUS
 62
               7
100
AcDbLine
 10
-31.899999988148064
 20
-4.1499999999999773
 30
0.0
 11
-33.409252269136516
 21
-4.1499999999999773
 31
0.0
  0
ARC
  5
1DA
100
AcDbEntity
  8
0
  6
CONTINUOUS
 62
               7
100
AcDbCircle
 10
-34.473353838599394
 20
-2.1499999999999773
 30
0.0
 40
2.0
100
AcDbArc
 50
239.99999999999946
 51
269.99999999999937
  0
ARC
  5
1DB
100
AcDbEntity
  8
0
  6
CONTINUOUS
 62
               7
100
AcDbCircle
 10
-34.258994484654522
 20
-1.3499999999999091
 30
0.0
 40
2.0
100
AcDbArc
 50
239.99999999999946
 51
269.99999999999937
  0
LINE
  5
1DC
100
AcDbEntity
  8
0
  6
CONTINUOUS
 62
               7
100
AcDbLine
 10
-44.140546181302682
 20
-4.5999999999999091
 30
0.0
 11
-35.615470006110741
 21
-4.5999999999999091
 31
0.0
  0
LINE
  5
1DD
100
AcDbEntity
  8
0
  6
CONTINUOUS
 62
               7
100
AcDbLine
 10
-44.168482796985131
 20
-3.7999999999999545
 30
0.0
 11
-35.615470006110741
 21
-3.7999999999999545
 31
0.0
  0
LINE
  5
1DE
100
AcDbEntity
  8
0
  6
CONTINUOUS
 62
               7
100
AcDbLine
 10
-34.39074768144809
 20
-4.2499999999999432
 30
0.0
 11
-34.473353838599394
 21
-4.2499999999999432
 31
0.0
  0
LINE
  5
1DF
100
AcDbEntity
  8
0
  6
CONTINUOUS
 62
               7
100
AcDbLine
 10
-34.333012654571917
 20
-4.1499999999999773
 30
0.0
 11
-34.473353838599394
 21
-4.1499999999999773
 31
0.0
  0
LINE
  5
1E0
100
AcDbEntity
  8
0
  6
CONTINUOUS
 62
               7
100
AcDbLine
 10
-33.871132439562871
 20
-3.3499999999999091
 30
0.0
 11
-34.258994484654522
 21
-3.3499999999999091
 31
0.0
  0
LINE
  5
1E1
100
AcDbEntity
  8
0
  6
CONTINUOUS
 62
               7
100
AcDbLine
 10
-44.168482796985131
 20
-6.7999999999999545
 30
0.0
 11
-40.765727744917911
 21
-6.7999999999999545
 31
0.0
  0
LINE
  5
1E2
100
AcDbEntity
  8
0
  6
CONTINUOUS
 62
               7
100
AcDbLine
 10
-44.140546181302682
 20
-7.5999999999999091
 30
0.0
 11
-40.551368390972982
 21
-7.5999999999999091
 31
0.0
  0
LINE
  5
1E3
100
AcDbEntity
  8
0
  6
CONTINUOUS
 62
               7
100
AcDbLine
 10
-44.168482796985131
 20
-0.7999999999999545
 30
0.0
 11
-40.551368390972982
 21
-0.7999999999999545
 31
0.0
  0
LINE
  5
1E4
100
AcDbEntity
  8
0
  6
CONTINUOUS
 62
               7
100
AcDbLine
 10
-44.140546181302682
 20
-1.5999999999999091
 30
0.0
 11
-40.765727744917911
 21
-1.5999999999999091
 31
0.0
  0
LINE
  5
1E5
100
AcDbEntity
  8
0
  6
CONTINUOUS
 62
               7
100
AcDbLine
 10
-35.258994484654522
 20
-5.3179491924310582
 30
0.0
 11
-38.051368390972982
 21
-6.9301270189221214
 31
0.0
  0
LINE
  5
1E6
100
AcDbEntity
  8
0
  6
CONTINUOUS
 62
               7
100
AcDbLine
 10
-35.473353838599394
 20
-4.5179491924310469
 30
0.0
 11
-38.265727744917911
 21
-6.1301270189221668
 31
0.0
  0
LINE
  5
1E7
100
AcDbEntity
  8
0
  6
CONTINUOUS
 62
               7
100
AcDbLine
 10
-35.258994484654522
 20
-3.0820508075688622
 30
0.0
 11
-38.051368390972982
 21
-1.4698729810777422
 31
0.0
  0
LINE
  5
1E8
100
AcDbEntity
  8
0
  6
CONTINUOUS
 62
               7
100
AcDbLine
 10
-35.473353838599394
 20
-3.8820508075688167
 30
0.0
 11
-38.265727744917911
 21
-2.2698729810777536
 31
0.0
  0
ARC
  5
1E9
100
AcDbEntity
  8
0
  6
CONTINUOUS
 62
               7
100
AcDbCircle
 10
-40.765727744917911
 20
-1.7999999999999545
 30
0.0
 40
5.0
100
AcDbArc
 50
269.99999999999937
 51
299.99999999999932
  0
ARC
  5
1EA
100
AcDbEntity
  8
0
  6
CONTINUOUS
 62
               7
100
AcDbCircle
 10
-40.551368390972982
 20
-2.5999999999999091
 30
0.0
 40
5.0
100
AcDbArc
 50
269.99999999999937
 51
299.99999999999932
  0
ARC
  5
1EB
100
AcDbEntity
  8
0
  6
CONTINUOUS
 62
               7
100
AcDbCircle
 10
-40.765727744917911
 20
-6.5999999999999091
 30
0.0
 40
5.0
100
AcDbArc
 50
59.999999999999865
 51
89.999999999999815
  0
ARC
  5
1EC
100
AcDbEntity
  8
0
  6
CONTINUOUS
 62
               7
100
AcDbCircle
 10
-40.551368390972982
 20
-5.7999999999999545
 30
0.0
 40
5.0
100
AcDbArc
 50
59.999999999999865
 51
89.999999999999815
  0
LINE
  5
1ED
100
AcDbEntity
  8
0
  6
CONTINUOUS
 62
               7
100
AcDbLine
 10
-44.183324116801543
 20
-6.3749999899416707
 30
0.0
 11
-45.5759435396551
 21
-6.3749999899416707
 31
0.0
  0
LINE
  5
1EE
100
AcDbEntity
  8
0
  6
CONTINUOUS
 62
               7
100
AcDbLine
 10
-45.629633835914319
 20
-8.1124886542557988
 30
0.0
 11
-44.122649683083182
 21
-8.1124886542557988
 31
0.0
  0
LINE
  5
1EF
100
AcDbEntity
  8
0
  6
CONTINUOUS
 62
               7
100
AcDbLine
 10
-56.429633835914331
 20
-8.025000002980164
 30
0.0
 11
-56.429633835914331
 21
-6.3749999970196995
 31
0.0
  0
LINE
  5
1F0
100
AcDbEntity
  8
0
  6
CONTINUOUS
 62
               7
100
AcDbLine
 10
-46.629633865716642
 20
-7.824999990686706
 30
0.0
 11
-45.629633865716642
 21
-7.9124886531382117
 31
0.0
  0
LINE
  5
1F1
100
AcDbEntity
  8
0
  6
CONTINUOUS
 62
               7
100
AcDbLine
 10
-46.629633865716642
 20
-8.024999989941648
 30
0.0
 11
-45.629633865716642
 21
-8.1124886523931536
 31
0.0
  0
LINE
  5
1F2
100
AcDbEntity
  8
0
  6
CONTINUOUS
 62
               7
100
AcDbLine
 10
-45.62963385081548
 20
-7.9124886959790501
 30
0.0
 11
-44.741964329606503
 21
-6.3749999899416707
 31
0.0
  0
LINE
  5
1F3
100
AcDbEntity
  8
0
  6
CONTINUOUS
 62
               7
100
AcDbLine
 10
-44.122649683083182
 20
-8.1124886542557988
 30
0.0
 11
-44.183324124417709
 21
-6.3749999899416707
 31
0.0
  0
LINE
  5
1F4
100
AcDbEntity
  8
0
  6
CONTINUOUS
 62
               7
100
AcDbLine
 10
-45.629633834982997
 20
-7.9124889045953068
 30
0.0
 11
-45.5759435396551
 21
-6.3749999899416707
 31
0.0
  0
LINE
  5
1F5
100
AcDbEntity
  8
0
  6
CONTINUOUS
 62
               7
100
AcDbLine
 10
-44.879633835914319
 20
-6.6134506136178288
 30
0.0
 11
-45.017303365048974
 21
-6.3749999899416707
 31
0.0
  0
LINE
  5
1F6
100
AcDbEntity
  8
0
  6
CONTINUOUS
 62
               7
100
AcDbLine
 10
-49.429633835914331
 20
-7.6240380972623143
 30
0.0
 11
-49.429633835914331
 21
-6.6749999791383061
 31
0.0
  0
LINE
  5
1F7
100
AcDbEntity
  8
0
  6
CONTINUOUS
 62
               7
100
AcDbLine
 10
-46.629633835914319
 20
-7.8249999850987706
 30
0.0
 11
-46.629633835914319
 21
-6.6749999899416252
 31
0.0
  0
LINE
  5
1F8
100
AcDbEntity
  8
0
  6
CONTINUOUS
 62
               7
100
AcDbLine
 10
-56.629633835914319
 20
-8.024999989941648
 30
0.0
 11
-55.729633835914342
 21
-8.024999989941648
 31
0.0
  0
LINE
  5
1F9
100
AcDbEntity
  8
0
  6
CONTINUOUS
 62
               7
100
AcDbLine
 10
-49.179633847835248
 20
-6.4249999899416252
 30
0.0
 11
-46.879633835914319
 21
-6.4249999899416252
 31
0.0
  0
ARC
  5
1FA
100
AcDbEntity
  8
0
  6
CONTINUOUS
 62
               7
100
AcDbCircle
 10
-46.879633835914319
 20
-6.6749999899416252
 30
0.0
 40
0.25
100
AcDbArc
 50
0.0
 51
89.999999999999815
  0
ARC
  5
1FB
100
AcDbEntity
  8
0
  6
CONTINUOUS
 62
               7
100
AcDbCircle
 10
-49.179633835914331
 20
-6.6749999899416252
 30
0.0
 40
0.25
100
AcDbArc
 50
89.999999999999815
 51
179.99999999999963
  0
LINE
  5
1FC
100
AcDbEntity
  8
0
  6
CONTINUOUS
 62
               7
100
AcDbLine
 10
-56.429633847835248
 20
-6.3749999899416707
 30
0.0
 11
-55.929633847835248
 21
-6.3749999899416707
 31
0.0
  0
LINE
  5
1FD
100
AcDbEntity
  8
0
  6
CONTINUOUS
 62
               7
100
AcDbLine
 10
-50.179633835914331
 20
-7.4991936653851781
 30
0.0
 11
-50.179633835914331
 21
-6.6249999970196995
 31
0.0
  0
ARC
  5
1FE
100
AcDbEntity
  8
0
  6
CONTINUOUS
 62
               7
100
AcDbCircle
 10
-50.429633835914331
 20
-6.6249999899416707
 30
0.0
 40
0.25
100
AcDbArc
 50
0.0
 51
89.999999999999815
  0
LINE
  5
1FF
100
AcDbEntity
  8
0
  6
CONTINUOUS
 62
               7
100
AcDbLine
 10
-49.864929101827329
 20
-7.7406751185654912
 30
0.0
 11
-49.429633877637571
 21
-7.6240381121634755
 31
0.0
  0
ARC
  5
200
100
AcDbEntity
  8
0
  6
CONTINUOUS
 62
               7
100
AcDbCircle
 10
-49.929633835914331
 20
-7.4991936520967784
 30
0.0
 40
0.25
100
AcDbArc
 50
179.99999999999963
 51
284.99999339411909
  0
LINE
  5
201
100
AcDbEntity
  8
0
  6
CONTINUOUS
 62
               7
100
AcDbLine
 10
-52.429633835914331
 20
-6.6249999970196995
 30
0.0
 11
-52.429633835914331
 21
-6.3749999899416707
 31
0.0
  0
LINE
  5
202
100
AcDbEntity
  8
0
  6
CONTINUOUS
 62
               7
100
AcDbLine
 10
-55.929633835914331
 20
-6.6249999970196995
 30
0.0
 11
-55.929633835914331
 21
-6.3749999899416707
 31
0.0
  0
LINE
  5
203
100
AcDbEntity
  8
0
  6
CONTINUOUS
 62
               7
100
AcDbLine
 10
-55.679633847835248
 20
-6.8749999899416707
 30
0.0
 11
-52.679633835914331
 21
-6.8749999899416707
 31
0.0
  0
ARC
  5
204
100
AcDbEntity
  8
0
  6
CONTINUOUS
 62
               7
100
AcDbCircle
 10
-55.679633835914331
 20
-6.6249999899416707
 30
0.0
 40
0.25
100
AcDbArc
 50
179.99999999999963
 51
269.99999999999937
  0
ARC
  5
205
100
AcDbEntity
  8
0
  6
CONTINUOUS
 62
               7
100
AcDbCircle
 10
-52.679633835914331
 20
-6.6249999899416707
 30
0.0
 40
0.25
100
AcDbArc
 50
270.00000000000023
 51
0.0
  0
LINE
  5
206
100
AcDbEntity
  8
0
  6
CONTINUOUS
 62
               7
100
AcDbLine
 10
-52.429633835914331
 20
-6.3749999899416707
 30
0.0
 11
-50.429633847835248
 21
-6.3749999899416707
 31
0.0
  0
LINE
  5
207
100
AcDbEntity
  8
0
  6
CONTINUOUS
 62
               7
100
AcDbLine
 10
-55.929633835914331
 20
-8.025000002980164
 30
0.0
 11
-55.929633835914331
 21
-7.9249999791383061
 31
0.0
  0
LINE
  5
208
100
AcDbEntity
  8
0
  6
CONTINUOUS
 62
               7
100
AcDbLine
 10
-55.729633835914342
 20
-8.024999989941648
 30
0.0
 11
-53.629633835914319
 21
-8.524999989941648
 31
0.0
  0
LINE
  5
209
100
AcDbEntity
  8
0
  6
CONTINUOUS
 62
               7
100
AcDbLine
 10
-55.729633835914342
 20
-7.9222045940134649
 30
0.0
 11
-53.606471783183736
 21
-8.4277193684731628
 31
0.0
  0
LINE
  5
20A
100
AcDbEntity
  8
0
  6
CONTINUOUS
 62
               7
100
AcDbLine
 10
-53.629633835914319
 20
-8.524999989941648
 30
0.0
 11
-53.606471783183736
 21
-8.4277193684731628
 31
0.0
  0
LINE
  5
20B
100
AcDbEntity
  8
0
  6
CONTINUOUS
 62
               7
100
AcDbLine
 10
-55.297893173015893
 20
-8.024999989941648
 30
0.0
 11
-53.122454203003883
 21
-8.024999989941648
 31
0.0
  0
LINE
  5
20C
100
AcDbEntity
  8
0
  6
CONTINUOUS
 62
               7
100
AcDbLine
 10
-55.929633847835248
 20
-7.9222045940134649
 30
0.0
 11
-55.729633835914342
 21
-7.9222045940134649
 31
0.0
  0
LINE
  5
20D
100
AcDbEntity
  8
0
  6
CONTINUOUS
 62
               7
100
AcDbLine
 10
-55.82963382399339
 20
-7.8249999899416594
 30
0.0
 11
-55.397893173015859
 21
-7.8249999899416594
 31
0.0
  0
ARC
  5
20E
100
AcDbEntity
  8
0
  6
CONTINUOUS
 62
               7
100
AcDbCircle
 10
-55.829633835914365
 20
-7.9249999899416252
 30
0.0
 40
0.1
100
AcDbArc
 50
89.999999999999815
 51
179.99999999999963
  0
LINE
  5
20F
100
AcDbEntity
  8
0
  6
CONTINUOUS
 62
               7
100
AcDbLine
 10
-55.297893173015893
 20
-8.025000002980164
 30
0.0
 11
-55.297893173015893
 21
-7.9249999791383061
 31
0.0
  0
ARC
  5
210
100
AcDbEntity
  8
0
  6
CONTINUOUS
 62
               7
100
AcDbCircle
 10
-55.397893173015859
 20
-7.9249999899416252
 30
0.0
 40
0.1
100
AcDbArc
 50
0.0
 51
89.999999999999815
  0
LINE
  5
211
100
AcDbEntity
  8
0
  6
CONTINUOUS
 62
               7
100
AcDbLine
 10
-54.797893173015893
 20
-8.025000002980164
 30
0.0
 11
-54.797893173015893
 21
-7.9249999791383061
 31
0.0
  0
LINE
  5
212
100
AcDbEntity
  8
0
  6
CONTINUOUS
 62
               7
100
AcDbLine
 10
-52.429633835914331
 20
-8.025000002980164
 30
0.0
 11
-52.429633835914331
 21
-7.9249999791383061
 31
0.0
  0
LINE
  5
213
100
AcDbEntity
  8
0
  6
CONTINUOUS
 62
               7
100
AcDbLine
 10
-54.697893164518064
 20
-7.8249999899416594
 30
0.0
 11
-52.529633841874784
 21
-7.8249999899416594
 31
0.0
  0
ARC
  5
214
100
AcDbEntity
  8
0
  6
CONTINUOUS
 62
               7
100
AcDbCircle
 10
-52.529633835914353
 20
-7.9249999899416252
 30
0.0
 40
0.1
100
AcDbArc
 50
0.0
 51
89.999999999999815
  0
ARC
  5
215
100
AcDbEntity
  8
0
  6
CONTINUOUS
 62
               7
100
AcDbCircle
 10
-54.697893173015871
 20
-7.9249999899416252
 30
0.0
 40
0.1
100
AcDbArc
 50
89.999999999999815
 51
179.99999999999963
  0
LINE
  5
216
100
AcDbEntity
  8
0
  6
CONTINUOUS
 62
               7
100
AcDbLine
 10
-52.429633835914331
 20
-8.024999989941648
 30
0.0
 11
-46.629633835914319
 21
-8.024999989941648
 31
0.0
  0
LINE
  5
217
100
AcDbEntity
  8
0
  6
CONTINUOUS
 62
               7
100
AcDbLine
 10
-52.776044003131574
 20
-7.8249999999999318
 30
0.0
 11
-52.429633859039257
 21
-8.024999989941648
 31
0.0
  0
LINE
  5
218
100
AcDbEntity
  8
0
  6
CONTINUOUS
 62
               7
100
AcDbLine
 10
-53.122454218032544
 20
-8.025000002980164
 30
0.0
 11
-52.776044003131574
 21
-7.8249999701976094
 31
0.0
  0
LINE
  5
219
100
AcDbEntity
  8
0
  6
CONTINUOUS
 62
               7
100
AcDbLine
 10
-53.149249158265775
 20
-7.9249999940394673
 30
0.0
 11
-52.976044021012967
 21
-7.8249999701976094
 31
0.0
  0
LINE
  5
21A
100
AcDbEntity
  8
0
  6
CONTINUOUS
 62
               7
100
AcDbLine
 10
-54.797893173015893
 20
-7.9249999899416252
 30
0.0
 11
-53.149249144466921
 21
-7.9249999899416252
 31
0.0
  0
LINE
  5
21B
100
AcDbEntity
  8
0
  6
CONTINUOUS
 62
               7
100
AcDbLine
 10
-55.929633847835248
 20
-6.5749999899416594
 30
0.0
 11
-55.278634932659145
 21
-6.5749999899416594
 31
0.0
  0
LINE
  5
21C
100
AcDbEntity
  8
0
  6
CONTINUOUS
 62
               7
100
AcDbLine
 10
-55.929633847835248
 20
-6.6749999899416252
 30
0.0
 11
-55.297893173015893
 21
-6.6749999899416252
 31
0.0
  0
LINE
  5
21D
100
AcDbEntity
  8
0
  6
CONTINUOUS
 62
               7
100
AcDbLine
 10
-55.297893173015893
 20
-6.6749999899416252
 30
0.0
 11
-54.797893173015893
 21
-6.8749999899416707
 31
0.0
  0
LINE
  5
21E
100
AcDbEntity
  8
0
  6
CONTINUOUS
 62
               7
100
AcDbLine
 10
-55.278634932659145
 20
-6.5749999899416594
 30
0.0
 11
-54.528634932659145
 21
-6.8749999899416707
 31
0.0
  0
LINE
  5
21F
100
AcDbEntity
  8
0
  6
CONTINUOUS
 62
               7
100
AcDbLine
 10
-52.773410791972424
 20
-6.3765202649848902
 30
0.0
 11
-52.429633835914331
 21
-6.5749999831062382
 31
0.0
  0
LINE
  5
220
100
AcDbEntity
  8
0
  6
CONTINUOUS
 62
               7
100
AcDbLine
 10
-52.776044003131574
 20
-6.4779162079095158
 30
0.0
 11
-52.429633818032926
 21
-6.6779162108897481
 31
0.0
  0
LINE
  5
221
100
AcDbEntity
  8
0
  6
CONTINUOUS
 62
               7
100
AcDbLine
 10
-52.776043973329251
 20
-6.4779162126170036
 30
0.0
 11
-54.797893173015893
 21
-6.7672966937989827
 31
0.0
  0
LINE
  5
222
100
AcDbEntity
  8
0
  6
CONTINUOUS
 62
               7
100
AcDbLine
 10
-52.773410791972424
 20
-6.3765202649848902
 30
0.0
 11
-54.983888596400959
 21
-6.6928985244449564
 31
0.0
  0
LINE
  5
223
100
AcDbEntity
  8
0
  6
CONTINUOUS
 62
               7
100
AcDbLine
 10
-56.629633835914319
 20
-8.025000002980164
 30
0.0
 11
-56.629633835914319
 21
-7.7249999899416935
 31
0.0
  0
LINE
  5
224
100
AcDbEntity
  8
0
  6
CONTINUOUS
 62
               7
100
AcDbLine
 10
-56.629633835914319
 20
-7.7249999899416935
 30
0.0
 11
-56.429633835914331
 21
-7.7249999899416935
 31
0.0
  0
LINE
  5
225
100
AcDbEntity
  8
0
  6
CONTINUOUS
 62
               7
100
AcDbLine
 10
-44.183324116801543
 20
-3.3749999899416707
 30
0.0
 11
-45.5759435396551
 21
-3.3749999899416707
 31
0.0
  0
LINE
  5
226
100
AcDbEntity
  8
0
  6
CONTINUOUS
 62
               7
100
AcDbLine
 10
-45.629633835914319
 20
-5.1124886542557988
 30
0.0
 11
-44.122649683083182
 21
-5.1124886542557988
 31
0.0
  0
LINE
  5
227
100
AcDbEntity
  8
0
  6
CONTINUOUS
 62
               7
100
AcDbLine
 10
-56.429633835914331
 20
-5.025000002980164
 30
0.0
 11
-56.429633835914331
 21
-3.3749999970196995
 31
0.0
  0
LINE
  5
228
100
AcDbEntity
  8
0
  6
CONTINUOUS
 62
               7
100
AcDbLine
 10
-46.629633865716642
 20
-4.824999990686706
 30
0.0
 11
-45.629633865716642
 21
-4.9124886531382117
 31
0.0
  0
LINE
  5
229
100
AcDbEntity
  8
0
  6
CONTINUOUS
 62
               7
100
AcDbLine
 10
-46.629633865716642
 20
-5.024999989941648
 30
0.0
 11
-45.629633865716642
 21
-5.1124886523931536
 31
0.0
  0
LINE
  5
22A
100
AcDbEntity
  8
0
  6
CONTINUOUS
 62
               7
100
AcDbLine
 10
-45.62963385081548
 20
-4.9124886959790501
 30
0.0
 11
-44.741964329606503
 21
-3.3749999899416707
 31
0.0
  0
LINE
  5
22B
100
AcDbEntity
  8
0
  6
CONTINUOUS
 62
               7
100
AcDbLine
 10
-44.122649683083182
 20
-5.1124886542557988
 30
0.0
 11
-44.183324124417709
 21
-3.3749999899416707
 31
0.0
  0
LINE
  5
22C
100
AcDbEntity
  8
0
  6
CONTINUOUS
 62
               7
100
AcDbLine
 10
-45.629633834982997
 20
-4.9124889045953068
 30
0.0
 11
-45.5759435396551
 21
-3.3749999899416707
 31
0.0
  0
LINE
  5
22D
100
AcDbEntity
  8
0
  6
CONTINUOUS
 62
               7
100
AcDbLine
 10
-44.879633835914319
 20
-3.6134506136178288
 30
0.0
 11
-45.017303365048974
 21
-3.3749999899416707
 31
0.0
  0
LINE
  5
22E
100
AcDbEntity
  8
0
  6
CONTINUOUS
 62
               7
100
AcDbLine
 10
-49.429633835914331
 20
-4.6240380972623143
 30
0.0
 11
-49.429633835914331
 21
-3.6749999791383061
 31
0.0
  0
LINE
  5
22F
100
AcDbEntity
  8
0
  6
CONTINUOUS
 62
               7
100
AcDbLine
 10
-46.629633835914319
 20
-4.8249999850987706
 30
0.0
 11
-46.629633835914319
 21
-3.6749999899416252
 31
0.0
  0
LINE
  5
230
100
AcDbEntity
  8
0
  6
CONTINUOUS
 62
               7
100
AcDbLine
 10
-56.629633835914319
 20
-5.024999989941648
 30
0.0
 11
-55.729633835914342
 21
-5.024999989941648
 31
0.0
  0
LINE
  5
231
100
AcDbEntity
  8
0
  6
CONTINUOUS
 62
               7
100
AcDbLine
 10
-49.179633847835248
 20
-3.4249999899416252
 30
0.0
 11
-46.879633835914319
 21
-3.4249999899416252
 31
0.0
  0
ARC
  5
232
100
AcDbEntity
  8
0
  6
CONTINUOUS
 62
               7
100
AcDbCircle
 10
-46.879633835914319
 20
-3.6749999899416252
 30
0.0
 40
0.25
100
AcDbArc
 50
0.0
 51
89.999999999999815
  0
ARC
  5
233
100
AcDbEntity
  8
0
  6
CONTINUOUS
 62
               7
100
AcDbCircle
 10
-49.179633835914331
 20
-3.6749999899416252
 30
0.0
 40
0.25
100
AcDbArc
 50
89.999999999999815
 51
179.99999999999963
  0
LINE
  5
234
100
AcDbEntity
  8
0
  6
CONTINUOUS
 62
               7
100
AcDbLine
 10
-56.429633847835248
 20
-3.3749999899416707
 30
0.0
 11
-55.929633847835248
 21
-3.3749999899416707
 31
0.0
  0
LINE
  5
235
100
AcDbEntity
  8
0
  6
CONTINUOUS
 62
               7
100
AcDbLine
 10
-50.179633835914331
 20
-4.4991936653851781
 30
0.0
 11
-50.179633835914331
 21
-3.6249999970196995
 31
0.0
  0
ARC
  5
236
100
AcDbEntity
  8
0
  6
CONTINUOUS
 62
               7
100
AcDbCircle
 10
-50.429633835914331
 20
-3.6249999899416707
 30
0.0
 40
0.25
100
AcDbArc
 50
0.0
 51
89.999999999999815
  0
LINE
  5
237
100
AcDbEntity
  8
0
  6
CONTINUOUS
 62
               7
100
AcDbLine
 10
-49.864929101827329
 20
-4.7406751185654912
 30
0.0
 11
-49.429633877637571
 21
-4.6240381121634755
 31
0.0
  0
ARC
  5
238
100
AcDbEntity
  8
0
  6
CONTINUOUS
 62
               7
100
AcDbCircle
 10
-49.929633835914331
 20
-4.4991936520967784
 30
0.0
 40
0.25
100
AcDbArc
 50
179.99999999999963
 51
284.99999339411909
  0
LINE
  5
239
100
AcDbEntity
  8
0
  6
CONTINUOUS
 62
               7
100
AcDbLine
 10
-52.429633835914331
 20
-3.6249999970196995
 30
0.0
 11
-52.429633835914331
 21
-3.3749999899416707
 31
0.0
  0
LINE
  5
23A
100
AcDbEntity
  8
0
  6
CONTINUOUS
 62
               7
100
AcDbLine
 10
-55.929633835914331
 20
-3.6249999970196995
 30
0.0
 11
-55.929633835914331
 21
-3.3749999899416707
 31
0.0
  0
LINE
  5
23B
100
AcDbEntity
  8
0
  6
CONTINUOUS
 62
               7
100
AcDbLine
 10
-55.679633847835248
 20
-3.8749999899416707
 30
0.0
 11
-52.679633835914331
 21
-3.8749999899416707
 31
0.0
  0
ARC
  5
23C
100
AcDbEntity
  8
0
  6
CONTINUOUS
 62
               7
100
AcDbCircle
 10
-55.679633835914331
 20
-3.6249999899416707
 30
0.0
 40
0.25
100
AcDbArc
 50
179.99999999999963
 51
269.99999999999937
  0
ARC
  5
23D
100
AcDbEntity
  8
0
  6
CONTINUOUS
 62
               7
100
AcDbCircle
 10
-52.679633835914331
 20
-3.6249999899416707
 30
0.0
 40
0.25
100
AcDbArc
 50
270.00000000000023
 51
0.0
  0
LINE
  5
23E
100
AcDbEntity
  8
0
  6
CONTINUOUS
 62
               7
100
AcDbLine
 10
-52.429633835914331
 20
-3.3749999899416707
 30
0.0
 11
-50.429633847835248
 21
-3.3749999899416707
 31
0.0
  0
LINE
  5
23F
100
AcDbEntity
  8
0
  6
CONTINUOUS
 62
               7
100
AcDbLine
 10
-55.929633835914331
 20
-5.025000002980164
 30
0.0
 11
-55.929633835914331
 21
-4.9249999791383061
 31
0.0
  0
LINE
  5
240
100
AcDbEntity
  8
0
  6
CONTINUOUS
 62
               7
100
AcDbLine
 10
-55.729633835914342
 20
-5.024999989941648
 30
0.0
 11
-53.629633835914319
 21
-5.524999989941648
 31
0.0
  0
LINE
  5
241
100
AcDbEntity
  8
0
  6
CONTINUOUS
 62
               7
100
AcDbLine
 10
-55.729633835914342
 20
-4.9222045940134649
 30
0.0
 11
-53.606471783183736
 21
-5.4277193684731628
 31
0.0
  0
LINE
  5
242
100
AcDbEntity
  8
0
  6
CONTINUOUS
 62
               7
100
AcDbLine
 10
-53.629633835914319
 20
-5.524999989941648
 30
0.0
 11
-53.606471783183736
 21
-5.4277193684731628
 31
0.0
  0
LINE
  5
243
100
AcDbEntity
  8
0
  6
CONTINUOUS
 62
               7
100
AcDbLine
 10
-55.297893173015893
 20
-5.024999989941648
 30
0.0
 11
-53.122454203003883
 21
-5.024999989941648
 31
0.0
  0
LINE
  5
244
100
AcDbEntity
  8
0
  6
CONTINUOUS
 62
               7
100
AcDbLine
 10
-55.929633847835248
 20
-4.9222045940134649
 30
0.0
 11
-55.729633835914342
 21
-4.9222045940134649
 31
0.0
  0
LINE
  5
245
100
AcDbEntity
  8
0
  6
CONTINUOUS
 62
               7
100
AcDbLine
 10
-55.82963382399339
 20
-4.8249999899416594
 30
0.0
 11
-55.397893173015859
 21
-4.8249999899416594
 31
0.0
  0
ARC
  5
246
100
AcDbEntity
  8
0
  6
CONTINUOUS
 62
               7
100
AcDbCircle
 10
-55.829633835914365
 20
-4.9249999899416252
 30
0.0
 40
0.1
100
AcDbArc
 50
89.999999999999815
 51
179.99999999999963
  0
LINE
  5
247
100
AcDbEntity
  8
0
  6
CONTINUOUS
 62
               7
100
AcDbLine
 10
-55.297893173015893
 20
-5.025000002980164
 30
0.0
 11
-55.297893173015893
 21
-4.9249999791383061
 31
0.0
  0
ARC
  5
248
100
AcDbEntity
  8
0
  6
CONTINUOUS
 62
               7
100
AcDbCircle
 10
-55.397893173015859
 20
-4.9249999899416252
 30
0.0
 40
0.1
100
AcDbArc
 50
0.0
 51
89.999999999999815
  0
LINE
  5
249
100
AcDbEntity
  8
0
  6
CONTINUOUS
 62
               7
100
AcDbLine
 10
-54.797893173015893
 20
-5.025000002980164
 30
0.0
 11
-54.797893173015893
 21
-4.9249999791383061
 31
0.0
  0
LINE
  5
24A
100
AcDbEntity
  8
0
  6
CONTINUOUS
 62
               7
100
AcDbLine
 10
-52.429633835914331
 20
-5.025000002980164
 30
0.0
 11
-52.429633835914331
 21
-4.9249999791383061
 31
0.0
  0
LINE
  5
24B
100
AcDbEntity
  8
0
  6
CONTINUOUS
 62
               7
100
AcDbLine
 10
-54.697893164518064
 20
-4.8249999899416594
 30
0.0
 11
-52.529633841874784
 21
-4.8249999899416594
 31
0.0
  0
ARC
  5
24C
100
AcDbEntity
  8
0
  6
CONTINUOUS
 62
               7
100
AcDbCircle
 10
-52.529633835914353
 20
-4.9249999899416252
 30
0.0
 40
0.1
100
AcDbArc
 50
0.0
 51
89.999999999999815
  0
ARC
  5
24D
100
AcDbEntity
  8
0
  6
CONTINUOUS
 62
               7
100
AcDbCircle
 10
-54.697893173015871
 20
-4.9249999899416252
 30
0.0
 40
0.1
100
AcDbArc
 50
89.999999999999815
 51
179.99999999999963
  0
LINE
  5
24E
100
AcDbEntity
  8
0
  6
CONTINUOUS
 62
               7
100
AcDbLine
 10
-52.429633835914331
 20
-5.024999989941648
 30
0.0
 11
-46.629633835914319
 21
-5.024999989941648
 31
0.0
  0
LINE
  5
24F
100
AcDbEntity
  8
0
  6
CONTINUOUS
 62
               7
100
AcDbLine
 10
-52.776044003131574
 20
-4.8249999999999318
 30
0.0
 11
-52.429633859039257
 21
-5.024999989941648
 31
0.0
  0
LINE
  5
250
100
AcDbEntity
  8
0
  6
CONTINUOUS
 62
               7
100
AcDbLine
 10
-53.122454218032544
 20
-5.025000002980164
 30
0.0
 11
-52.776044003131574
 21
-4.8249999701976094
 31
0.0
  0
LINE
  5
251
100
AcDbEntity
  8
0
  6
CONTINUOUS
 62
               7
100
AcDbLine
 10
-53.149249158265775
 20
-4.9249999940394673
 30
0.0
 11
-52.976044021012967
 21
-4.8249999701976094
 31
0.0
  0
LINE
  5
252
100
AcDbEntity
  8
0
  6
CONTINUOUS
 62
               7
100
AcDbLine
 10
-54.797893173015893
 20
-4.9249999899416252
 30
0.0
 11
-53.149249144466921
 21
-4.9249999899416252
 31
0.0
  0
LINE
  5
253
100
AcDbEntity
  8
0
  6
CONTINUOUS
 62
               7
100
AcDbLine
 10
-55.929633847835248
 20
-3.5749999899416594
 30
0.0
 11
-55.278634932659145
 21
-3.5749999899416594
 31
0.0
  0
LINE
  5
254
100
AcDbEntity
  8
0
  6
CONTINUOUS
 62
               7
100
AcDbLine
 10
-55.929633847835248
 20
-3.6749999899416252
 30
0.0
 11
-55.297893173015893
 21
-3.6749999899416252
 31
0.0
  0
LINE
  5
255
100
AcDbEntity
  8
0
  6
CONTINUOUS
 62
               7
100
AcDbLine
 10
-55.297893173015893
 20
-3.6749999899416252
 30
0.0
 11
-54.797893173015893
 21
-3.8749999899416707
 31
0.0
  0
LINE
  5
256
100
AcDbEntity
  8
0
  6
CONTINUOUS
 62
               7
100
AcDbLine
 10
-55.278634932659145
 20
-3.5749999899416594
 30
0.0
 11
-54.528634932659145
 21
-3.8749999899416707
 31
0.0
  0
LINE
  5
257
100
AcDbEntity
  8
0
  6
CONTINUOUS
 62
               7
100
AcDbLine
 10
-52.773410791972424
 20
-3.3765202649848902
 30
0.0
 11
-52.429633835914331
 21
-3.5749999831062382
 31
0.0
  0
LINE
  5
258
100
AcDbEntity
  8
0
  6
CONTINUOUS
 62
               7
100
AcDbLine
 10
-52.776044003131574
 20
-3.4779162079095158
 30
0.0
 11
-52.429633818032926
 21
-3.6779162108897481
 31
0.0
  0
LINE
  5
259
100
AcDbEntity
  8
0
  6
CONTINUOUS
 62
               7
100
AcDbLine
 10
-52.776043973329251
 20
-3.4779162126170036
 30
0.0
 11
-54.797893173015893
 21
-3.7672966937989827
 31
0.0
  0
LINE
  5
25A
100
AcDbEntity
  8
0
  6
CONTINUOUS
 62
               7
100
AcDbLine
 10
-52.773410791972424
 20
-3.3765202649848902
 30
0.0
 11
-54.983888596400959
 21
-3.6928985244449564
 31
0.0
  0
LINE
  5
25B
100
AcDbEntity
  8
0
  6
CONTINUOUS
 62
               7
100
AcDbLine
 10
-56.629633835914319
 20
-5.025000002980164
 30
0.0
 11
-56.629633835914319
 21
-4.7249999899416935
 31
0.0
  0
LINE
  5
25C
100
AcDbEntity
  8
0
  6
CONTINUOUS
 62
               7
100
AcDbLine
 10
-56.629633835914319
 20
-4.7249999899416935
 30
0.0
 11
-56.429633835914331
 21
-4.7249999899416935
 31
0.0
  0
LINE
  5
25D
100
AcDbEntity
  8
0
  6
CONTINUOUS
 62
               7
100
AcDbLine
 10
-44.183324116801543
 20
-0.3749999899416707
 30
0.0
 11
-45.5759435396551
 21
-0.3749999899416707
 31
0.0
  0
LINE
  5
25E
100
AcDbEntity
  8
0
  6
CONTINUOUS
 62
               7
100
AcDbLine
 10
-45.629633835914319
 20
-2.1124886542557988
 30
0.0
 11
-44.122649683083182
 21
-2.1124886542557988
 31
0.0
  0
LINE
  5
25F
100
AcDbEntity
  8
0
  6
CONTINUOUS
 62
               7
100
AcDbLine
 10
-56.429633835914331
 20
-2.025000002980164
 30
0.0
 11
-56.429633835914331
 21
-0.3749999970196996
 31
0.0
  0
LINE
  5
260
100
AcDbEntity
  8
0
  6
CONTINUOUS
 62
               7
100
AcDbLine
 10
-46.629633865716642
 20
-1.824999990686706
 30
0.0
 11
-45.629633865716642
 21
-1.9124886531382117
 31
0.0
  0
LINE
  5
261
100
AcDbEntity
  8
0
  6
CONTINUOUS
 62
               7
100
AcDbLine
 10
-46.629633865716642
 20
-2.024999989941648
 30
0.0
 11
-45.629633865716642
 21
-2.1124886523931536
 31
0.0
  0
LINE
  5
262
100
AcDbEntity
  8
0
  6
CONTINUOUS
 62
               7
100
AcDbLine
 10
-45.62963385081548
 20
-1.9124886959790501
 30
0.0
 11
-44.741964329606503
 21
-0.3749999899416707
 31
0.0
  0
LINE
  5
263
100
AcDbEntity
  8
0
  6
CONTINUOUS
 62
               7
100
AcDbLine
 10
-44.122649683083182
 20
-2.1124886542557988
 30
0.0
 11
-44.183324124417709
 21
-0.3749999899416707
 31
0.0
  0
LINE
  5
264
100
AcDbEntity
  8
0
  6
CONTINUOUS
 62
               7
100
AcDbLine
 10
-45.629633834982997
 20
-1.9124889045953068
 30
0.0
 11
-45.5759435396551
 21
-0.3749999899416707
 31
0.0
  0
LINE
  5
265
100
AcDbEntity
  8
0
  6
CONTINUOUS
 62
               7
100
AcDbLine
 10
-44.879633835914319
 20
-0.6134506136178288
 30
0.0
 11
-45.017303365048974
 21
-0.3749999899416707
 31
0.0
  0
LINE
  5
266
100
AcDbEntity
  8
0
  6
CONTINUOUS
 62
               7
100
AcDbLine
 10
-49.429633835914331
 20
-1.6240380972623143
 30
0.0
 11
-49.429633835914331
 21
-0.6749999791383061
 31
0.0
  0
LINE
  5
267
100
AcDbEntity
  8
0
  6
CONTINUOUS
 62
               7
100
AcDbLine
 10
-46.629633835914319
 20
-1.8249999850987706
 30
0.0
 11
-46.629633835914319
 21
-0.6749999899416252
 31
0.0
  0
LINE
  5
268
100
AcDbEntity
  8
0
  6
CONTINUOUS
 62
               7
100
AcDbLine
 10
-56.629633835914319
 20
-2.024999989941648
 30
0.0
 11
-55.729633835914342
 21
-2.024999989941648
 31
0.0
  0
LINE
  5
269
100
AcDbEntity
  8
0
  6
CONTINUOUS
 62
               7
100
AcDbLine
 10
-49.179633847835248
 20
-0.4249999899416252
 30
0.0
 11
-46.879633835914319
 21
-0.4249999899416252
 31
0.0
  0
ARC
  5
26A
100
AcDbEntity
  8
0
  6
CONTINUOUS
 62
               7
100
AcDbCircle
 10
-46.879633835914319
 20
-0.6749999899416252
 30
0.0
 40
0.25
100
AcDbArc
 50
0.0
 51
89.999999999999815
  0
ARC
  5
26B
100
AcDbEntity
  8
0
  6
CONTINUOUS
 62
               7
100
AcDbCircle
 10
-49.179633835914331
 20
-0.6749999899416252
 30
0.0
 40
0.25
100
AcDbArc
 50
89.999999999999815
 51
179.99999999999963
  0
LINE
  5
26C
100
AcDbEntity
  8
0
  6
CONTINUOUS
 62
               7
100
AcDbLine
 10
-56.429633847835248
 20
-0.3749999899416707
 30
0.0
 11
-55.929633847835248
 21
-0.3749999899416707
 31
0.0
  0
LINE
  5
26D
100
AcDbEntity
  8
0
  6
CONTINUOUS
 62
               7
100
AcDbLine
 10
-50.179633835914331
 20
-1.4991936653851781
 30
0.0
 11
-50.179633835914331
 21
-0.6249999970196996
 31
0.0
  0
ARC
  5
26E
100
AcDbEntity
  8
0
  6
CONTINUOUS
 62
               7
100
AcDbCircle
 10
-50.429633835914331
 20
-0.6249999899416707
 30
0.0
 40
0.25
100
AcDbArc
 50
0.0
 51
89.999999999999815
  0
LINE
  5
26F
100
AcDbEntity
  8
0
  6
CONTINUOUS
 62
               7
100
AcDbLine
 10
-49.864929101827329
 20
-1.7406751185654912
 30
0.0
 11
-49.429633877637571
 21
-1.6240381121634755
 31
0.0
  0
ARC
  5
270
100
AcDbEntity
  8
0
  6
CONTINUOUS
 62
               7
100
AcDbCircle
 10
-49.929633835914331
 20
-1.4991936520967784
 30
0.0
 40
0.25
100
AcDbArc
 50
179.99999999999963
 51
284.99999339411909
  0
LINE
  5
271
100
AcDbEntity
  8
0
  6
CONTINUOUS
 62
               7
100
AcDbLine
 10
-52.429633835914331
 20
-0.6249999970196996
 30
0.0
 11
-52.429633835914331
 21
-0.3749999899416707
 31
0.0
  0
LINE
  5
272
100
AcDbEntity
  8
0
  6
CONTINUOUS
 62
               7
100
AcDbLine
 10
-55.929633835914331
 20
-0.6249999970196996
 30
0.0
 11
-55.929633835914331
 21
-0.3749999899416707
 31
0.0
  0
LINE
  5
273
100
AcDbEntity
  8
0
  6
CONTINUOUS
 62
               7
100
AcDbLine
 10
-55.679633847835248
 20
-0.8749999899416707
 30
0.0
 11
-52.679633835914331
 21
-0.8749999899416707
 31
0.0
  0
ARC
  5
274
100
AcDbEntity
  8
0
  6
CONTINUOUS
 62
               7
100
AcDbCircle
 10
-55.679633835914331
 20
-0.6249999899416707
 30
0.0
 40
0.25
100
AcDbArc
 50
179.99999999999963
 51
269.99999999999937
  0
ARC
  5
275
100
AcDbEntity
  8
0
  6
CONTINUOUS
 62
               7
100
AcDbCircle
 10
-52.679633835914331
 20
-0.6249999899416707
 30
0.0
 40
0.25
100
AcDbArc
 50
270.00000000000023
 51
0.0
  0
LINE
  5
276
100
AcDbEntity
  8
0
  6
CONTINUOUS
 62
               7
100
AcDbLine
 10
-52.429633835914331
 20
-0.3749999899416707
 30
0.0
 11
-50.429633847835248
 21
-0.3749999899416707
 31
0.0
  0
LINE
  5
277
100
AcDbEntity
  8
0
  6
CONTINUOUS
 62
               7
100
AcDbLine
 10
-55.929633835914331
 20
-2.025000002980164
 30
0.0
 11
-55.929633835914331
 21
-1.9249999791383061
 31
0.0
  0
LINE
  5
278
100
AcDbEntity
  8
0
  6
CONTINUOUS
 62
               7
100
AcDbLine
 10
-55.729633835914342
 20
-2.024999989941648
 30
0.0
 11
-53.629633835914319
 21
-2.524999989941648
 31
0.0
  0
LINE
  5
279
100
AcDbEntity
  8
0
  6
CONTINUOUS
 62
               7
100
AcDbLine
 10
-55.729633835914342
 20
-1.9222045940134649
 30
0.0
 11
-53.606471783183736
 21
-2.4277193684731628
 31
0.0
  0
LINE
  5
27A
100
AcDbEntity
  8
0
  6
CONTINUOUS
 62
               7
100
AcDbLine
 10
-53.629633835914319
 20
-2.524999989941648
 30
0.0
 11
-53.606471783183736
 21
-2.4277193684731628
 31
0.0
  0
LINE
  5
27B
100
AcDbEntity
  8
0
  6
CONTINUOUS
 62
               7
100
AcDbLine
 10
-55.297893173015893
 20
-2.024999989941648
 30
0.0
 11
-53.122454203003883
 21
-2.024999989941648
 31
0.0
  0
LINE
  5
27C
100
AcDbEntity
  8
0
  6
CONTINUOUS
 62
               7
100
AcDbLine
 10
-55.929633847835248
 20
-1.9222045940134649
 30
0.0
 11
-55.729633835914342
 21
-1.9222045940134649
 31
0.0
  0
LINE
  5
27D
100
AcDbEntity
  8
0
  6
CONTINUOUS
 62
               7
100
AcDbLine
 10
-55.82963382399339
 20
-1.8249999899416594
 30
0.0
 11
-55.397893173015859
 21
-1.8249999899416594
 31
0.0
  0
ARC
  5
27E
100
AcDbEntity
  8
0
  6
CONTINUOUS
 62
               7
100
AcDbCircle
 10
-55.829633835914365
 20
-1.9249999899416252
 30
0.0
 40
0.1
100
AcDbArc
 50
89.999999999999815
 51
179.99999999999963
  0
LINE
  5
27F
100
AcDbEntity
  8
0
  6
CONTINUOUS
 62
               7
100
AcDbLine
 10
-55.297893173015893
 20
-2.025000002980164
 30
0.0
 11
-55.297893173015893
 21
-1.9249999791383061
 31
0.0
  0
ARC
  5
280
100
AcDbEntity
  8
0
  6
CONTINUOUS
 62
               7
100
AcDbCircle
 10
-55.397893173015859
 20
-1.9249999899416252
 30
0.0
 40
0.1
100
AcDbArc
 50
0.0
 51
89.999999999999815
  0
LINE
  5
281
100
AcDbEntity
  8
0
  6
CONTINUOUS
 62
               7
100
AcDbLine
 10
-54.797893173015893
 20
-2.025000002980164
 30
0.0
 11
-54.797893173015893
 21
-1.9249999791383061
 31
0.0
  0
LINE
  5
282
100
AcDbEntity
  8
0
  6
CONTINUOUS
 62
               7
100
AcDbLine
 10
-52.429633835914331
 20
-2.025000002980164
 30
0.0
 11
-52.429633835914331
 21
-1.9249999791383061
 31
0.0
  0
LINE
  5
283
100
AcDbEntity
  8
0
  6
CONTINUOUS
 62
               7
100
AcDbLine
 10
-54.697893164518064
 20
-1.8249999899416594
 30
0.0
 11
-52.529633841874784
 21
-1.8249999899416594
 31
0.0
  0
ARC
  5
284
100
AcDbEntity
  8
0
  6
CONTINUOUS
 62
               7
100
AcDbCircle
 10
-52.529633835914353
 20
-1.9249999899416252
 30
0.0
 40
0.1
100
AcDbArc
 50
0.0
 51
89.999999999999815
  0
ARC
  5
285
100
AcDbEntity
  8
0
  6
CONTINUOUS
 62
               7
100
AcDbCircle
 10
-54.697893173015871
 20
-1.9249999899416252
 30
0.0
 40
0.1
100
AcDbArc
 50
89.999999999999815
 51
179.99999999999963
  0
LINE
  5
286
100
AcDbEntity
  8
0
  6
CONTINUOUS
 62
               7
100
AcDbLine
 10
-52.429633835914331
 20
-2.024999989941648
 30
0.0
 11
-46.629633835914319
 21
-2.024999989941648
 31
0.0
  0
LINE
  5
287
100
AcDbEntity
  8
0
  6
CONTINUOUS
 62
               7
100
AcDbLine
 10
-52.776044003131574
 20
-1.8249999999999318
 30
0.0
 11
-52.429633859039257
 21
-2.024999989941648
 31
0.0
  0
LINE
  5
288
100
AcDbEntity
  8
0
  6
CONTINUOUS
 62
               7
100
AcDbLine
 10
-53.122454218032544
 20
-2.025000002980164
 30
0.0
 11
-52.776044003131574
 21
-1.8249999701976094
 31
0.0
  0
LINE
  5
289
100
AcDbEntity
  8
0
  6
CONTINUOUS
 62
               7
100
AcDbLine
 10
-53.149249158265775
 20
-1.9249999940394673
 30
0.0
 11
-52.976044021012967
 21
-1.8249999701976094
 31
0.0
  0
LINE
  5
28A
100
AcDbEntity
  8
0
  6
CONTINUOUS
 62
               7
100
AcDbLine
 10
-54.797893173015893
 20
-1.9249999899416252
 30
0.0
 11
-53.149249144466921
 21
-1.9249999899416252
 31
0.0
  0
LINE
  5
28B
100
AcDbEntity
  8
0
  6
CONTINUOUS
 62
               7
100
AcDbLine
 10
-55.929633847835248
 20
-0.5749999899416594
 30
0.0
 11
-55.278634932659145
 21
-0.5749999899416594
 31
0.0
  0
LINE
  5
28C
100
AcDbEntity
  8
0
  6
CONTINUOUS
 62
               7
100
AcDbLine
 10
-55.929633847835248
 20
-0.6749999899416252
 30
0.0
 11
-55.297893173015893
 21
-0.6749999899416252
 31
0.0
  0
LINE
  5
28D
100
AcDbEntity
  8
0
  6
CONTINUOUS
 62
               7
100
AcDbLine
 10
-55.297893173015893
 20
-0.6749999899416252
 30
0.0
 11
-54.797893173015893
 21
-0.8749999899416707
 31
0.0
  0
LINE
  5
28E
100
AcDbEntity
  8
0
  6
CONTINUOUS
 62
               7
100
AcDbLine
 10
-55.278634932659145
 20
-0.5749999899416594
 30
0.0
 11
-54.528634932659145
 21
-0.8749999899416707
 31
0.0
  0
LINE
  5
28F
100
AcDbEntity
  8
0
  6
CONTINUOUS
 62
               7
100
AcDbLine
 10
-52.773410791972424
 20
-0.3765202649848902
 30
0.0
 11
-52.429633835914331
 21
-0.5749999831062382
 31
0.0
  0
LINE
  5
290
100
AcDbEntity
  8
0
  6
CONTINUOUS
 62
               7
100
AcDbLine
 10
-52.776044003131574
 20
-0.4779162079095158
 30
0.0
 11
-52.429633818032926
 21
-0.6779162108897481
 31
0.0
  0
LINE
  5
291
100
AcDbEntity
  8
0
  6
CONTINUOUS
 62
               7
100
AcDbLine
 10
-52.776043973329251
 20
-0.4779162126170036
 30
0.0
 11
-54.797893173015893
 21
-0.7672966937989827
 31
0.0
  0
LINE
  5
292
100
AcDbEntity
  8
0
  6
CONTINUOUS
 62
               7
100
AcDbLine
 10
-52.773410791972424
 20
-0.3765202649848902
 30
0.0
 11
-54.983888596400959
 21
-0.6928985244449564
 31
0.0
  0
LINE
  5
293
100
AcDbEntity
  8
0
  6
CONTINUOUS
 62
               7
100
AcDbLine
 10
-56.629633835914319
 20
-2.025000002980164
 30
0.0
 11
-56.629633835914319
 21
-1.7249999899416935
 31
0.0
  0
LINE
  5
294
100
AcDbEntity
  8
0
  6
CONTINUOUS
 62
               7
100
AcDbLine
 10
-56.629633835914319
 20
-1.7249999899416935
 30
0.0
 11
-56.429633835914331
 21
-1.7249999899416935
 31
0.0
  0
LINE
  5
295
100
AcDbEntity
  8
0
  6
CONTINUOUS
 62
               7
100
AcDbLine
 10
-45.590784868351932
 20
-0.7999999999999545
 30
0.0
 11
-46.629633835914319
 21
-0.7999999999999545
 31
0.0
  0
LINE
  5
296
100
AcDbEntity
  8
0
  6
CONTINUOUS
 62
               7
100
AcDbLine
 10
-45.61872147595119
 20
-1.5999999999999091
 30
0.0
 11
-46.629633835914319
 21
-1.5999999999999091
 31
0.0
  0
LINE
  5
297
100
AcDbEntity
  8
0
  6
CONTINUOUS
 62
               7
100
AcDbLine
 10
-49.429633846632953
 20
-0.7999999999999545
 30
0.0
 11
-50.179633835914331
 21
-0.7999999999999545
 31
0.0
  0
LINE
  5
298
100
AcDbEntity
  8
0
  6
CONTINUOUS
 62
               7
100
AcDbLine
 10
-49.429633846632953
 20
-1.5999999999999091
 30
0.0
 11
-50.15840900987871
 21
-1.5999999999999091
 31
0.0
  0
LINE
  5
299
100
AcDbEntity
  8
0
  6
CONTINUOUS
 62
               7
100
AcDbLine
 10
-49.429633846632953
 20
-4.5999999999999091
 30
0.0
 11
-50.15840900987871
 21
-4.5999999999999091
 31
0.0
  0
LINE
  5
29A
100
AcDbEntity
  8
0
  6
CONTINUOUS
 62
               7
100
AcDbLine
 10
-49.429633846632953
 20
-3.7999999999999545
 30
0.0
 11
-50.179633835914331
 21
-3.7999999999999545
 31
0.0
  0
LINE
  5
29B
100
AcDbEntity
  8
0
  6
CONTINUOUS
 62
               7
100
AcDbLine
 10
-45.590784868351932
 20
-3.7999999999999545
 30
0.0
 11
-46.629633835914319
 21
-3.7999999999999545
 31
0.0
  0
LINE
  5
29C
100
AcDbEntity
  8
0
  6
CONTINUOUS
 62
               7
100
AcDbLine
 10
-45.61872147595119
 20
-4.5999999999999091
 30
0.0
 11
-46.629633835914319
 21
-4.5999999999999091
 31
0.0
  0
LINE
  5
29D
100
AcDbEntity
  8
0
  6
CONTINUOUS
 62
               7
100
AcDbLine
 10
-49.429633846632953
 20
-7.5999999999999091
 30
0.0
 11
-50.15840900987871
 21
-7.5999999999999091
 31
0.0
  0
LINE
  5
29E
100
AcDbEntity
  8
0
  6
CONTINUOUS
 62
               7
100
AcDbLine
 10
-49.429633846632953
 20
-6.7999999999999545
 30
0.0
 11
-50.179633835914331
 21
-6.7999999999999545
 31
0.0
  0
LINE
  5
29F
100
AcDbEntity
  8
0
  6
CONTINUOUS
 62
               7
100
AcDbLine
 10
-45.590784868351932
 20
-6.7999999999999545
 30
0.0
 11
-46.629633835914319
 21
-6.7999999999999545
 31
0.0
  0
LINE
  5
2A0
100
AcDbEntity
  8
0
  6
CONTINUOUS
 62
               7
100
AcDbLine
 10
-45.61872147595119
 20
-7.5999999999999091
 30
0.0
 11
-46.629633835914319
 21
-7.5999999999999091
 31
0.0
  0
LINE
  5
2A1
100
AcDbEntity
  8
0
  6
DASHED
 62
               2
100
AcDbLine
 10
-2.5
 20
-3.5
 30
0.0
 11
-2.5
 21
-6.7894597256052407
 31
0.0
  0
LINE
  5
2A2
100
AcDbEntity
  8
0
  6
DASHED
 62
               2
100
AcDbLine
 10
2.5
 20
-3.5
 30
0.0
 11
2.5
 21
-6.7894597256052407
 31
0.0
  0
LINE
  5
2A3
100
AcDbEntity
  8
0
  6
DASHED
 62
               2
100
AcDbLine
 10
-2.0999999999999943
 20
-3.5
 30
0.0
 11
-2.0999999999999943
 21
-7.4888067257199395
 31
0.0
  0
LINE
  5
2A4
100
AcDbEntity
  8
0
  6
DASHED
 62
               2
100
AcDbLine
 10
2.0999999999999943
 20
-3.5
 30
0.0
 11
2.0999999999999943
 21
-7.4888067257199395
 31
0.0
  0
LINE
  5
2A5
100
AcDbEntity
  8
0
  6
DASHED
 62
               2
100
AcDbLine
 10
-5.5
 20
0.0
 30
0.0
 11
-5.0
 21
-0.5
 31
0.0
  0
LINE
  5
2A6
100
AcDbEntity
  8
0
  6
DASHED
 62
               2
100
AcDbLine
 10
-5.0
 20
-0.5
 30
0.0
 11
-5.0
 21
-3.5
 31
0.0
  0
LINE
  5
2A7
100
AcDbEntity
  8
0
  6
DASHED
 62
               2
100
AcDbLine
 10
5.0
 20
-3.5
 30
0.0
 11
-5.0
 21
-3.5
 31
0.0
  0
LINE
  5
2A8
100
AcDbEntity
  8
0
  6
DASHED
 62
               2
100
AcDbLine
 10
5.0
 20
-0.5
 30
0.0
 11
5.0
 21
-3.5
 31
0.0
  0
LINE
  5
2A9
100
AcDbEntity
  8
0
  6
DASHED
 62
               2
100
AcDbLine
 10
5.0
 20
-0.5
 30
0.0
 11
5.5
 21
0.0
 31
0.0
  0
LINE
  5
2AA
100
AcDbEntity
  8
0
  6
CONTINUOUS
 62
               7
100
AcDbLine
 10
10.0
 20
-4.5
 30
0.0
 11
-8.0
 21
-4.5
 31
0.0
  0
LINE
  5
2AB
100
AcDbEntity
  8
0
  6
CONTINUOUS
 62
               7
100
AcDbLine
 10
10.0
 20
-5.5
 30
0.0
 11
-8.0
 21
-5.5
 31
0.0
  0
LINE
  5
2AC
100
AcDbEntity
  8
0
  6
CONTINUOUS
 62
               7
100
AcDbLine
 10
10.0
 20
-0.5
 30
0.0
 11
-8.0
 21
-0.5
 31
0.0
  0
LINE
  5
2AD
100
AcDbEntity
  8
0
  6
CONTINUOUS
 62
               7
100
AcDbLine
 10
10.0
 20
-0.5
 30
0.0
 11
9.5
 21
0.0
 31
0.0
  0
LINE
  5
2AE
100
AcDbEntity
  8
0
  6
CONTINUOUS
 62
               7
100
AcDbLine
 10
-10.0
 20
-21.000000000000014
 30
0.0
 11
-10.0
 21
-25.700000000000003
 31
0.0
  0
LINE
  5
2AF
100
AcDbEntity
  8
0
  6
CONTINUOUS
 62
               7
100
AcDbLine
 10
10.0
 20
-5.5
 30
0.0
 11
10.0
 21
-25.700000000000003
 31
0.0
  0
LINE
  5
2B0
100
AcDbEntity
  8
0
  6
CONTINUOUS
 62
               7
100
AcDbLine
 10
10.0
 20
-4.5
 30
0.0
 11
9.5
 21
-5.0
 31
0.0
  0
LINE
  5
2B1
100
AcDbEntity
  8
0
  6
CONTINUOUS
 62
               7
100
AcDbLine
 10
9.5
 20
-5.0
 30
0.0
 11
10.0
 21
-5.5
 31
0.0
  0
LINE
  5
2B2
100
AcDbEntity
  8
0
  6
CENTER
 62
               2
100
AcDbLine
 10
5.582299500478257
 20
-14.000000000000014
 30
0.0
 11
-5.6689152938675704
 21
-14.000000000000014
 31
0.0
  0
LINE
  5
2B3
100
AcDbEntity
  8
0
  6
CENTER
 62
               2
100
AcDbLine
 10
0.0
 20
2.0
 30
0.0
 11
0.0
 21
-28.700000000000003
 31
0.0
  0
LINE
  5
2B4
100
AcDbEntity
  8
0
  6
CONTINUOUS
 62
               7
100
AcDbLine
 10
9.5
 20
-5.0
 30
0.0
 11
-8.0
 21
-5.0
 31
0.0
  0
LINE
  5
2B5
100
AcDbEntity
  8
0
  6
CONTINUOUS
 62
               7
100
AcDbLine
 10
10.0
 20
-0.5
 30
0.0
 11
10.0
 21
-4.5
 31
0.0
  0
LINE
  5
2B6
100
AcDbEntity
  8
0
  6
CONTINUOUS
 62
               7
100
AcDbLine
 10
9.5
 20
0.0
 30
0.0
 11
-8.0
 21
0.0
 31
0.0
  0
LINE
  5
2B7
100
AcDbEntity
  8
0
  6
CONTINUOUS
 62
               7
100
AcDbLine
 10
-9.6999999999999886
 20
-26.000000000000014
 30
0.0
 11
-10.0
 21
-25.700000000000003
 31
0.0
  0
LINE
  5
2B8
100
AcDbEntity
  8
0
  6
CONTINUOUS
 62
               7
100
AcDbLine
 10
-9.6999999999999886
 20
-26.000000000000014
 30
0.0
 11
9.6999999999999886
 21
-26.000000000000014
 31
0.0
  0
LINE
  5
2B9
100
AcDbEntity
  8
0
  6
CONTINUOUS
 62
               7
100
AcDbLine
 10
10.0
 20
-25.700000000000003
 30
0.0
 11
9.6999999999999886
 21
-26.000000000000014
 31
0.0
  0
LINE
  5
2BA
100
AcDbEntity
  8
0
  6
CONTINUOUS
 62
               7
100
AcDbLine
 10
10.0
 20
-25.700000000000003
 30
0.0
 11
-10.0
 21
-25.700000000000003
 31
0.0
  0
LINE
  5
2BB
100
AcDbEntity
  8
0
  6
CONTINUOUS
 62
               7
100
AcDbLine
 10
-11.699999988148079
 20
-0.4999999999999432
 30
0.0
 11
-8.0
 21
-0.5322894107223419
 31
0.0
  0
LINE
  5
2BC
100
AcDbEntity
  8
0
  6
CONTINUOUS
 62
               7
100
AcDbLine
 10
-18.99999998814809
 20
-1.0916511509958013
 30
0.0
 11
-18.99999998814809
 21
-19.908348849004156
 31
0.0
  0
LINE
  5
2BD
100
AcDbEntity
  8
0
  6
CONTINUOUS
 62
               7
100
AcDbLine
 10
-11.699999988148079
 20
-0.4999999999999432
 30
0.0
 11
-11.699999988148079
 21
-20.499999999999957
 31
0.0
  0
LINE
  5
2BE
100
AcDbEntity
  8
0
  6
CONTINUOUS
 62
               7
100
AcDbLine
 10
-12.699999988148079
 20
-4.2999999999999545
 30
0.0
 11
-12.699999988148079
 21
-5.4999999999999432
 31
0.0
  0
LINE
  5
2BF
100
AcDbEntity
  8
0
  6
CONTINUOUS
 62
               7
100
AcDbLine
 10
-13.599999988148056
 20
-4.2999999999999545
 30
0.0
 11
-13.599999988148056
 21
-5.4999999999999432
 31
0.0
  0
LINE
  5
2C0
100
AcDbEntity
  8
0
  6
CONTINUOUS
 62
               7
100
AcDbLine
 10
-12.699999988148079
 20
-4.3999999999999204
 30
0.0
 11
-13.549999988148102
 21
-4.3999999999999204
 31
0.0
  0
LINE
  5
2C1
100
AcDbEntity
  8
0
  6
CONTINUOUS
 62
               7
100
AcDbLine
 10
-12.699999988148079
 20
-5.3999999999999204
 30
0.0
 11
-13.549999988148102
 21
-5.3999999999999204
 31
0.0
  0
LINE
  5
2C2
100
AcDbEntity
  8
0
  6
CONTINUOUS
 62
               7
100
AcDbLine
 10
-13.549999988148102
 20
-4.3999999999999204
 30
0.0
 11
-13.549999988148102
 21
-5.3999999999999204
 31
0.0
  0
LINE
  5
2C3
100
AcDbEntity
  8
0
  6
CONTINUOUS
 62
               7
100
AcDbLine
 10
-12.849999988148056
 20
-4.3999999999999204
 30
0.0
 11
-12.849999988148056
 21
-5.3999999999999204
 31
0.0
  0
LINE
  5
2C4
100
AcDbEntity
  8
0
  6
CONTINUOUS
 62
               7
100
AcDbLine
 10
-12.699999988148079
 20
-5.4999999999999432
 30
0.0
 11
-13.599999988148056
 21
-5.4999999999999432
 31
0.0
  0
LINE
  5
2C5
100
AcDbEntity
  8
0
  6
CONTINUOUS
 62
               7
100
AcDbLine
 10
-13.599999988148056
 20
-4.2999999999999545
 30
0.0
 11
-12.699999988148079
 21
-4.2999999999999545
 31
0.0
  0
LINE
  5
2C6
100
AcDbEntity
  8
0
  6
CONTINUOUS
 62
               7
100
AcDbLine
 10
-11.699999988148079
 20
-0.4999999999999432
 30
0.0
 11
-18.50436325589726
 21
-0.5916701894636844
 31
0.0
  0
ARC
  5
2C7
100
AcDbEntity
  8
0
  6
CONTINUOUS
 62
               7
100
AcDbCircle
 10
-18.49999998814809
 20
-1.0916511509958013
 30
0.0
 40
0.5
100
AcDbArc
 50
90.500000000000071
 51
179.99999999999963
  0
LINE
  5
2C8
100
AcDbEntity
  8
0
  6
CONTINUOUS
 62
               7
100
AcDbLine
 10
-11.699999988148079
 20
-20.499999999999957
 30
0.0
 11
-8.0
 21
-20.467710589277615
 31
0.0
  0
LINE
  5
2C9
100
AcDbEntity
  8
0
  6
CONTINUOUS
 62
               7
100
AcDbLine
 10
-17.799999988148102
 20
-17.399999999999991
 30
0.0
 11
-18.99999998814809
 21
-17.399999999999991
 31
0.0
  0
LINE
  5
2CA
100
AcDbEntity
  8
0
  6
CONTINUOUS
 62
               7
100
AcDbLine
 10
-17.799999988148102
 20
-20.500000000000014
 30
0.0
 11
-17.799999988148102
 21
-17.399999999999991
 31
0.0
  0
LINE
  5
2CB
100
AcDbEntity
  8
0
  6
CENTER
 62
               2
100
AcDbLine
 10
-17.195856974999174
 20
-19.000000000000014
 30
0.0
 11
-19.435449279208399
 21
-19.000000000000014
 31
0.0
  0
LINE
  5
2CC
100
AcDbEntity
  8
0
  6
CONTINUOUS
 62
               7
100
AcDbLine
 10
-12.849999988148056
 20
-15.59999999999998
 30
0.0
 11
-12.849999988148056
 21
-16.59999999999998
 31
0.0
  0
LINE
  5
2CD
100
AcDbEntity
  8
0
  6
CONTINUOUS
 62
               7
100
AcDbLine
 10
-13.549999988148102
 20
-15.59999999999998
 30
0.0
 11
-13.549999988148102
 21
-16.59999999999998
 31
0.0
  0
LINE
  5
2CE
100
AcDbEntity
  8
0
  6
CONTINUOUS
 62
               7
100
AcDbLine
 10
-12.699999988148079
 20
-16.59999999999998
 30
0.0
 11
-13.549999988148102
 21
-16.59999999999998
 31
0.0
  0
LINE
  5
2CF
100
AcDbEntity
  8
0
  6
CONTINUOUS
 62
               7
100
AcDbLine
 10
-12.699999988148079
 20
-15.59999999999998
 30
0.0
 11
-13.549999988148102
 21
-15.59999999999998
 31
0.0
  0
LINE
  5
2D0
100
AcDbEntity
  8
0
  6
CONTINUOUS
 62
               7
100
AcDbLine
 10
-13.599999988148056
 20
-15.499999999999957
 30
0.0
 11
-13.599999988148056
 21
-16.699999999999946
 31
0.0
  0
LINE
  5
2D1
100
AcDbEntity
  8
0
  6
CONTINUOUS
 62
               7
100
AcDbLine
 10
-12.699999988148079
 20
-15.499999999999957
 30
0.0
 11
-12.699999988148079
 21
-16.699999999999946
 31
0.0
  0
LINE
  5
2D2
100
AcDbEntity
  8
0
  6
CONTINUOUS
 62
               7
100
AcDbLine
 10
-13.599999988148056
 20
-16.699999999999946
 30
0.0
 11
-12.699999988148079
 21
-16.699999999999946
 31
0.0
  0
LINE
  5
2D3
100
AcDbEntity
  8
0
  6
CONTINUOUS
 62
               7
100
AcDbLine
 10
-12.699999988148079
 20
-15.499999999999957
 30
0.0
 11
-13.599999988148056
 21
-15.499999999999957
 31
0.0
  0
LINE
  5
2D4
100
AcDbEntity
  8
0
  6
CONTINUOUS
 62
               7
100
AcDbLine
 10
-11.699999988148079
 20
-20.499999999999957
 30
0.0
 11
-17.799999988148102
 21
-20.417819179587426
 31
0.0
  0
ARC
  5
2D5
100
AcDbEntity
  8
0
  6
CONTINUOUS
 62
               7
100
AcDbCircle
 10
-18.49999998814809
 20
-19.908348849004156
 30
0.0
 40
0.5
100
AcDbArc
 50
179.99999999999963
 51
269.49999999999955
  0
LINE
  5
2D6
100
AcDbEntity
  8
0
  6
CONTINUOUS
 62
               7
100
AcDbLine
 10
-8.0
 20
-21.000000000000014
 30
0.0
 11
-10.0
 21
-21.000000000000014
 31
0.0
  0
LINE
  5
2D7
100
AcDbEntity
  8
0
  6
CONTINUOUS
 62
               7
100
AcDbLine
 10
-8.0
 20
-0.0000000075924049
 30
0.0
 11
-8.0
 21
-21.000000007592419
 31
0.0
  0
ARC
  5
2D8
100
AcDbEntity
  8
0
  6
CONTINUOUS
 62
               7
100
AcDbCircle
 10
-17.899999988148096
 20
-20.000000000000014
 30
0.0
 40
0.5
100
AcDbArc
 50
179.99999999999963
 51
269.99999999999937
  0
LINE
  5
2D9
100
AcDbEntity
  8
0
  6
CONTINUOUS
 62
               7
100
AcDbLine
 10
-17.799999988148102
 20
-17.500000000000014
 30
0.0
 11
-17.899999988148096
 21
-17.500000000000014
 31
0.0
  0
ARC
  5
2DA
100
AcDbEntity
  8
0
  6
CONTINUOUS
 62
               7
100
AcDbCircle
 10
-17.899999988148096
 20
-18.000000000000014
 30
0.0
 40
0.5
100
AcDbArc
 50
89.999999999999815
 51
179.99999999999963
  0
LINE
  5
2DB
100
AcDbEntity
  8
0
  6
CONTINUOUS
 62
               7
100
AcDbLine
 10
-18.399999988148096
 20
-20.000000000000014
 30
0.0
 11
-18.399999988148096
 21
-18.000000000000014
 31
0.0
  0
LINE
  5
2DC
100
AcDbEntity
  8
0
  6
CONTINUOUS
 62
               7
100
AcDbLine
 10
-17.799999988148102
 20
-20.500000000000014
 30
0.0
 11
-17.899999988148096
 21
-20.500000000000014
 31
0.0
  0
LINE
  5
2DD
100
AcDbEntity
  8
0
  6
CONTINUOUS
 62
               7
100
AcDbLine
 10
-18.182320272248575
 20
-20.412668459159946
 30
0.0
 11
-18.50436325589726
 21
-20.408329810536273
 31
0.0
  0
LINE
  5
2DE
100
AcDbEntity
  8
0
  6
CONTINUOUS
 62
               7
100
AcDbLine
 10
-31.899999988148064
 20
-4.1999999999999318
 30
0.0
 11
-33.379999988148086
 21
-4.1999999999999318
 31
0.0
  0
LINE
  5
2DF
100
AcDbEntity
  8
0
  6
CONTINUOUS
 62
               7
100
AcDbLine
 10
-34.361880168009975
 20
-4.1999999999999318
 30
0.0
 11
-35.899999988148068
 21
-4.1999999999999318
 31
0.0
  0
LINE
  5
2E0
100
AcDbEntity
  8
0
  6
CONTINUOUS
 62
               4
100
AcDbLine
 10
-3.5
 20
-27.000000000000014
 30
0.0
 11
3.5
 21
-27.000000000000014
 31
0.0
  0
LINE
  5
2E1
100
AcDbEntity
  8
0
  6
CONTINUOUS
 62
               4
100
AcDbLine
 10
3.5
 20
-26.000000000000014
 30
0.0
 11
3.5
 21
-27.000000000000014
 31
0.0
  0
LINE
  5
2E2
100
AcDbEntity
  8
0
  6
CONTINUOUS
 62
               4
100
AcDbLine
 10
-3.5
 20
-26.000000000000014
 30
0.0
 11
-3.5
 21
-27.000000000000014
 31
0.0
  0
CIRCLE
  5
2E3
100
AcDbEntity
  8
0
  6
CONTINUOUS
 62
               7
100
AcDbCircle
 10
0.0
 20
-14.000000000000014
 30
0.0
 40
4.2000000000000002
  0
ARC
  5
2E4
100
AcDbEntity
  8
0
  6
CONTINUOUS
 62
               7
100
AcDbCircle
 10
-0.00133361211644
 20
-13.998999999999981
 30
0.0
 40
3.5010288649282808
100
AcDbArc
 50
279.89011336923943
 51
80.109886630759732
  0
ARC
  5
2E5
100
AcDbEntity
  8
0
  6
CONTINUOUS
 62
               7
100
AcDbCircle
 10
-0.0013335632787062
 20
-13.998999999999981
 30
0.0
 40
3.5005717393672393
100
AcDbArc
 50
99.847107000931288
 51
260.15289299906789
  0
LINE
  5
2E6
100
AcDbEntity
  8
0
  6
CONTINUOUS
 62
               7
100
AcDbLine
 10
-4.0420000000000016
 20
-14.000000000000014
 30
0.0
 11
-2.0219999999999914
 21
-17.500000000000014
 31
0.0
  0
LINE
  5
2E7
100
AcDbEntity
  8
0
  6
CONTINUOUS
 62
               7
100
AcDbLine
 10
-2.0219999999999914
 20
-10.500000000000014
 30
0.0
 11
-4.0420000000000016
 21
-14.000000000000014
 31
0.0
  0
LINE
  5
2E8
100
AcDbEntity
  8
0
  6
CONTINUOUS
 62
               7
100
AcDbLine
 10
4.039999999999992
 20
-14.000000000000014
 30
0.0
 11
2.0199999999999818
 21
-10.500000000000014
 31
0.0
  0
LINE
  5
2E9
100
AcDbEntity
  8
0
  6
CONTINUOUS
 62
               7
100
AcDbLine
 10
2.0199999999999818
 20
-17.500000000000014
 30
0.0
 11
4.039999999999992
 21
-14.000000000000014
 31
0.0
  0
ARC
  5
2EA
100
AcDbEntity
  8
0
  6
CONTINUOUS
 62
               7
100
AcDbCircle
 10
0.0
 20
-14.000000000000014
 30
0.0
 40
4.0
100
AcDbArc
 50
1.0081687470679896
 51
58.974003899614786
  0
ARC
  5
2EB
100
AcDbEntity
  8
0
  6
CONTINUOUS
 62
               7
100
AcDbCircle
 10
0.0
 20
-14.000000000000014
 30
0.0
 40
4.0
100
AcDbArc
 50
61.044975628139497
 51
118.95502437186015
  0
ARC
  5
2EC
100
AcDbEntity
  8
0
  6
CONTINUOUS
 62
               7
100
AcDbCircle
 10
0.0
 20
-14.000000000000014
 30
0.0
 40
4.0
100
AcDbArc
 50
121.07724393909305
 51
178.94058341422343
  0
ARC
  5
2ED
100
AcDbEntity
  8
0
  6
CONTINUOUS
 62
               7
100
AcDbCircle
 10
0.0
 20
-14.000000000000014
 30
0.0
 40
4.0
100
AcDbArc
 50
181.05941658577635
 51
238.92275606090575
  0
ARC
  5
2EE
100
AcDbEntity
  8
0
  6
CONTINUOUS
 62
               7
100
AcDbCircle
 10
0.0
 20
-14.000000000000014
 30
0.0
 40
4.0
100
AcDbArc
 50
241.04497562814004
 51
298.95502437185871
  0
ARC
  5
2EF
100
AcDbEntity
  8
0
  6
CONTINUOUS
 62
               7
100
AcDbCircle
 10
0.0
 20
-14.000000000000014
 30
0.0
 40
4.0
100
AcDbArc
 50
301.02599610038487
 51
358.99183125293081
  0
LINE
  5
2F0
100
AcDbEntity
  8
0
  6
CONTINUOUS
 62
               7
100
AcDbLine
 10
-2.0219999999999914
 20
-17.500000000000014
 30
0.0
 11
2.0199999999999818
 21
-17.500000000000014
 31
0.0
  0
LINE
  5
2F1
100
AcDbEntity
  8
0
  6
CONTINUOUS
 62
               7
100
AcDbLine
 10
2.0199999999999818
 20
-10.500000000000014
 30
0.0
 11
-2.0219999999999914
 21
-10.500000000000014
 31
0.0
  0
LINE
  5
2F2
100
AcDbEntity
  8
0
  6
CONTINUOUS
 62
               7
100
AcDbLine
 10
0.5999999999999943
 20
-17.500000000000014
 30
0.0
 11
0.5999999999999943
 21
-10.500000000000014
 31
0.0
  0
LINE
  5
2F3
100
AcDbEntity
  8
0
  6
CONTINUOUS
 62
               7
100
AcDbLine
 10
-0.5999999999999943
 20
-17.500000000000014
 30
0.0
 11
-0.5999999999999943
 21
-10.500000000000014
 31
0.0
  0
ENDBLK
  5
2F4
100
AcDbEntity
  8
0
100
AcDbBlockEnd
  0
BLOCK
  5
2F5
100
AcDbEntity
  8
0
100
AcDbBlockBegin
  2
NCT20-7
 70
               0
 10
0.0
 20
0.0
 30
0.0
  3
NCT20-7
  1

  0
LINE
  5
2F6
100
AcDbEntity
  8
0
  6
CENTER
 62
               2
100
AcDbLine
 10
-31.899999988148064
 20
-1.4000000000000341
 30
0.0
 11
-17.799999988148102
 21
-1.4000000000000341
 31
0.0
  0
LINE
  5
2F7
100
AcDbEntity
  8
0
  6
CONTINUOUS
 62
               7
100
AcDbLine
 10
-19.399999988148124
 20
-4.4000000000000341
 30
0.0
 11
-18.99999998814809
 21
-4.4000000000000341
 31
0.0
  0
LINE
  5
2F8
100
AcDbEntity
  8
0
  6
CONTINUOUS
 62
               7
100
AcDbLine
 10
-19.399999988148124
 20
1.5999999999999659
 30
0.0
 11
-18.99999998814809
 21
1.5999999999999659
 31
0.0
  0
LINE
  5
2F9
100
AcDbEntity
  8
0
  6
PHANTOM
 62
               2
100
AcDbLine
 10
-27.591154277324677
 20
0.4999999756232683
 30
0.0
 11
-29.785085305571556
 21
-3.3000000362976607
 31
0.0
  0
LINE
  5
2FA
100
AcDbEntity
  8
0
  6
PHANTOM
 62
               2
100
AcDbLine
 10
-28.51491467654705
 20
0.5000000054255906
 30
0.0
 11
-30.708845719695088
 21
-3.3000000362976607
 31
0.0
  0
LINE
  5
2FB
100
AcDbEntity
  8
0
  6
CONTINUOUS
 62
               7
100
AcDbLine
 10
-30.362435538355783
 20
-2.7000000000000455
 30
0.0
 11
-31.899999988148064
 21
-2.7000000000000455
 31
0.0
  0
LINE
  5
2FC
100
AcDbEntity
  8
0
  6
CONTINUOUS
 62
               7
100
AcDbLine
 10
-28.861324838462735
 20
-0.1000000000000227
 30
0.0
 11
-31.899999988148064
 21
-0.1000000000000227
 31
0.0
  0
LINE
  5
2FD
100
AcDbEntity
  8
0
  6
CONTINUOUS
 62
               7
100
AcDbLine
 10
-26.399999988148068
 20
-2.7000000000000455
 30
0.0
 11
-29.438675139133409
 21
-2.7000000000000455
 31
0.0
  0
LINE
  5
2FE
100
AcDbEntity
  8
0
  6
CONTINUOUS
 62
               7
100
AcDbLine
 10
-26.399999988148068
 20
-0.1000000000000227
 30
0.0
 11
-27.937564439240361
 21
-0.1000000000000227
 31
0.0
  0
LINE
  5
2FF
100
AcDbEntity
  8
0
  6
CONTINUOUS
 62
               7
100
AcDbLine
 10
-31.899999988148064
 20
-0.1000000000000227
 30
0.0
 11
-31.899999988148064
 21
-2.7000000000000455
 31
0.0
  0
LINE
  5
300
100
AcDbEntity
  8
0
  6
CONTINUOUS
 62
               7
100
AcDbLine
 10
-21.899999988148124
 20
0.3499999999999659
 30
0.0
 11
-20.899999988148124
 21
0.3499999999999659
 31
0.0
  0
LINE
  5
301
100
AcDbEntity
  8
0
  6
CONTINUOUS
 62
               7
100
AcDbLine
 10
-21.899999988148124
 20
-3.1500000000000341
 30
0.0
 11
-20.899999988148124
 21
-3.1500000000000341
 31
0.0
  0
LINE
  5
302
100
AcDbEntity
  8
0
  6
CONTINUOUS
 62
               7
100
AcDbLine
 10
-24.399999988148068
 20
0.3499999999999659
 30
0.0
 11
-23.399999988148124
 21
0.3499999999999659
 31
0.0
  0
LINE
  5
303
100
AcDbEntity
  8
0
  6
CONTINUOUS
 62
               7
100
AcDbLine
 10
-24.399999988148068
 20
-3.1500000000000341
 30
0.0
 11
-23.399999988148124
 21
-3.1500000000000341
 31
0.0
  0
LINE
  5
304
100
AcDbEntity
  8
0
  6
CONTINUOUS
 62
               7
100
AcDbLine
 10
-20.899999988148124
 20
1.3857142857142435
 30
0.0
 11
-19.399999988148124
 21
1.5999999999999659
 31
0.0
  0
LINE
  5
305
100
AcDbEntity
  8
0
  6
CONTINUOUS
 62
               7
100
AcDbLine
 10
-23.399999988148124
 20
1.0285714285713539
 30
0.0
 11
-21.899999988148124
 21
1.2428571428571331
 31
0.0
  0
LINE
  5
306
100
AcDbEntity
  8
0
  6
CONTINUOUS
 62
               7
100
AcDbLine
 10
-20.899999988148124
 20
-4.1857142857143117
 30
0.0
 11
-19.399999988148124
 21
-4.4000000000000341
 31
0.0
  0
LINE
  5
307
100
AcDbEntity
  8
0
  6
CONTINUOUS
 62
               7
100
AcDbLine
 10
-23.399999988148124
 20
-3.8285714285714789
 30
0.0
 11
-21.899999988148124
 21
-4.0428571428572013
 31
0.0
  0
LINE
  5
308
100
AcDbEntity
  8
0
  6
CONTINUOUS
 62
               7
100
AcDbLine
 10
-20.899999988148124
 20
1.3857142857142435
 30
0.0
 11
-20.899999988148124
 21
-4.1857142857143117
 31
0.0
  0
LINE
  5
309
100
AcDbEntity
  8
0
  6
CONTINUOUS
 62
               7
100
AcDbLine
 10
-21.899999988148124
 20
1.2428571428571331
 30
0.0
 11
-21.899999988148124
 21
-4.0428571428572013
 31
0.0
  0
LINE
  5
30A
100
AcDbEntity
  8
0
  6
CONTINUOUS
 62
               7
100
AcDbLine
 10
-23.399999988148124
 20
1.0285714285713539
 30
0.0
 11
-23.399999988148124
 21
-3.8285714285714789
 31
0.0
  0
LINE
  5
30B
100
AcDbEntity
  8
0
  6
CONTINUOUS
 62
               7
100
AcDbLine
 10
-24.399999988148068
 20
0.8857142857142435
 30
0.0
 11
-24.399999988148068
 21
-3.6857142857143117
 31
0.0
  0
LINE
  5
30C
100
AcDbEntity
  8
0
  6
CONTINUOUS
 62
               7
100
AcDbLine
 10
-26.399999988148068
 20
0.5999999999999659
 30
0.0
 11
-24.399999988148068
 21
0.8857142857142435
 31
0.0
  0
LINE
  5
30D
100
AcDbEntity
  8
0
  6
CONTINUOUS
 62
               7
100
AcDbLine
 10
-26.399999988148068
 20
-3.4000000000000341
 30
0.0
 11
-24.399999988148068
 21
-3.6857142857143117
 31
0.0
  0
LINE
  5
30E
100
AcDbEntity
  8
0
  6
CONTINUOUS
 62
               7
100
AcDbLine
 10
-26.399999988148068
 20
0.5999999999999659
 30
0.0
 11
-26.399999988148068
 21
-3.4000000000000341
 31
0.0
  0
LINE
  5
30F
100
AcDbEntity
  8
0
  6
CONTINUOUS
 62
               7
100
AcDbLine
 10
-19.399999988148124
 20
1.5999999999999659
 30
0.0
 11
-19.399999988148124
 21
-4.4000000000000341
 31
0.0
  0
LINE
  5
310
100
AcDbEntity
  8
0
  6
PHANTOM
 62
               2
100
AcDbLine
 10
-32.57209438085556
 20
0.0999999994651262
 30
0.0
 11
-34.304145202040672
 21
-2.9000000303371962
 31
0.0
  0
LINE
  5
311
100
AcDbEntity
  8
0
  6
CONTINUOUS
 62
               7
100
AcDbLine
 10
-31.899999988148064
 20
-2.2500000000000568
 30
0.0
 11
-33.928867510330122
 21
-2.2500000000000568
 31
0.0
  0
LINE
  5
312
100
AcDbEntity
  8
0
  6
CONTINUOUS
 62
               7
100
AcDbLine
 10
-31.899999988148064
 20
-1.4500000000000455
 30
0.0
 11
-33.466987295935837
 21
-1.4500000000000455
 31
0.0
  0
LINE
  5
313
100
AcDbEntity
  8
0
  6
CONTINUOUS
 62
               7
100
AcDbLine
 10
-31.899999988148064
 20
-0.5500000000000682
 30
0.0
 11
-32.947372054742175
 21
-0.5500000000000682
 31
0.0
  0
LINE
  5
314
100
AcDbEntity
  8
0
  6
CONTINUOUS
 62
               7
100
AcDbLine
 10
-31.899999988148064
 20
-1.3500000000000227
 30
0.0
 11
-33.409252269136516
 21
-1.3500000000000227
 31
0.0
  0
ARC
  5
315
100
AcDbEntity
  8
0
  6
CONTINUOUS
 62
               7
100
AcDbCircle
 10
-40.551368390972982
 20
-3.0000000000000568
 30
0.0
 40
5.0
100
AcDbArc
 50
59.999999999999865
 51
89.999999999999815
  0
ARC
  5
316
100
AcDbEntity
  8
0
  6
CONTINUOUS
 62
               7
100
AcDbCircle
 10
-40.765727744917911
 20
-3.8000000000000682
 30
0.0
 40
5.0
100
AcDbArc
 50
59.999999999999865
 51
89.999999999999815
  0
ARC
  5
317
100
AcDbEntity
  8
0
  6
CONTINUOUS
 62
               7
100
AcDbCircle
 10
-40.551368390972982
 20
0.1999999999999318
 30
0.0
 40
5.0
100
AcDbArc
 50
269.99999999999937
 51
299.99999999999932
  0
ARC
  5
318
100
AcDbEntity
  8
0
  6
CONTINUOUS
 62
               7
100
AcDbCircle
 10
-40.765727744917911
 20
0.9999999999999432
 30
0.0
 40
5.0
100
AcDbArc
 50
269.99999999999937
 51
299.99999999999932
  0
LINE
  5
319
100
AcDbEntity
  8
0
  6
CONTINUOUS
 62
               7
100
AcDbLine
 10
-35.473353838599394
 20
-1.082050807568919
 30
0.0
 11
-38.265727744917911
 21
0.5301270189221441
 31
0.0
  0
LINE
  5
31A
100
AcDbEntity
  8
0
  6
CONTINUOUS
 62
               7
100
AcDbLine
 10
-35.258994484654465
 20
-0.2820508075689077
 30
0.0
 11
-38.051368390972982
 21
1.3301270189221555
 31
0.0
  0
LINE
  5
31B
100
AcDbEntity
  8
0
  6
CONTINUOUS
 62
               7
100
AcDbLine
 10
-35.473353838599394
 20
-1.717949192431206
 30
0.0
 11
-38.265727744917911
 21
-3.3301270189222123
 31
0.0
  0
LINE
  5
31C
100
AcDbEntity
  8
0
  6
CONTINUOUS
 62
               7
100
AcDbLine
 10
-35.258994484654465
 20
-2.5179491924311606
 30
0.0
 11
-38.051368390972982
 21
-4.1301270189222237
 31
0.0
  0
LINE
  5
31D
100
AcDbEntity
  8
0
  6
CONTINUOUS
 62
               7
100
AcDbLine
 10
-44.122649683083182
 20
1.1999999999999318
 30
0.0
 11
-40.765727744917911
 21
1.1999999999999318
 31
0.0
  0
LINE
  5
31E
100
AcDbEntity
  8
0
  6
CONTINUOUS
 62
               7
100
AcDbLine
 10
-44.122649683083182
 20
1.9999999999999432
 30
0.0
 11
-40.551368390972982
 21
1.9999999999999432
 31
0.0
  0
LINE
  5
31F
100
AcDbEntity
  8
0
  6
CONTINUOUS
 62
               7
100
AcDbLine
 10
-44.122649683083182
 20
0.7999999999999545
 30
0.0
 11
-44.122649683083182
 21
2.3999999999999773
 31
0.0
  0
LINE
  5
320
100
AcDbEntity
  8
0
  6
CONTINUOUS
 62
               7
100
AcDbLine
 10
-44.122649683083182
 20
-4.8000000000000682
 30
0.0
 11
-40.551368390972982
 21
-4.8000000000000682
 31
0.0
  0
LINE
  5
321
100
AcDbEntity
  8
0
  6
CONTINUOUS
 62
               7
100
AcDbLine
 10
-44.122649683083182
 20
-4.0000000000000568
 30
0.0
 11
-40.765727744917911
 21
-4.0000000000000568
 31
0.0
  0
LINE
  5
322
100
AcDbEntity
  8
0
  6
CONTINUOUS
 62
               7
100
AcDbLine
 10
-33.871132439562871
 20
-0.5500000000000682
 30
0.0
 11
-34.258994484654465
 21
-0.5500000000000682
 31
0.0
  0
LINE
  5
323
100
AcDbEntity
  8
0
  6
CONTINUOUS
 62
               7
100
AcDbLine
 10
-34.333012654571917
 20
-1.3500000000000227
 30
0.0
 11
-34.473353838599394
 21
-1.3500000000000227
 31
0.0
  0
LINE
  5
324
100
AcDbEntity
  8
0
  6
CONTINUOUS
 62
               7
100
AcDbLine
 10
-34.390747681448033
 20
-1.4500000000000455
 30
0.0
 11
-34.473353838599394
 21
-1.4500000000000455
 31
0.0
  0
LINE
  5
325
100
AcDbEntity
  8
0
  6
CONTINUOUS
 62
               7
100
AcDbLine
 10
-44.122649683083182
 20
-1.0000000000000568
 30
0.0
 11
-35.615470006110741
 21
-1.0000000000000568
 31
0.0
  0
LINE
  5
326
100
AcDbEntity
  8
0
  6
CONTINUOUS
 62
               7
100
AcDbLine
 10
-44.122649683083182
 20
-1.8000000000000682
 30
0.0
 11
-35.615470006110741
 21
-1.8000000000000682
 31
0.0
  0
ARC
  5
327
100
AcDbEntity
  8
0
  6
CONTINUOUS
 62
               7
100
AcDbCircle
 10
-34.258994484654465
 20
1.4499999999999318
 30
0.0
 40
2.0
100
AcDbArc
 50
239.99999999999946
 51
269.99999999999937
  0
ARC
  5
328
100
AcDbEntity
  8
0
  6
CONTINUOUS
 62
               7
100
AcDbCircle
 10
-34.473353838599394
 20
0.6499999999999773
 30
0.0
 40
2.0
100
AcDbArc
 50
239.99999999999946
 51
269.99999999999937
  0
ARC
  5
329
100
AcDbEntity
  8
0
  6
CONTINUOUS
 62
               7
100
AcDbCircle
 10
-34.473353838599394
 20
-3.4500000000000455
 30
0.0
 40
2.0
100
AcDbArc
 50
89.999999999999815
 51
119.99999999999973
  0
ARC
  5
32A
100
AcDbEntity
  8
0
  6
CONTINUOUS
 62
               7
100
AcDbCircle
 10
-34.258994484654465
 20
-4.2500000000000568
 30
0.0
 40
2.0
100
AcDbArc
 50
109.20488889817132
 51
119.99999999999982
  0
LINE
  5
32B
100
AcDbEntity
  8
0
  6
PHANTOM
 62
               2
100
AcDbLine
 10
-33.495854765176773
 20
0.0999999994651262
 30
0.0
 11
-35.227905571460724
 21
-2.9000000005348738
 31
0.0
  0
LINE
  5
32C
100
AcDbEntity
  8
0
  6
CONTINUOUS
 62
               7
100
AcDbLine
 10
-56.429633835914331
 20
2.3999999999999773
 30
0.0
 11
-44.122649683083182
 21
2.3999999999999773
 31
0.0
  0
LINE
  5
32D
100
AcDbEntity
  8
0
  6
CONTINUOUS
 62
               7
100
AcDbLine
 10
-56.429633835914331
 20
0.7999999999999545
 30
0.0
 11
-44.122649683083182
 21
0.7999999999999545
 31
0.0
  0
LINE
  5
32E
100
AcDbEntity
  8
0
  6
CONTINUOUS
 62
               7
100
AcDbLine
 10
-56.429633835914331
 20
2.4000000007437734
 30
0.0
 11
-56.429633835914331
 21
0.7999999999999545
 31
0.0
  0
LINE
  5
32F
100
AcDbEntity
  8
0
  6
CONTINUOUS
 62
               7
100
AcDbLine
 10
-56.629633835914319
 20
1.9000000007437734
 30
0.0
 11
-56.629633835914319
 21
1.300000000371881
 31
0.0
  0
LINE
  5
330
100
AcDbEntity
  8
0
  6
CONTINUOUS
 62
               7
100
AcDbLine
 10
-56.429633846632953
 20
1.9000000003718469
 30
0.0
 11
-56.629633835914319
 21
1.9000000003718469
 31
0.0
  0
LINE
  5
331
100
AcDbEntity
  8
0
  6
CONTINUOUS
 62
               7
100
AcDbLine
 10
-56.429633846632953
 20
1.300000000371881
 30
0.0
 11
-56.629633835914319
 21
1.300000000371881
 31
0.0
  0
LINE
  5
332
100
AcDbEntity
  8
0
  6
CONTINUOUS
 62
               7
100
AcDbLine
 10
-45.5759435396551
 20
2.4000000007437734
 30
0.0
 11
-45.5759435396551
 21
0.7999999999999545
 31
0.0
  0
LINE
  5
333
100
AcDbEntity
  8
0
  6
CONTINUOUS
 62
               7
100
AcDbLine
 10
-46.629633835914319
 20
2.4000000007437734
 30
0.0
 11
-46.629633835914319
 21
0.7999999999999545
 31
0.0
  0
LINE
  5
334
100
AcDbEntity
  8
0
  6
CONTINUOUS
 62
               7
100
AcDbLine
 10
-49.429633835914331
 20
2.4000000007437734
 30
0.0
 11
-49.429633835914331
 21
0.7999999999999545
 31
0.0
  0
LINE
  5
335
100
AcDbEntity
  8
0
  6
CONTINUOUS
 62
               7
100
AcDbLine
 10
-50.179633835914331
 20
2.4000000007437734
 30
0.0
 11
-50.179633835914331
 21
0.7999999999999545
 31
0.0
  0
LINE
  5
336
100
AcDbEntity
  8
0
  6
CONTINUOUS
 62
               7
100
AcDbLine
 10
-52.429633835914331
 20
2.4000000007437734
 30
0.0
 11
-52.429633835914331
 21
0.7999999999999545
 31
0.0
  0
LINE
  5
337
100
AcDbEntity
  8
0
  6
CONTINUOUS
 62
               7
100
AcDbLine
 10
-55.929633835914331
 20
2.4000000007437734
 30
0.0
 11
-55.929633835914331
 21
0.7999999999999545
 31
0.0
  0
LINE
  5
338
100
AcDbEntity
  8
0
  6
CONTINUOUS
 62
               7
100
AcDbLine
 10
-56.429633835914331
 20
-0.6000000000000227
 30
0.0
 11
-44.122649683083182
 21
-0.6000000000000227
 31
0.0
  0
LINE
  5
339
100
AcDbEntity
  8
0
  6
CONTINUOUS
 62
               7
100
AcDbLine
 10
-56.429633835914331
 20
-2.2000000000000455
 30
0.0
 11
-44.122649683083182
 21
-2.2000000000000455
 31
0.0
  0
LINE
  5
33A
100
AcDbEntity
  8
0
  6
CONTINUOUS
 62
               7
100
AcDbLine
 10
-55.929633835914331
 20
-0.5999999992562266
 30
0.0
 11
-55.929633835914331
 21
-2.2000000000000455
 31
0.0
  0
LINE
  5
33B
100
AcDbEntity
  8
0
  6
CONTINUOUS
 62
               7
100
AcDbLine
 10
-52.429633835914331
 20
-0.5999999992562266
 30
0.0
 11
-52.429633835914331
 21
-2.2000000000000455
 31
0.0
  0
LINE
  5
33C
100
AcDbEntity
  8
0
  6
CONTINUOUS
 62
               7
100
AcDbLine
 10
-50.179633835914331
 20
-0.5999999992562266
 30
0.0
 11
-50.179633835914331
 21
-2.2000000000000455
 31
0.0
  0
LINE
  5
33D
100
AcDbEntity
  8
0
  6
CONTINUOUS
 62
               7
100
AcDbLine
 10
-49.429633835914331
 20
-0.5999999992562266
 30
0.0
 11
-49.429633835914331
 21
-2.2000000000000455
 31
0.0
  0
LINE
  5
33E
100
AcDbEntity
  8
0
  6
CONTINUOUS
 62
               7
100
AcDbLine
 10
-46.629633835914319
 20
-0.5999999992562266
 30
0.0
 11
-46.629633835914319
 21
-2.2000000000000455
 31
0.0
  0
LINE
  5
33F
100
AcDbEntity
  8
0
  6
CONTINUOUS
 62
               7
100
AcDbLine
 10
-45.5759435396551
 20
-0.5999999992562266
 30
0.0
 11
-45.5759435396551
 21
-2.2000000000000455
 31
0.0
  0
LINE
  5
340
100
AcDbEntity
  8
0
  6
CONTINUOUS
 62
               7
100
AcDbLine
 10
-56.429633846632953
 20
-1.699999999628119
 30
0.0
 11
-56.629633835914319
 21
-1.699999999628119
 31
0.0
  0
LINE
  5
341
100
AcDbEntity
  8
0
  6
CONTINUOUS
 62
               7
100
AcDbLine
 10
-56.429633846632953
 20
-1.0999999996281531
 30
0.0
 11
-56.629633835914319
 21
-1.0999999996281531
 31
0.0
  0
LINE
  5
342
100
AcDbEntity
  8
0
  6
CONTINUOUS
 62
               7
100
AcDbLine
 10
-56.629633835914319
 20
-1.0999999992562266
 30
0.0
 11
-56.629633835914319
 21
-1.699999999628119
 31
0.0
  0
LINE
  5
343
100
AcDbEntity
  8
0
  6
CONTINUOUS
 62
               7
100
AcDbLine
 10
-56.429633835914331
 20
-0.5999999992562266
 30
0.0
 11
-56.429633835914331
 21
-2.2000000000000455
 31
0.0
  0
LINE
  5
344
100
AcDbEntity
  8
0
  6
CONTINUOUS
 62
               7
100
AcDbLine
 10
-44.122649683083182
 20
-2.2000000000000455
 30
0.0
 11
-44.122649683083182
 21
-0.6000000000000227
 31
0.0
  0
LINE
  5
345
100
AcDbEntity
  8
0
  6
CONTINUOUS
 62
               7
100
AcDbLine
 10
-56.429633835914331
 20
-3.6000000000000227
 30
0.0
 11
-44.122649683083182
 21
-3.6000000000000227
 31
0.0
  0
LINE
  5
346
100
AcDbEntity
  8
0
  6
CONTINUOUS
 62
               7
100
AcDbLine
 10
-56.429633835914331
 20
-5.2000000000000455
 30
0.0
 11
-44.122649683083182
 21
-5.2000000000000455
 31
0.0
  0
LINE
  5
347
100
AcDbEntity
  8
0
  6
CONTINUOUS
 62
               7
100
AcDbLine
 10
-55.929633835914331
 20
-3.5999999992562266
 30
0.0
 11
-55.929633835914331
 21
-5.2000000000000455
 31
0.0
  0
LINE
  5
348
100
AcDbEntity
  8
0
  6
CONTINUOUS
 62
               7
100
AcDbLine
 10
-52.429633835914331
 20
-3.5999999992562266
 30
0.0
 11
-52.429633835914331
 21
-5.2000000000000455
 31
0.0
  0
LINE
  5
349
100
AcDbEntity
  8
0
  6
CONTINUOUS
 62
               7
100
AcDbLine
 10
-50.179633835914331
 20
-3.5999999992562266
 30
0.0
 11
-50.179633835914331
 21
-5.2000000000000455
 31
0.0
  0
LINE
  5
34A
100
AcDbEntity
  8
0
  6
CONTINUOUS
 62
               7
100
AcDbLine
 10
-49.429633835914331
 20
-3.5999999992562266
 30
0.0
 11
-49.429633835914331
 21
-5.2000000000000455
 31
0.0
  0
LINE
  5
34B
100
AcDbEntity
  8
0
  6
CONTINUOUS
 62
               7
100
AcDbLine
 10
-46.629633835914319
 20
-3.5999999992562266
 30
0.0
 11
-46.629633835914319
 21
-5.2000000000000455
 31
0.0
  0
LINE
  5
34C
100
AcDbEntity
  8
0
  6
CONTINUOUS
 62
               7
100
AcDbLine
 10
-45.5759435396551
 20
-3.5999999992562266
 30
0.0
 11
-45.5759435396551
 21
-5.2000000000000455
 31
0.0
  0
LINE
  5
34D
100
AcDbEntity
  8
0
  6
CONTINUOUS
 62
               7
100
AcDbLine
 10
-56.429633846632953
 20
-4.699999999628119
 30
0.0
 11
-56.629633835914319
 21
-4.699999999628119
 31
0.0
  0
LINE
  5
34E
100
AcDbEntity
  8
0
  6
CONTINUOUS
 62
               7
100
AcDbLine
 10
-56.429633846632953
 20
-4.0999999996281531
 30
0.0
 11
-56.629633835914319
 21
-4.0999999996281531
 31
0.0
  0
LINE
  5
34F
100
AcDbEntity
  8
0
  6
CONTINUOUS
 62
               7
100
AcDbLine
 10
-56.629633835914319
 20
-4.0999999992562266
 30
0.0
 11
-56.629633835914319
 21
-4.699999999628119
 31
0.0
  0
LINE
  5
350
100
AcDbEntity
  8
0
  6
CONTINUOUS
 62
               7
100
AcDbLine
 10
-56.429633835914331
 20
-3.5999999992562266
 30
0.0
 11
-56.429633835914331
 21
-5.2000000000000455
 31
0.0
  0
LINE
  5
351
100
AcDbEntity
  8
0
  6
CONTINUOUS
 62
               7
100
AcDbLine
 10
-44.122649683083182
 20
-5.2000000000000455
 30
0.0
 11
-44.122649683083182
 21
-3.6000000000000227
 31
0.0
  0
LINE
  5
352
100
AcDbEntity
  8
0
  6
CENTER
 62
               2
100
AcDbLine
 10
0.0
 20
0.0
 30
0.0
 11
10.071733430556492
 21
5.8149180073379512
 31
0.0
  0
LINE
  5
353
100
AcDbEntity
  8
0
  6
CONTINUOUS
 62
               7
100
AcDbLine
 10
4.0500000000000114
 20
-9.6000000000000227
 30
0.0
 11
2.8000000000000114
 21
-9.6000000000000227
 31
0.0
  0
LINE
  5
354
100
AcDbEntity
  8
0
  6
CONTINUOUS
 62
               7
100
AcDbLine
 10
3.5500000000000114
 20
-12.100000000000023
 30
0.0
 11
0.5
 21
-12.100000000000023
 31
0.0
  0
LINE
  5
355
100
AcDbEntity
  8
0
  6
CONTINUOUS
 62
               7
100
AcDbLine
 10
2.0300000000000011
 20
-11.600000000000023
 30
0.0
 11
2.0300000000000011
 21
-9.7917873751424622
 31
0.0
  0
ARC
  5
356
100
AcDbEntity
  8
0
  6
CONTINUOUS
 62
               7
100
AcDbCircle
 10
4.9717302995399848
 20
-5.2175398893984379
 30
0.0
 40
7.0277716396203269
100
AcDbArc
 50
245.25462085736197
 51
258.32841020147521
  0
ARC
  5
357
100
AcDbEntity
  8
0
  6
CONTINUOUS
 62
               7
100
AcDbCircle
 10
-0.019504252191723
 20
-7.7456426961389298
 30
0.0
 40
4.3653794686807261
100
AcDbArc
 50
276.83471178066651
 51
298.00122980373817
  0
LINE
  5
358
100
AcDbEntity
  8
0
  6
CONTINUOUS
 62
               7
100
AcDbLine
 10
4.0500000000000114
 20
-11.600000000000023
 30
0.0
 11
3.5500000000000114
 21
-12.100000000000023
 31
0.0
  0
LINE
  5
359
100
AcDbEntity
  8
0
  6
CONTINUOUS
 62
               7
100
AcDbLine
 10
4.0500000000000114
 20
-11.600000000000023
 30
0.0
 11
4.0500000000000114
 21
-9.6000000000000227
 31
0.0
  0
LINE
  5
35A
100
AcDbEntity
  8
0
  6
CONTINUOUS
 62
               7
100
AcDbLine
 10
0.5
 20
-12.100000000000023
 30
0.0
 11
0.5
 21
-10.600000000000023
 31
0.0
  0
LINE
  5
35B
100
AcDbEntity
  8
0
  6
CONTINUOUS
 62
               7
100
AcDbLine
 10
0.5
 20
-10.600000000000023
 30
0.0
 11
-0.5
 21
-10.600000000000023
 31
0.0
  0
LINE
  5
35C
100
AcDbEntity
  8
0
  6
CONTINUOUS
 62
               7
100
AcDbLine
 10
-0.5
 20
-12.100000000000023
 30
0.0
 11
-0.5
 21
-10.600000000000023
 31
0.0
  0
ARC
  5
35D
100
AcDbEntity
  8
0
  6
CONTINUOUS
 62
               7
100
AcDbCircle
 10
0.0190627296830144
 20
-7.747050049135396
 30
0.0
 40
4.363929581700825
100
AcDbArc
 50
241.99521341413674
 51
263.16884500145613
  0
LINE
  5
35E
100
AcDbEntity
  8
0
  6
CONTINUOUS
 62
               7
100
AcDbLine
 10
-0.5
 20
-12.100000000000023
 30
0.0
 11
-3.5500000000000114
 21
-12.100000000000023
 31
0.0
  0
ARC
  5
35F
100
AcDbEntity
  8
0
  6
CONTINUOUS
 62
               7
100
AcDbCircle
 10
-4.9722187730059773
 20
-5.2160549300617731
 30
0.0
 40
7.0293247160888015
100
AcDbArc
 50
281.67304037350181
 51
294.74392856765866
  0
LINE
  5
360
100
AcDbEntity
  8
0
  6
CONTINUOUS
 62
               7
100
AcDbLine
 10
-2.0300000000000011
 20
-11.600000000000023
 30
0.0
 11
-2.0300000000000011
 21
-9.7917873751424622
 31
0.0
  0
LINE
  5
361
100
AcDbEntity
  8
0
  6
CONTINUOUS
 62
               7
100
AcDbLine
 10
-3.5500000000000114
 20
-12.100000000000023
 30
0.0
 11
-4.0500000000000114
 21
-11.600000000000023
 31
0.0
  0
LINE
  5
362
100
AcDbEntity
  8
0
  6
CONTINUOUS
 62
               7
100
AcDbLine
 10
-4.0500000000000114
 20
-11.600000000000023
 30
0.0
 11
-4.0500000000000114
 21
-9.6000000000000227
 31
0.0
  0
LINE
  5
363
100
AcDbEntity
  8
0
  6
CONTINUOUS
 62
               7
100
AcDbLine
 10
-2.8000000000000114
 20
-9.6000000000000227
 30
0.0
 11
-4.0500000000000114
 21
-9.6000000000000227
 31
0.0
  0
LINE
  5
364
100
AcDbEntity
  8
0
  6
CONTINUOUS
 62
               7
100
AcDbLine
 10
4.0
 20
-9.6000000000000227
 30
0.0
 11
4.0
 21
-9.1651513899116708
 31
0.0
  0
LINE
  5
365
100
AcDbEntity
  8
0
  6
CONTINUOUS
 62
               7
100
AcDbLine
 10
-4.0
 20
-9.6000000000000227
 30
0.0
 11
-4.0
 21
-9.1651513899116708
 31
0.0
  0
CIRCLE
  5
366
100
AcDbEntity
  8
0
  6
CONTINUOUS
 62
               2
100
AcDbCircle
 10
0.0
 20
0.0
 30
0.0
 40
2.5
  0
CIRCLE
  5
367
100
AcDbEntity
  8
0
  6
CONTINUOUS
 62
               7
100
AcDbCircle
 10
0.0
 20
0.0
 30
0.0
 40
2.1000000000000001
  0
LINE
  5
368
100
AcDbEntity
  8
0
  6
CONTINUOUS
 62
               7
100
AcDbLine
 10
-18.182320272248575
 20
4.9126684591599314
 30
0.0
 11
-18.504363255897289
 21
4.9083298105362587
 31
0.0
  0
ARC
  5
369
100
AcDbEntity
  8
0
  6
CONTINUOUS
 62
               7
100
AcDbCircle
 10
-17.899999988148124
 20
4.5
 30
0.0
 40
0.5
100
AcDbArc
 50
89.999999999999815
 51
179.99999999999963
  0
ARC
  5
36A
100
AcDbEntity
  8
0
  6
CONTINUOUS
 62
               7
100
AcDbCircle
 10
-17.899999988148124
 20
2.5
 30
0.0
 40
0.5
100
AcDbArc
 50
179.99999999999963
 51
269.99999999999937
  0
LINE
  5
36B
100
AcDbEntity
  8
0
  6
CONTINUOUS
 62
               7
100
AcDbLine
 10
-17.799999988148102
 20
5.0
 30
0.0
 11
-17.899999988148124
 21
5.0
 31
0.0
  0
LINE
  5
36C
100
AcDbEntity
  8
0
  6
CONTINUOUS
 62
               7
100
AcDbLine
 10
-17.799999988148102
 20
2.0
 30
0.0
 11
-17.899999988148124
 21
2.0
 31
0.0
  0
LINE
  5
36D
100
AcDbEntity
  8
0
  6
CONTINUOUS
 62
               7
100
AcDbLine
 10
-18.399999988148124
 20
2.5
 30
0.0
 11
-18.399999988148124
 21
4.5
 31
0.0
  0
LINE
  5
36E
100
AcDbEntity
  8
0
  6
CENTER
 62
               2
100
AcDbLine
 10
0.0
 20
0.0
 30
0.0
 11
-5.8166019384642311
 21
10.074650084823702
 31
0.0
  0
LINE
  5
36F
100
AcDbEntity
  8
0
  6
CONTINUOUS
 62
               7
100
AcDbLine
 10
-11.699999988148079
 20
-5.0000000016734134
 30
0.0
 11
-8.0
 21
-4.9677105909510715
 31
0.0
  0
LINE
  5
370
100
AcDbEntity
  8
0
  6
CONTINUOUS
 62
               7
100
AcDbLine
 10
-11.699999988148079
 20
5.0
 30
0.0
 11
-8.0
 21
4.9677105892776012
 31
0.0
  0
ARC
  5
371
100
AcDbEntity
  8
0
  6
CONTINUOUS
 62
               7
100
AcDbCircle
 10
-18.49999998814809
 20
-4.4083488506776121
 30
0.0
 40
0.5
100
AcDbArc
 50
179.99999999999963
 51
269.49999999999915
  0
ARC
  5
372
100
AcDbEntity
  8
0
  6
CONTINUOUS
 62
               7
100
AcDbCircle
 10
-18.49999998814809
 20
4.4083488490041418
 30
0.0
 40
0.5
100
AcDbArc
 50
90.500000000000071
 51
179.99999999999963
  0
LINE
  5
373
100
AcDbEntity
  8
0
  6
CONTINUOUS
 62
               7
100
AcDbLine
 10
-11.699999988148079
 20
5.0
 30
0.0
 11
-17.799999988148102
 21
4.9178191795874682
 31
0.0
  0
LINE
  5
374
100
AcDbEntity
  8
0
  6
CONTINUOUS
 62
               7
100
AcDbLine
 10
-11.699999988148079
 20
-5.0000000016734134
 30
0.0
 11
-18.504363255897289
 21
-4.9083298122096721
 31
0.0
  0
LINE
  5
375
100
AcDbEntity
  8
0
  6
CONTINUOUS
 62
               7
100
AcDbLine
 10
-31.899999988148092
 20
-1.4000000000000341
 30
0.0
 11
-33.379999988148086
 21
-1.4000000000000341
 31
0.0
  0
LINE
  5
376
100
AcDbEntity
  8
0
  6
CONTINUOUS
 62
               7
100
AcDbLine
 10
-34.361880168010003
 20
-1.4000000000000341
 30
0.0
 11
-35.899999988148068
 21
-1.4000000000000341
 31
0.0
  0
LINE
  5
377
100
AcDbEntity
  8
0
  6
CENTER
 62
               2
100
AcDbLine
 10
-17.195856974999202
 20
3.5
 30
0.0
 11
-19.399999988148096
 21
3.5
 31
0.0
  0
LINE
  5
378
100
AcDbEntity
  8
0
  6
CONTINUOUS
 62
               7
100
AcDbLine
 10
-17.799999988148102
 20
1.8999999999999773
 30
0.0
 11
-17.799999988148102
 21
5.0
 31
0.0
  0
LINE
  5
379
100
AcDbEntity
  8
0
  6
CONTINUOUS
 62
               7
100
AcDbLine
 10
-17.799999988148102
 20
1.8999999999999773
 30
0.0
 11
-18.99999998814809
 21
1.8999999999999773
 31
0.0
  0
LINE
  5
37A
100
AcDbEntity
  8
0
  6
CONTINUOUS
 62
               7
100
AcDbLine
 10
-18.99999998814809
 20
-4.4083488506776121
 30
0.0
 11
-18.99999998814809
 21
4.4083488490041418
 31
0.0
  0
LINE
  5
37B
100
AcDbEntity
  8
0
  6
CONTINUOUS
 62
               7
100
AcDbLine
 10
-11.699999988148079
 20
-5.0000000016734134
 30
0.0
 11
-11.699999988148079
 21
5.0
 31
0.0
  0
LINE
  5
37C
100
AcDbEntity
  8
0
  6
CONTINUOUS
 62
               7
100
AcDbLine
 10
-8.0
 20
5.123475382979791
 30
0.0
 11
-8.0
 21
-5.123475382979791
 31
0.0
  0
CIRCLE
  5
37D
100
AcDbEntity
  8
0
  6
CONTINUOUS
 62
               7
100
AcDbCircle
 10
-3.75
 20
6.4951905283833185
 30
0.0
 40
1.25
  0
CIRCLE
  5
37E
100
AcDbEntity
  8
0
  6
CONTINUOUS
 62
               7
100
AcDbCircle
 10
7.5
 20
0.0
 30
0.0
 40
1.25
  0
CIRCLE
  5
37F
100
AcDbEntity
  8
0
  6
CONTINUOUS
 62
               2
100
AcDbCircle
 10
7.5
 20
0.0
 30
0.0
 40
1.5
  0
CIRCLE
  5
380
100
AcDbEntity
  8
0
  6
CONTINUOUS
 62
               2
100
AcDbCircle
 10
-3.75
 20
6.4951905283833185
 30
0.0
 40
1.5
  0
CIRCLE
  5
381
100
AcDbEntity
  8
0
  6
CONTINUOUS
 62
               2
100
AcDbCircle
 10
-3.75
 20
-6.4951905283833185
 30
0.0
 40
1.5
  0
CIRCLE
  5
382
100
AcDbEntity
  8
0
  6
CONTINUOUS
 62
               7
100
AcDbCircle
 10
-3.75
 20
-6.4951905283833185
 30
0.0
 40
1.25
  0
CIRCLE
  5
383
100
AcDbEntity
  8
0
  6
CENTER
 62
               2
100
AcDbCircle
 10
0.0
 20
0.0
 30
0.0
 40
7.5
  0
ARC
  5
384
100
AcDbEntity
  8
0
  6
CONTINUOUS
 62
               7
100
AcDbCircle
 10
0.0
 20
0.0
 30
0.0
 40
10.0
100
AcDbArc
 50
209.82552560780528
 51
150.17447440319103
  0
ARC
  5
385
100
AcDbEntity
  8
0
  6
CONTINUOUS
 62
               7
100
AcDbCircle
 10
0.0
 20
0.0
 30
0.0
 40
9.4999999999999929
100
AcDbArc
 50
212.6368975035532
 51
147.363102496446
  0
LINE
  5
386
100
AcDbEntity
  8
0
  6
CENTER
 62
               2
100
AcDbLine
 10
0.0
 20
12.0
 30
0.0
 11
0.0
 21
-12.0
 31
0.0
  0
LINE
  5
387
100
AcDbEntity
  8
0
  6
CENTER
 62
               2
100
AcDbLine
 10
-10.928806231895322
 20
0.0
 30
0.0
 11
11.629836014675902
 21
0.0
 31
0.0
  0
LINE
  5
388
100
AcDbEntity
  8
0
  6
CENTER
 62
               2
100
AcDbLine
 10
0.0
 20
0.0
 30
0.0
 11
-5.8166019384642311
 21
-10.074650084823702
 31
0.0
  0
CIRCLE
  5
389
100
AcDbEntity
  8
0
  6
CONTINUOUS
 62
               7
100
AcDbCircle
 10
0.0
 20
0.0
 30
0.0
 40
5.0
  0
CIRCLE
  5
38A
100
AcDbEntity
  8
0
  6
CONTINUOUS
 62
               7
100
AcDbCircle
 10
0.0
 20
0.0
 30
0.0
 40
5.5
  0
ENDBLK
  5
38B
100
AcDbEntity
  8
0
100
AcDbBlockEnd
  0
BLOCK
  5
38C
100
AcDbEntity
  8
0
100
AcDbBlockBegin
  2
NCT20-8
 70
               0
 10
0.0
 20
0.0
 30
0.0
  3
NCT20-8
  1

  0
LINE
  5
38D
100
AcDbEntity
  8
0
  6
DASHED
 62
               2
100
AcDbLine
 10
-2.5
 20
-3.5
 30
0.0
 11
-2.5
 21
-6.7894597256052407
 31
0.0
  0
LINE
  5
38E
100
AcDbEntity
  8
0
  6
DASHED
 62
               2
100
AcDbLine
 10
2.5
 20
-3.5
 30
0.0
 11
2.5
 21
-6.7894597256052407
 31
0.0
  0
LINE
  5
38F
100
AcDbEntity
  8
0
  6
DASHED
 62
               2
100
AcDbLine
 10
-2.1000000000000227
 20
-3.5
 30
0.0
 11
-2.1000000000000227
 21
-7.4888067257199964
 31
0.0
  0
LINE
  5
390
100
AcDbEntity
  8
0
  6
DASHED
 62
               2
100
AcDbLine
 10
2.1000000000000227
 20
-3.5
 30
0.0
 11
2.1000000000000227
 21
-7.4888067257199964
 31
0.0
  0
LINE
  5
391
100
AcDbEntity
  8
0
  6
DASHED
 62
               2
100
AcDbLine
 10
-5.5
 20
0.0
 30
0.0
 11
-5.0
 21
-0.5
 31
0.0
  0
LINE
  5
392
100
AcDbEntity
  8
0
  6
DASHED
 62
               2
100
AcDbLine
 10
-5.0
 20
-0.5
 30
0.0
 11
-5.0
 21
-3.5
 31
0.0
  0
LINE
  5
393
100
AcDbEntity
  8
0
  6
DASHED
 62
               2
100
AcDbLine
 10
5.0
 20
-3.5
 30
0.0
 11
-5.0
 21
-3.5
 31
0.0
  0
LINE
  5
394
100
AcDbEntity
  8
0
  6
DASHED
 62
               2
100
AcDbLine
 10
5.0
 20
-0.5
 30
0.0
 11
5.0
 21
-3.5
 31
0.0
  0
LINE
  5
395
100
AcDbEntity
  8
0
  6
DASHED
 62
               2
100
AcDbLine
 10
5.0
 20
-0.5
 30
0.0
 11
5.5
 21
0.0
 31
0.0
  0
LINE
  5
396
100
AcDbEntity
  8
0
  6
CONTINUOUS
 62
               7
100
AcDbLine
 10
10.0
 20
-4.5
 30
0.0
 11
-8.0
 21
-4.5
 31
0.0
  0
LINE
  5
397
100
AcDbEntity
  8
0
  6
CONTINUOUS
 62
               7
100
AcDbLine
 10
10.0
 20
-5.5
 30
0.0
 11
-8.0
 21
-5.5
 31
0.0
  0
LINE
  5
398
100
AcDbEntity
  8
0
  6
CONTINUOUS
 62
               7
100
AcDbLine
 10
10.0
 20
-0.5
 30
0.0
 11
-8.0
 21
-0.5
 31
0.0
  0
LINE
  5
399
100
AcDbEntity
  8
0
  6
CONTINUOUS
 62
               7
100
AcDbLine
 10
10.0
 20
-0.5
 30
0.0
 11
9.5
 21
0.0
 31
0.0
  0
LINE
  5
39A
100
AcDbEntity
  8
0
  6
CONTINUOUS
 62
               7
100
AcDbLine
 10
-10.0
 20
-21.0
 30
0.0
 11
-10.0
 21
-25.700000000000045
 31
0.0
  0
LINE
  5
39B
100
AcDbEntity
  8
0
  6
CONTINUOUS
 62
               7
100
AcDbLine
 10
10.0
 20
-5.5
 30
0.0
 11
10.0
 21
-25.700000000000045
 31
0.0
  0
LINE
  5
39C
100
AcDbEntity
  8
0
  6
CONTINUOUS
 62
               7
100
AcDbLine
 10
10.0
 20
-4.5
 30
0.0
 11
9.5
 21
-5.0
 31
0.0
  0
LINE
  5
39D
100
AcDbEntity
  8
0
  6
CONTINUOUS
 62
               7
100
AcDbLine
 10
9.5
 20
-5.0
 30
0.0
 11
10.0
 21
-5.5
 31
0.0
  0
LINE
  5
39E
100
AcDbEntity
  8
0
  6
CENTER
 62
               2
100
AcDbLine
 10
5.582299500478257
 20
-14.0
 30
0.0
 11
-5.6689152938675988
 21
-14.0
 31
0.0
  0
LINE
  5
39F
100
AcDbEntity
  8
0
  6
CENTER
 62
               2
100
AcDbLine
 10
0.0
 20
2.0
 30
0.0
 11
0.0
 21
-28.700000000000045
 31
0.0
  0
LINE
  5
3A0
100
AcDbEntity
  8
0
  6
CONTINUOUS
 62
               7
100
AcDbLine
 10
9.5
 20
-5.0
 30
0.0
 11
-8.0
 21
-5.0
 31
0.0
  0
LINE
  5
3A1
100
AcDbEntity
  8
0
  6
CONTINUOUS
 62
               7
100
AcDbLine
 10
10.0
 20
-0.5
 30
0.0
 11
10.0
 21
-4.5
 31
0.0
  0
LINE
  5
3A2
100
AcDbEntity
  8
0
  6
CONTINUOUS
 62
               7
100
AcDbLine
 10
9.5
 20
0.0
 30
0.0
 11
-8.0
 21
0.0
 31
0.0
  0
LINE
  5
3A3
100
AcDbEntity
  8
0
  6
CONTINUOUS
 62
               7
100
AcDbLine
 10
-9.6999999999999886
 20
-26.0
 30
0.0
 11
-10.0
 21
-25.700000000000045
 31
0.0
  0
LINE
  5
3A4
100
AcDbEntity
  8
0
  6
CONTINUOUS
 62
               7
100
AcDbLine
 10
-9.6999999999999886
 20
-26.0
 30
0.0
 11
9.6999999999999886
 21
-26.0
 31
0.0
  0
LINE
  5
3A5
100
AcDbEntity
  8
0
  6
CONTINUOUS
 62
               7
100
AcDbLine
 10
10.0
 20
-25.700000000000045
 30
0.0
 11
9.6999999999999886
 21
-26.0
 31
0.0
  0
LINE
  5
3A6
100
AcDbEntity
  8
0
  6
CONTINUOUS
 62
               7
100
AcDbLine
 10
10.0
 20
-25.700000000000045
 30
0.0
 11
-10.0
 21
-25.700000000000045
 31
0.0
  0
LINE
  5
3A7
100
AcDbEntity
  8
0
  6
CONTINUOUS
 62
               7
100
AcDbLine
 10
-8.0
 20
-21.0
 30
0.0
 11
-10.0
 21
-21.0
 31
0.0
  0
LINE
  5
3A8
100
AcDbEntity
  8
0
  6
CONTINUOUS
 62
               7
100
AcDbLine
 10
-8.0
 20
-0.0000000075924049
 30
0.0
 11
-8.0
 21
-21.000000007592405
 31
0.0
  0
LINE
  5
3A9
100
AcDbEntity
  8
0
  6
CONTINUOUS
 62
               4
100
AcDbLine
 10
-3.5
 20
-27.0
 30
0.0
 11
3.5
 21
-27.0
 31
0.0
  0
LINE
  5
3AA
100
AcDbEntity
  8
0
  6
CONTINUOUS
 62
               4
100
AcDbLine
 10
3.5
 20
-26.0
 30
0.0
 11
3.5
 21
-27.0
 31
0.0
  0
LINE
  5
3AB
100
AcDbEntity
  8
0
  6
CONTINUOUS
 62
               4
100
AcDbLine
 10
-3.5
 20
-26.0
 30
0.0
 11
-3.5
 21
-27.0
 31
0.0
  0
CIRCLE
  5
3AC
100
AcDbEntity
  8
0
  6
CONTINUOUS
 62
               7
100
AcDbCircle
 10
0.0
 20
-14.0
 30
0.0
 40
4.2000000000000002
  0
ARC
  5
3AD
100
AcDbEntity
  8
0
  6
CONTINUOUS
 62
               7
100
AcDbCircle
 10
-0.0013336121164684
 20
-13.999000000000024
 30
0.0
 40
3.5010288649282808
100
AcDbArc
 50
279.89011336923943
 51
80.109886630759732
  0
ARC
  5
3AE
100
AcDbEntity
  8
0
  6
CONTINUOUS
 62
               7
100
AcDbCircle
 10
-0.0013335632787062
 20
-13.999000000000024
 30
0.0
 40
3.5005717393672393
100
AcDbArc
 50
99.847107000931288
 51
260.15289299906789
  0
LINE
  5
3AF
100
AcDbEntity
  8
0
  6
CONTINUOUS
 62
               7
100
AcDbLine
 10
-4.04200000000003
 20
-14.0
 30
0.0
 11
-2.0219999999999914
 21
-17.5
 31
0.0
  0
LINE
  5
3B0
100
AcDbEntity
  8
0
  6
CONTINUOUS
 62
               7
100
AcDbLine
 10
-2.0219999999999914
 20
-10.5
 30
0.0
 11
-4.04200000000003
 21
-14.0
 31
0.0
  0
LINE
  5
3B1
100
AcDbEntity
  8
0
  6
CONTINUOUS
 62
               7
100
AcDbLine
 10
4.0399999999999636
 20
-14.0
 30
0.0
 11
2.0199999999999818
 21
-10.5
 31
0.0
  0
LINE
  5
3B2
100
AcDbEntity
  8
0
  6
CONTINUOUS
 62
               7
100
AcDbLine
 10
2.0199999999999818
 20
-17.5
 30
0.0
 11
4.0399999999999636
 21
-14.0
 31
0.0
  0
ARC
  5
3B3
100
AcDbEntity
  8
0
  6
CONTINUOUS
 62
               7
100
AcDbCircle
 10
0.0
 20
-14.0
 30
0.0
 40
4.0
100
AcDbArc
 50
1.0081687470679896
 51
58.974003899614786
  0
ARC
  5
3B4
100
AcDbEntity
  8
0
  6
CONTINUOUS
 62
               7
100
AcDbCircle
 10
0.0
 20
-14.0
 30
0.0
 40
4.0
100
AcDbArc
 50
61.044975628139497
 51
118.95502437186015
  0
ARC
  5
3B5
100
AcDbEntity
  8
0
  6
CONTINUOUS
 62
               7
100
AcDbCircle
 10
0.0
 20
-14.0
 30
0.0
 40
4.0
100
AcDbArc
 50
121.07724393909305
 51
178.94058341422343
  0
ARC
  5
3B6
100
AcDbEntity
  8
0
  6
CONTINUOUS
 62
               7
100
AcDbCircle
 10
0.0
 20
-14.0
 30
0.0
 40
4.0
100
AcDbArc
 50
181.05941658577635
 51
238.92275606090575
  0
ARC
  5
3B7
100
AcDbEntity
  8
0
  6
CONTINUOUS
 62
               7
100
AcDbCircle
 10
0.0
 20
-14.0
 30
0.0
 40
4.0
100
AcDbArc
 50
241.04497562814004
 51
298.95502437185871
  0
ARC
  5
3B8
100
AcDbEntity
  8
0
  6
CONTINUOUS
 62
               7
100
AcDbCircle
 10
0.0
 20
-14.0
 30
0.0
 40
4.0
100
AcDbArc
 50
301.02599610038487
 51
358.99183125293081
  0
LINE
  5
3B9
100
AcDbEntity
  8
0
  6
CONTINUOUS
 62
               7
100
AcDbLine
 10
-2.0219999999999914
 20
-17.5
 30
0.0
 11
2.0199999999999818
 21
-17.5
 31
0.0
  0
LINE
  5
3BA
100
AcDbEntity
  8
0
  6
CONTINUOUS
 62
               7
100
AcDbLine
 10
2.0199999999999818
 20
-10.5
 30
0.0
 11
-2.0219999999999914
 21
-10.5
 31
0.0
  0
LINE
  5
3BB
100
AcDbEntity
  8
0
  6
CONTINUOUS
 62
               7
100
AcDbLine
 10
0.6000000000000227
 20
-17.5
 30
0.0
 11
0.6000000000000227
 21
-10.5
 31
0.0
  0
LINE
  5
3BC
100
AcDbEntity
  8
0
  6
CONTINUOUS
 62
               7
100
AcDbLine
 10
-0.6000000000000227
 20
-17.5
 30
0.0
 11
-0.6000000000000227
 21
-10.5
 31
0.0
  0
LINE
  5
3BD
100
AcDbEntity
  8
0
  6
CONTINUOUS
 62
               7
100
AcDbLine
 10
-11.699999988148079
 20
-20.499999999999943
 30
0.0
 11
-8.0
 21
-20.467710589277601
 31
0.0
  0
LINE
  5
3BE
100
AcDbEntity
  8
0
  6
CONTINUOUS
 62
               7
100
AcDbLine
 10
-11.699999988148079
 20
-0.4999999999999432
 30
0.0
 11
-8.0
 21
-0.5322894107223419
 31
0.0
  0
LINE
  5
3BF
100
AcDbEntity
  8
0
  6
CONTINUOUS
 62
               7
100
AcDbLine
 10
-18.182320260158519
 20
-20.412668459322845
 30
0.0
 11
-18.50436325589726
 21
-20.408329810536259
 31
0.0
  0
LINE
  5
3C0
100
AcDbEntity
  8
0
  6
CONTINUOUS
 62
               7
100
AcDbLine
 10
-17.799999976296192
 20
-17.499999999999943
 30
0.0
 11
-17.899999976296158
 21
-17.499999999999943
 31
0.0
  0
LINE
  5
3C1
100
AcDbEntity
  8
0
  6
CONTINUOUS
 62
               7
100
AcDbLine
 10
-17.799999976296192
 20
-20.499999999999943
 30
0.0
 11
-17.899999976296158
 21
-20.499999999999943
 31
0.0
  0
ARC
  5
3C2
100
AcDbEntity
  8
0
  6
CONTINUOUS
 62
               7
100
AcDbCircle
 10
-17.899999976296158
 20
-17.999999999999943
 30
0.0
 40
0.5
100
AcDbArc
 50
89.999999999999815
 51
179.99999999999963
  0
LINE
  5
3C3
100
AcDbEntity
  8
0
  6
CONTINUOUS
 62
               7
100
AcDbLine
 10
-18.399999976296158
 20
-19.999999999999943
 30
0.0
 11
-18.399999976296158
 21
-17.999999999999943
 31
0.0
  0
ARC
  5
3C4
100
AcDbEntity
  8
0
  6
CONTINUOUS
 62
               7
100
AcDbCircle
 10
-17.899999976296158
 20
-19.999999999999943
 30
0.0
 40
0.5
100
AcDbArc
 50
179.99999999999963
 51
269.99999999999937
  0
ARC
  5
3C5
100
AcDbEntity
  8
0
  6
CONTINUOUS
 62
               7
100
AcDbCircle
 10
-18.49999998814809
 20
-1.0916511509956877
 30
0.0
 40
0.5
100
AcDbArc
 50
90.499999999999744
 51
179.99999999999963
  0
ARC
  5
3C6
100
AcDbEntity
  8
0
  6
CONTINUOUS
 62
               7
100
AcDbCircle
 10
-18.49999998814809
 20
-19.908348849004142
 30
0.0
 40
0.5
100
AcDbArc
 50
179.99999999999963
 51
269.49999999999943
  0
LINE
  5
3C7
100
AcDbEntity
  8
0
  6
CONTINUOUS
 62
               7
100
AcDbLine
 10
-11.699999988148079
 20
-20.499999999999943
 30
0.0
 11
-17.799999988148102
 21
-20.417819179587468
 31
0.0
  0
LINE
  5
3C8
100
AcDbEntity
  8
0
  6
CONTINUOUS
 62
               7
100
AcDbLine
 10
-11.699999988148079
 20
-0.4999999999999432
 30
0.0
 11
-18.50436325589726
 21
-0.5916701894636276
 31
0.0
  0
LINE
  5
3C9
100
AcDbEntity
  8
0
  6
CONTINUOUS
 62
               7
100
AcDbLine
 10
-18.399999988148068
 20
-0.0999999999999091
 30
0.0
 11
-18.399999988148068
 21
-0.4999999999999432
 31
0.0
  0
LINE
  5
3CA
100
AcDbEntity
  8
0
  6
CONTINUOUS
 62
               7
100
AcDbLine
 10
-12.399999988148068
 20
-0.0999999999999091
 30
0.0
 11
-12.399999988148068
 21
-0.4999999999999432
 31
0.0
  0
LINE
  5
3CB
100
AcDbEntity
  8
0
  6
PHANTOM
 62
               2
100
AcDbLine
 10
-13.500000012524765
 20
8.091154289176643
 30
0.0
 11
-17.300000024445694
 21
10.285085317423523
 31
0.0
  0
LINE
  5
3CC
100
AcDbEntity
  8
0
  6
PHANTOM
 62
               2
100
AcDbLine
 10
-13.499999982722443
 20
9.014914688399017
 30
0.0
 11
-17.300000024445694
 21
11.208845731547058
 31
0.0
  0
LINE
  5
3CD
100
AcDbEntity
  8
0
  6
PHANTOM
 62
               2
100
AcDbLine
 10
-13.899999988682907
 20
13.072094392707527
 30
0.0
 11
-16.90000001848523
 21
14.804145213892639
 31
0.0
  0
LINE
  5
3CE
100
AcDbEntity
  8
0
  6
PHANTOM
 62
               2
100
AcDbLine
 10
-13.899999988682907
 20
13.99585477702874
 30
0.0
 11
-16.899999988682907
 21
15.72790558331269
 31
0.0
  0
LINE
  5
3CF
100
AcDbEntity
  8
0
  6
CONTINUOUS
 62
               7
100
AcDbLine
 10
-16.699999988148079
 20
10.862435550207749
 30
0.0
 11
-16.699999988148079
 21
12.400000000000091
 31
0.0
  0
LINE
  5
3D0
100
AcDbEntity
  8
0
  6
CONTINUOUS
 62
               7
100
AcDbLine
 10
-14.099999988148056
 20
9.3613248503147588
 30
0.0
 11
-14.099999988148056
 21
12.400000000000091
 31
0.0
  0
LINE
  5
3D1
100
AcDbEntity
  8
0
  6
CONTINUOUS
 62
               7
100
AcDbLine
 10
-16.699999988148079
 20
6.9000000000000909
 30
0.0
 11
-16.699999988148079
 21
9.9386751509853752
 31
0.0
  0
LINE
  5
3D2
100
AcDbEntity
  8
0
  6
CONTINUOUS
 62
               7
100
AcDbLine
 10
-14.099999988148056
 20
6.9000000000000909
 30
0.0
 11
-14.099999988148056
 21
8.4375644510923848
 31
0.0
  0
LINE
  5
3D3
100
AcDbEntity
  8
0
  6
CONTINUOUS
 62
               7
100
AcDbLine
 10
-16.099999988148056
 20
16.400000000000091
 30
0.0
 11
-16.099999988148056
 21
18.400000000000091
 31
0.0
  0
LINE
  5
3D4
100
AcDbEntity
  8
0
  6
CONTINUOUS
 62
               7
100
AcDbLine
 10
-15.599999988148056
 20
16.400000000000091
 30
0.0
 11
-15.599999988148056
 21
18.400000000000091
 31
0.0
  0
LINE
  5
3D5
100
AcDbEntity
  8
0
  6
CONTINUOUS
 62
               7
100
AcDbLine
 10
-15.199999988148079
 20
16.400000000000091
 30
0.0
 11
-15.199999988148079
 21
18.400000000000091
 31
0.0
  0
LINE
  5
3D6
100
AcDbEntity
  8
0
  6
CONTINUOUS
 62
               7
100
AcDbLine
 10
-14.699999988148079
 20
16.400000000000091
 30
0.0
 11
-14.699999988148079
 21
18.400000000000091
 31
0.0
  0
LINE
  5
3D7
100
AcDbEntity
  8
0
  6
CONTINUOUS
 62
               7
100
AcDbLine
 10
-14.49999998814809
 20
14.342264937976779
 30
0.0
 11
-14.49999998814809
 21
16.400000000000091
 31
0.0
  0
LINE
  5
3D8
100
AcDbEntity
  8
0
  6
CONTINUOUS
 62
               7
100
AcDbLine
 10
-14.49999998814809
 20
12.400000000000091
 30
0.0
 11
-14.49999998814809
 21
13.36000000000007
 31
0.0
  0
LINE
  5
3D9
100
AcDbEntity
  8
0
  6
CONTINUOUS
 62
               7
100
AcDbLine
 10
-16.299999988148102
 20
15.381495421747161
 30
0.0
 11
-16.299999988148102
 21
16.400000000000091
 31
0.0
  0
LINE
  5
3DA
100
AcDbEntity
  8
0
  6
CONTINUOUS
 62
               7
100
AcDbLine
 10
-15.399999988148068
 20
14.861880179861998
 30
0.0
 11
-15.399999988148068
 21
16.400000000000091
 31
0.0
  0
LINE
  5
3DB
100
AcDbEntity
  8
0
  6
CONTINUOUS
 62
               7
100
AcDbLine
 10
-15.399999988148068
 20
12.400000000000091
 30
0.0
 11
-15.399999988148068
 21
13.880000000000052
 31
0.0
  0
LINE
  5
3DC
100
AcDbEntity
  8
0
  6
CONTINUOUS
 62
               7
100
AcDbLine
 10
-16.299999988148102
 20
12.400000000000091
 30
0.0
 11
-16.299999988148102
 21
14.400000000000091
 31
0.0
  0
LINE
  5
3DD
100
AcDbEntity
  8
0
  6
CONTINUOUS
 62
               7
100
AcDbLine
 10
-14.49999998814809
 20
16.400000000000091
 30
0.0
 11
-16.299999988148102
 21
16.400000000000091
 31
0.0
  0
LINE
  5
3DE
100
AcDbEntity
  8
0
  6
CONTINUOUS
 62
               7
100
AcDbLine
 10
-15.599999988148056
 20
18.400000000000091
 30
0.0
 11
-16.099999988148056
 21
18.400000000000091
 31
0.0
  0
LINE
  5
3DF
100
AcDbEntity
  8
0
  6
CONTINUOUS
 62
               7
100
AcDbLine
 10
-14.699999988148079
 20
18.400000000000091
 30
0.0
 11
-15.199999988148079
 21
18.400000000000091
 31
0.0
  0
LINE
  5
3E0
100
AcDbEntity
  8
0
  6
CONTINUOUS
 62
               2
100
AcDbLine
 10
-15.849999988148056
 20
11.501543741441992
 30
0.0
 11
-15.849999988148056
 21
19.022492218973014
 31
0.0
  0
LINE
  5
3E1
100
AcDbEntity
  8
0
  6
CONTINUOUS
 62
               2
100
AcDbLine
 10
-14.949999988148079
 20
11.501543741441992
 30
0.0
 11
-14.949999988148079
 21
19.022492218973014
 31
0.0
  0
LINE
  5
3E2
100
AcDbEntity
  8
0
  6
CONTINUOUS
 62
               7
100
AcDbLine
 10
-14.099999988148056
 20
12.400000000000091
 30
0.0
 11
-16.699999988148079
 21
12.400000000000091
 31
0.0
  0
LINE
  5
3E3
100
AcDbEntity
  8
0
  6
CONTINUOUS
 62
               7
100
AcDbLine
 10
-13.649999988148068
 20
2.4000000000000909
 30
0.0
 11
-13.649999988148068
 21
1.4000000000000909
 31
0.0
  0
LINE
  5
3E4
100
AcDbEntity
  8
0
  6
CONTINUOUS
 62
               7
100
AcDbLine
 10
-17.149999988148068
 20
2.4000000000000909
 30
0.0
 11
-17.149999988148068
 21
1.4000000000000909
 31
0.0
  0
LINE
  5
3E5
100
AcDbEntity
  8
0
  6
CONTINUOUS
 62
               7
100
AcDbLine
 10
-13.649999988148068
 20
4.9000000000000909
 30
0.0
 11
-13.649999988148068
 21
3.9000000000000909
 31
0.0
  0
LINE
  5
3E6
100
AcDbEntity
  8
0
  6
CONTINUOUS
 62
               7
100
AcDbLine
 10
-17.149999988148068
 20
4.9000000000000909
 30
0.0
 11
-17.149999988148068
 21
3.9000000000000909
 31
0.0
  0
LINE
  5
3E7
100
AcDbEntity
  8
0
  6
CONTINUOUS
 62
               7
100
AcDbLine
 10
-12.61428570243379
 20
1.4000000000000909
 30
0.0
 11
-12.399999988148068
 21
-0.0999999999999091
 31
0.0
  0
LINE
  5
3E8
100
AcDbEntity
  8
0
  6
CONTINUOUS
 62
               7
100
AcDbLine
 10
-12.97142855957668
 20
3.9000000000000909
 30
0.0
 11
-12.757142845290957
 21
2.4000000000000909
 31
0.0
  0
LINE
  5
3E9
100
AcDbEntity
  8
0
  6
CONTINUOUS
 62
               7
100
AcDbLine
 10
-18.185714273862345
 20
1.4000000000000909
 30
0.0
 11
-18.399999988148068
 21
-0.0999999999999091
 31
0.0
  0
LINE
  5
3EA
100
AcDbEntity
  8
0
  6
CONTINUOUS
 62
               7
100
AcDbLine
 10
-17.828571416719512
 20
3.9000000000000909
 30
0.0
 11
-18.042857131005235
 21
2.4000000000000909
 31
0.0
  0
LINE
  5
3EB
100
AcDbEntity
  8
0
  6
CONTINUOUS
 62
               7
100
AcDbLine
 10
-12.61428570243379
 20
1.4000000000000909
 30
0.0
 11
-18.185714273862345
 21
1.4000000000000909
 31
0.0
  0
LINE
  5
3EC
100
AcDbEntity
  8
0
  6
CONTINUOUS
 62
               7
100
AcDbLine
 10
-12.757142845290957
 20
2.4000000000000909
 30
0.0
 11
-18.042857131005235
 21
2.4000000000000909
 31
0.0
  0
LINE
  5
3ED
100
AcDbEntity
  8
0
  6
CONTINUOUS
 62
               7
100
AcDbLine
 10
-12.97142855957668
 20
3.9000000000000909
 30
0.0
 11
-17.828571416719512
 21
3.9000000000000909
 31
0.0
  0
LINE
  5
3EE
100
AcDbEntity
  8
0
  6
CONTINUOUS
 62
               7
100
AcDbLine
 10
-13.11428570243379
 20
4.9000000000000909
 30
0.0
 11
-17.685714273862345
 21
4.9000000000000909
 31
0.0
  0
LINE
  5
3EF
100
AcDbEntity
  8
0
  6
CONTINUOUS
 62
               7
100
AcDbLine
 10
-13.399999988148068
 20
6.9000000000000909
 30
0.0
 11
-13.11428570243379
 21
4.9000000000000909
 31
0.0
  0
LINE
  5
3F0
100
AcDbEntity
  8
0
  6
CONTINUOUS
 62
               7
100
AcDbLine
 10
-17.399999988148068
 20
6.9000000000000909
 30
0.0
 11
-17.685714273862345
 21
4.9000000000000909
 31
0.0
  0
LINE
  5
3F1
100
AcDbEntity
  8
0
  6
CONTINUOUS
 62
               7
100
AcDbLine
 10
-13.399999988148068
 20
6.9000000000000909
 30
0.0
 11
-17.399999988148068
 21
6.9000000000000909
 31
0.0
  0
LINE
  5
3F2
100
AcDbEntity
  8
0
  6
CONTINUOUS
 62
               7
100
AcDbLine
 10
-12.399999988148068
 20
-0.0999999999999091
 30
0.0
 11
-18.399999988148068
 21
-0.0999999999999091
 31
0.0
  0
LINE
  5
3F3
100
AcDbEntity
  8
0
  6
CONTINUOUS
 62
               7
100
AcDbLine
 10
-12.699999988148079
 20
-15.499999999999943
 30
0.0
 11
-12.699999988148079
 21
-16.699999999999932
 31
0.0
  0
LINE
  5
3F4
100
AcDbEntity
  8
0
  6
CONTINUOUS
 62
               7
100
AcDbLine
 10
-13.599999988148056
 20
-15.499999999999943
 30
0.0
 11
-13.599999988148056
 21
-16.699999999999932
 31
0.0
  0
LINE
  5
3F5
100
AcDbEntity
  8
0
  6
CONTINUOUS
 62
               7
100
AcDbLine
 10
-12.699999988148079
 20
-15.599999999999909
 30
0.0
 11
-13.549999988148102
 21
-15.599999999999909
 31
0.0
  0
LINE
  5
3F6
100
AcDbEntity
  8
0
  6
CONTINUOUS
 62
               7
100
AcDbLine
 10
-12.699999988148079
 20
-16.599999999999909
 30
0.0
 11
-13.549999988148102
 21
-16.599999999999909
 31
0.0
  0
LINE
  5
3F7
100
AcDbEntity
  8
0
  6
CONTINUOUS
 62
               7
100
AcDbLine
 10
-13.549999988148102
 20
-15.599999999999909
 30
0.0
 11
-13.549999988148102
 21
-16.599999999999909
 31
0.0
  0
LINE
  5
3F8
100
AcDbEntity
  8
0
  6
CONTINUOUS
 62
               7
100
AcDbLine
 10
-12.849999988148056
 20
-15.599999999999909
 30
0.0
 11
-12.849999988148056
 21
-16.599999999999909
 31
0.0
  0
LINE
  5
3F9
100
AcDbEntity
  8
0
  6
CONTINUOUS
 62
               7
100
AcDbLine
 10
-12.699999988148079
 20
-16.699999999999932
 30
0.0
 11
-13.599999988148056
 21
-16.699999999999932
 31
0.0
  0
LINE
  5
3FA
100
AcDbEntity
  8
0
  6
CONTINUOUS
 62
               7
100
AcDbLine
 10
-12.699999988148079
 20
-15.499999999999943
 30
0.0
 11
-13.599999988148056
 21
-15.499999999999943
 31
0.0
  0
LINE
  5
3FB
100
AcDbEntity
  8
0
  6
CONTINUOUS
 62
               7
100
AcDbLine
 10
-12.699999988148079
 20
-4.2999999999999545
 30
0.0
 11
-13.599999988148056
 21
-4.2999999999999545
 31
0.0
  0
LINE
  5
3FC
100
AcDbEntity
  8
0
  6
CONTINUOUS
 62
               7
100
AcDbLine
 10
-12.699999988148079
 20
-5.4999999999999432
 30
0.0
 11
-13.599999988148056
 21
-5.4999999999999432
 31
0.0
  0
LINE
  5
3FD
100
AcDbEntity
  8
0
  6
CONTINUOUS
 62
               7
100
AcDbLine
 10
-12.849999988148056
 20
-4.3999999999999204
 30
0.0
 11
-12.849999988148056
 21
-5.3999999999999204
 31
0.0
  0
LINE
  5
3FE
100
AcDbEntity
  8
0
  6
CONTINUOUS
 62
               7
100
AcDbLine
 10
-13.549999988148102
 20
-4.3999999999999204
 30
0.0
 11
-13.549999988148102
 21
-5.3999999999999204
 31
0.0
  0
LINE
  5
3FF
100
AcDbEntity
  8
0
  6
CONTINUOUS
 62
               7
100
AcDbLine
 10
-12.699999988148079
 20
-5.3999999999999204
 30
0.0
 11
-13.549999988148102
 21
-5.3999999999999204
 31
0.0
  0
LINE
  5
400
100
AcDbEntity
  8
0
  6
CONTINUOUS
 62
               7
100
AcDbLine
 10
-12.699999988148079
 20
-4.3999999999999204
 30
0.0
 11
-13.549999988148102
 21
-4.3999999999999204
 31
0.0
  0
LINE
  5
401
100
AcDbEntity
  8
0
  6
CONTINUOUS
 62
               7
100
AcDbLine
 10
-13.599999988148056
 20
-4.2999999999999545
 30
0.0
 11
-13.599999988148056
 21
-5.4999999999999432
 31
0.0
  0
LINE
  5
402
100
AcDbEntity
  8
0
  6
CONTINUOUS
 62
               7
100
AcDbLine
 10
-12.699999988148079
 20
-4.2999999999999545
 30
0.0
 11
-12.699999988148079
 21
-5.4999999999999432
 31
0.0
  0
LINE
  5
403
100
AcDbEntity
  8
0
  6
CENTER
 62
               2
100
AcDbLine
 10
-17.195856974999174
 20
-18.999999999999943
 30
0.0
 11
-19.435449279208456
 21
-18.999999999999943
 31
0.0
  0
LINE
  5
404
100
AcDbEntity
  8
0
  6
CONTINUOUS
 62
               7
100
AcDbLine
 10
-17.799999988148102
 20
-20.499999999999943
 30
0.0
 11
-17.799999988148102
 21
-17.399999999999977
 31
0.0
  0
LINE
  5
405
100
AcDbEntity
  8
0
  6
CONTINUOUS
 62
               7
100
AcDbLine
 10
-17.799999988148102
 20
-17.399999999999977
 30
0.0
 11
-18.99999998814809
 21
-17.399999999999977
 31
0.0
  0
LINE
  5
406
100
AcDbEntity
  8
0
  6
CENTER
 62
               2
100
AcDbLine
 10
-15.399999988148068
 20
-1.6947729114489789
 30
0.0
 11
-15.399999988148068
 21
12.400000000000091
 31
0.0
  0
LINE
  5
407
100
AcDbEntity
  8
0
  6
CONTINUOUS
 62
               7
100
AcDbLine
 10
-18.99999998814809
 20
-1.0916511509956877
 30
0.0
 11
-18.99999998814809
 21
-19.908348849004142
 31
0.0
  0
LINE
  5
408
100
AcDbEntity
  8
0
  6
CONTINUOUS
 62
               7
100
AcDbLine
 10
-11.699999988148079
 20
-0.4999999999999432
 30
0.0
 11
-11.699999988148079
 21
-20.499999999999943
 31
0.0
  0
ENDBLK
  5
409
100
AcDbEntity
  8
0
100
AcDbBlockEnd
  0
BLOCK
  5
40A
100
AcDbEntity
  8
0
100
AcDbBlockBegin
  2
NCT20-9
 70
               0
 10
0.0
 20
0.0
 30
0.0
  3
NCT20-9
  1

  0
LINE
  5
40B
100
AcDbEntity
  8
0
  6
CENTER
 62
               2
100
AcDbLine
 10
11.629836014675902
 20
0.0
 30
0.0
 11
-10.928806231895294
 21
0.0
 31
0.0
  0
LINE
  5
40C
100
AcDbEntity
  8
0
  6
CONTINUOUS
 62
               7
100
AcDbLine
 10
-7.9999999881480903
 20
5.123475382979791
 30
0.0
 11
-7.9999999881480903
 21
-5.123475382979791
 31
0.0
  0
LINE
  5
40D
100
AcDbEntity
  8
0
  6
CONTINUOUS
 62
               7
100
AcDbLine
 10
-11.699999988148079
 20
-5.0000000016734134
 30
0.0
 11
-11.699999988148079
 21
5.0
 31
0.0
  0
LINE
  5
40E
100
AcDbEntity
  8
0
  6
CONTINUOUS
 62
               7
100
AcDbLine
 10
-18.99999998814809
 20
-4.4083488506775552
 30
0.0
 11
-18.99999998814809
 21
4.4083488490041418
 31
0.0
  0
LINE
  5
40F
100
AcDbEntity
  8
0
  6
CONTINUOUS
 62
               7
100
AcDbLine
 10
-17.799999988148102
 20
1.8999999999999773
 30
0.0
 11
-17.799999988148102
 21
5.0
 31
0.0
  0
LINE
  5
410
100
AcDbEntity
  8
0
  6
CENTER
 62
               2
100
AcDbLine
 10
-15.399999988148068
 20
-5.2202676542378299
 30
0.0
 11
-15.399999988148068
 21
2.6311926605504823
 31
0.0
  0
LINE
  5
411
100
AcDbEntity
  8
0
  6
CONTINUOUS
 62
               7
100
AcDbLine
 10
-11.699999988148079
 20
5.0
 30
0.0
 11
-7.9999999881480903
 21
4.9677105891742031
 31
0.0
  0
ARC
  5
412
100
AcDbEntity
  8
0
  6
CONTINUOUS
 62
               7
100
AcDbCircle
 10
-18.49999998814809
 20
4.4083488490041418
 30
0.0
 40
0.5
100
AcDbArc
 50
90.500000000000171
 51
179.99999999999963
  0
LINE
  5
413
100
AcDbEntity
  8
0
  6
CONTINUOUS
 62
               7
100
AcDbLine
 10
-11.699999988148079
 20
5.0
 30
0.0
 11
-17.799999988148102
 21
4.9178191795874113
 31
0.0
  0
LINE
  5
414
100
AcDbEntity
  8
0
  6
CENTER
 62
               2
100
AcDbLine
 10
-17.195856974999174
 20
3.5
 30
0.0
 11
-19.399999988148068
 21
3.5
 31
0.0
  0
LINE
  5
415
100
AcDbEntity
  8
0
  6
CONTINUOUS
 62
               7
100
AcDbLine
 10
-11.699999988148079
 20
-5.0000000016734134
 30
0.0
 11
-7.9999999881480903
 21
-4.9677105908476165
 31
0.0
  0
ARC
  5
416
100
AcDbEntity
  8
0
  6
CONTINUOUS
 62
               7
100
AcDbCircle
 10
-18.49999998814809
 20
-4.4083488506775552
 30
0.0
 40
0.5
100
AcDbArc
 50
179.99999999999963
 51
269.49999999999909
  0
LINE
  5
417
100
AcDbEntity
  8
0
  6
CONTINUOUS
 62
               7
100
AcDbLine
 10
-11.699999988148079
 20
-5.0000000016734134
 30
0.0
 11
-18.50436325589726
 21
-4.9083298122096721
 31
0.0
  0
LINE
  5
418
100
AcDbEntity
  8
0
  6
CENTER
 62
               2
100
AcDbLine
 10
-15.14019236701273
 20
-2.4873978132621914
 30
0.0
 11
-15.14019236701273
 21
-0.3128858739750058
 31
0.0
  0
LINE
  5
419
100
AcDbEntity
  8
0
  6
CENTER
 62
               2
100
AcDbLine
 10
-15.919615230418742
 20
-2.0400220180824249
 30
0.0
 11
-15.919615230418742
 21
-0.7393987967181488
 31
0.0
  0
CIRCLE
  5
41A
100
AcDbEntity
  8
0
  6
CONTINUOUS
 62
               7
100
AcDbCircle
 10
-15.919615230418742
 20
-1.3999999999999773
 30
0.0
 40
0.25
  0
CIRCLE
  5
41B
100
AcDbEntity
  8
0
  6
CONTINUOUS
 62
               7
100
AcDbCircle
 10
-15.919615230418742
 20
-1.3999999999999773
 30
0.0
 40
0.45
  0
CIRCLE
  5
41C
100
AcDbEntity
  8
0
  6
CONTINUOUS
 62
               7
100
AcDbCircle
 10
-15.14019236701273
 20
-0.9499999999999886
 30
0.0
 40
0.2500000000000003
  0
CIRCLE
  5
41D
100
AcDbEntity
  8
0
  6
CONTINUOUS
 62
               7
100
AcDbCircle
 10
-15.14019236701273
 20
-0.9499999999999886
 30
0.0
 40
0.4499999999999959
  0
CIRCLE
  5
41E
100
AcDbEntity
  8
0
  6
CONTINUOUS
 62
               7
100
AcDbCircle
 10
-15.14019236701273
 20
-1.8500000000000227
 30
0.0
 40
0.2500000000000003
  0
CIRCLE
  5
41F
100
AcDbEntity
  8
0
  6
CONTINUOUS
 62
               7
100
AcDbCircle
 10
-15.14019236701273
 20
-1.8500000000000227
 30
0.0
 40
0.4500000000000031
  0
LINE
  5
420
100
AcDbEntity
  8
0
  6
CENTER
 62
               2
100
AcDbLine
 10
-14.469054848806593
 20
-0.9499999999999886
 30
0.0
 11
-15.742916275492576
 21
-0.9499999999999886
 31
0.0
  0
LINE
  5
421
100
AcDbEntity
  8
0
  6
CENTER
 62
               2
100
AcDbLine
 10
-14.469054848806593
 20
-1.8500000000000227
 30
0.0
 11
-15.737563916556894
 21
-1.8500000000000227
 31
0.0
  0
CIRCLE
  5
422
100
AcDbEntity
  8
0
  6
CONTINUOUS
 62
               7
100
AcDbCircle
 10
-15.399999988148068
 20
-1.3999999999999773
 30
0.0
 40
1.2999999999999972
  0
LINE
  5
423
100
AcDbEntity
  8
0
  6
CENTER
 62
               2
100
AcDbLine
 10
-19.430359690020396
 20
-1.3999999999999773
 30
0.0
 11
-11.546982869887415
 21
-1.3999999999999773
 31
0.0
  0
LINE
  5
424
100
AcDbEntity
  8
0
  6
CONTINUOUS
 62
               7
100
AcDbLine
 10
-17.799999988148102
 20
1.8999999999999773
 30
0.0
 11
-18.99999998814809
 21
1.8999999999999773
 31
0.0
  0
CIRCLE
  5
425
100
AcDbEntity
  8
0
  6
CONTINUOUS
 62
               7
100
AcDbCircle
 10
-15.399999988148068
 20
-1.3999999999999773
 30
0.0
 40
2.0
  0
CIRCLE
  5
426
100
AcDbEntity
  8
0
  6
CONTINUOUS
 62
               7
100
AcDbCircle
 10
-15.399999988148068
 20
-1.3999999999999773
 30
0.0
 40
3.0
  0
ARC
  5
427
100
AcDbEntity
  8
0
  6
CONTINUOUS
 62
               7
100
AcDbCircle
 10
-17.899999988148068
 20
4.5
 30
0.0
 40
0.5
100
AcDbArc
 50
89.999999999999815
 51
179.99999999999963
  0
LINE
  5
428
100
AcDbEntity
  8
0
  6
CONTINUOUS
 62
               7
100
AcDbLine
 10
-18.399999988148068
 20
2.5
 30
0.0
 11
-18.399999988148068
 21
4.5
 31
0.0
  0
ARC
  5
429
100
AcDbEntity
  8
0
  6
CONTINUOUS
 62
               7
100
AcDbCircle
 10
-17.899999988148068
 20
2.5
 30
0.0
 40
0.5
100
AcDbArc
 50
179.99999999999963
 51
269.99999999999937
  0
LINE
  5
42A
100
AcDbEntity
  8
0
  6
CONTINUOUS
 62
               7
100
AcDbLine
 10
-17.799999988148102
 20
2.0
 30
0.0
 11
-17.899999988148068
 21
2.0
 31
0.0
  0
LINE
  5
42B
100
AcDbEntity
  8
0
  6
CONTINUOUS
 62
               7
100
AcDbLine
 10
-17.799999988148102
 20
5.0
 30
0.0
 11
-17.899999988148068
 21
5.0
 31
0.0
  0
LINE
  5
42C
100
AcDbEntity
  8
0
  6
CONTINUOUS
 62
               7
100
AcDbLine
 10
-18.182320272248546
 20
4.9126684591599314
 30
0.0
 11
-18.504363255897317
 21
4.9083298105362587
 31
0.0
  0
CIRCLE
  5
42D
100
AcDbEntity
  8
0
  6
CENTER
 62
               2
100
AcDbCircle
 10
0.0
 20
0.0
 30
0.0
 40
7.5
  0
ARC
  5
42E
100
AcDbEntity
  8
0
  6
CONTINUOUS
 62
               7
100
AcDbCircle
 10
0.0
 20
0.0
 30
0.0
 40
10.0
100
AcDbArc
 50
209.82552560780528
 51
150.17447440319103
  0
ARC
  5
42F
100
AcDbEntity
  8
0
  6
CONTINUOUS
 62
               7
100
AcDbCircle
 10
0.0
 20
0.0
 30
0.0
 40
9.4999999999999929
100
AcDbArc
 50
212.6368975035532
 51
147.363102496446
  0
CIRCLE
  5
430
100
AcDbEntity
  8
0
  6
CONTINUOUS
 62
               7
100
AcDbCircle
 10
0.0
 20
0.0
 30
0.0
 40
5.5
  0
CIRCLE
  5
431
100
AcDbEntity
  8
0
  6
CONTINUOUS
 62
               7
100
AcDbCircle
 10
0.0
 20
0.0
 30
0.0
 40
5.0
  0
LINE
  5
432
100
AcDbEntity
  8
0
  6
CENTER
 62
               2
100
AcDbLine
 10
0.0
 20
0.0
 30
0.0
 11
-5.8166019384642027
 21
-10.074650084823645
 31
0.0
  0
LINE
  5
433
100
AcDbEntity
  8
0
  6
CENTER
 62
               2
100
AcDbLine
 10
0.0
 20
12.0
 30
0.0
 11
0.0
 21
-12.0
 31
0.0
  0
CIRCLE
  5
434
100
AcDbEntity
  8
0
  6
CONTINUOUS
 62
               7
100
AcDbCircle
 10
-3.75
 20
-6.4951905283832616
 30
0.0
 40
1.25
  0
CIRCLE
  5
435
100
AcDbEntity
  8
0
  6
CONTINUOUS
 62
               2
100
AcDbCircle
 10
-3.75
 20
-6.4951905283832616
 30
0.0
 40
1.5
  0
CIRCLE
  5
436
100
AcDbEntity
  8
0
  6
CONTINUOUS
 62
               2
100
AcDbCircle
 10
-3.75
 20
6.4951905283833185
 30
0.0
 40
1.5
  0
CIRCLE
  5
437
100
AcDbEntity
  8
0
  6
CONTINUOUS
 62
               2
100
AcDbCircle
 10
7.5
 20
0.0
 30
0.0
 40
1.5
  0
CIRCLE
  5
438
100
AcDbEntity
  8
0
  6
CONTINUOUS
 62
               7
100
AcDbCircle
 10
7.5
 20
0.0
 30
0.0
 40
1.25
  0
CIRCLE
  5
439
100
AcDbEntity
  8
0
  6
CONTINUOUS
 62
               7
100
AcDbCircle
 10
-3.75
 20
6.4951905283833185
 30
0.0
 40
1.25
  0
LINE
  5
43A
100
AcDbEntity
  8
0
  6
CENTER
 62
               2
100
AcDbLine
 10
0.0
 20
0.0
 30
0.0
 11
-5.8166019384642027
 21
10.074650084823702
 31
0.0
  0
CIRCLE
  5
43B
100
AcDbEntity
  8
0
  6
CONTINUOUS
 62
               7
100
AcDbCircle
 10
0.0
 20
0.0
 30
0.0
 40
2.1000000000000001
  0
CIRCLE
  5
43C
100
AcDbEntity
  8
0
  6
CONTINUOUS
 62
               2
100
AcDbCircle
 10
0.0
 20
0.0
 30
0.0
 40
2.5
  0
LINE
  5
43D
100
AcDbEntity
  8
0
  6
CONTINUOUS
 62
               7
100
AcDbLine
 10
-4.0
 20
-9.5999999999999659
 30
0.0
 11
-4.0
 21
-9.1651513899116708
 31
0.0
  0
LINE
  5
43E
100
AcDbEntity
  8
0
  6
CONTINUOUS
 62
               7
100
AcDbLine
 10
4.0
 20
-9.5999999999999659
 30
0.0
 11
4.0
 21
-9.1651513899116708
 31
0.0
  0
LINE
  5
43F
100
AcDbEntity
  8
0
  6
CONTINUOUS
 62
               7
100
AcDbLine
 10
-2.8000000000000114
 20
-9.5999999999999659
 30
0.0
 11
-4.0500000000000114
 21
-9.5999999999999659
 31
0.0
  0
LINE
  5
440
100
AcDbEntity
  8
0
  6
CONTINUOUS
 62
               7
100
AcDbLine
 10
-4.0500000000000114
 20
-11.599999999999966
 30
0.0
 11
-4.0500000000000114
 21
-9.5999999999999659
 31
0.0
  0
LINE
  5
441
100
AcDbEntity
  8
0
  6
CONTINUOUS
 62
               7
100
AcDbLine
 10
-3.5500000000000114
 20
-12.099999999999966
 30
0.0
 11
-4.0500000000000114
 21
-11.599999999999966
 31
0.0
  0
LINE
  5
442
100
AcDbEntity
  8
0
  6
CONTINUOUS
 62
               7
100
AcDbLine
 10
-2.0300000000000296
 20
-11.599999999999966
 30
0.0
 11
-2.0300000000000296
 21
-9.7917873751424622
 31
0.0
  0
ARC
  5
443
100
AcDbEntity
  8
0
  6
CONTINUOUS
 62
               7
100
AcDbCircle
 10
-4.9722187730059773
 20
-5.2160549300617731
 30
0.0
 40
7.0293247160888015
100
AcDbArc
 50
281.67304037350181
 51
294.74392856765866
  0
LINE
  5
444
100
AcDbEntity
  8
0
  6
CONTINUOUS
 62
               7
100
AcDbLine
 10
-0.5
 20
-12.099999999999966
 30
0.0
 11
-3.5500000000000114
 21
-12.099999999999966
 31
0.0
  0
ARC
  5
445
100
AcDbEntity
  8
0
  6
CONTINUOUS
 62
               7
100
AcDbCircle
 10
0.0190627296830144
 20
-7.747050049135396
 30
0.0
 40
4.363929581700825
100
AcDbArc
 50
241.99521341413674
 51
263.16884500145613
  0
LINE
  5
446
100
AcDbEntity
  8
0
  6
CONTINUOUS
 62
               7
100
AcDbLine
 10
-0.5
 20
-12.099999999999966
 30
0.0
 11
-0.5
 21
-10.599999999999966
 31
0.0
  0
LINE
  5
447
100
AcDbEntity
  8
0
  6
CONTINUOUS
 62
               7
100
AcDbLine
 10
0.5
 20
-10.599999999999966
 30
0.0
 11
-0.5
 21
-10.599999999999966
 31
0.0
  0
LINE
  5
448
100
AcDbEntity
  8
0
  6
CONTINUOUS
 62
               7
100
AcDbLine
 10
0.5
 20
-12.099999999999966
 30
0.0
 11
0.5
 21
-10.599999999999966
 31
0.0
  0
LINE
  5
449
100
AcDbEntity
  8
0
  6
CONTINUOUS
 62
               7
100
AcDbLine
 10
4.0500000000000114
 20
-11.599999999999966
 30
0.0
 11
4.0500000000000114
 21
-9.5999999999999659
 31
0.0
  0
LINE
  5
44A
100
AcDbEntity
  8
0
  6
CONTINUOUS
 62
               7
100
AcDbLine
 10
4.0500000000000114
 20
-11.599999999999966
 30
0.0
 11
3.5500000000000114
 21
-12.099999999999966
 31
0.0
  0
ARC
  5
44B
100
AcDbEntity
  8
0
  6
CONTINUOUS
 62
               7
100
AcDbCircle
 10
-0.019504252191723
 20
-7.7456426961389298
 30
0.0
 40
4.3653794686807261
100
AcDbArc
 50
276.83471178066651
 51
298.00122980373817
  0
ARC
  5
44C
100
AcDbEntity
  8
0
  6
CONTINUOUS
 62
               7
100
AcDbCircle
 10
4.9717302995399564
 20
-5.2175398893984379
 30
0.0
 40
7.0277716396203269
100
AcDbArc
 50
245.25462085736197
 51
258.32841020147521
  0
LINE
  5
44D
100
AcDbEntity
  8
0
  6
CONTINUOUS
 62
               7
100
AcDbLine
 10
2.0300000000000296
 20
-11.599999999999966
 30
0.0
 11
2.0300000000000296
 21
-9.7917873751424622
 31
0.0
  0
LINE
  5
44E
100
AcDbEntity
  8
0
  6
CONTINUOUS
 62
               7
100
AcDbLine
 10
3.5500000000000114
 20
-12.099999999999966
 30
0.0
 11
0.5
 21
-12.099999999999966
 31
0.0
  0
LINE
  5
44F
100
AcDbEntity
  8
0
  6
CONTINUOUS
 62
               7
100
AcDbLine
 10
4.0500000000000114
 20
-9.5999999999999659
 30
0.0
 11
2.8000000000000114
 21
-9.5999999999999659
 31
0.0
  0
LINE
  5
450
100
AcDbEntity
  8
0
  6
CENTER
 62
               2
100
AcDbLine
 10
0.0
 20
0.0
 30
0.0
 11
10.071733430556492
 21
5.8149180073379512
 31
0.0
  0
ENDBLK
  5
451
100
AcDbEntity
  8
0
100
AcDbBlockEnd
  0
BLOCK
  5
452
100
AcDbEntity
  8
0
100
AcDbBlockBegin
  2
NCT20-10
 70
               0
 10
0.0
 20
0.0
 30
0.0
  3
NCT20-10
  1

  0
LINE
  5
453
100
AcDbEntity
  8
0
  6
CONTINUOUS
 62
               7
100
AcDbLine
 10
-11.699999988148079
 20
-0.4999999999999432
 30
0.0
 11
-11.699999988148079
 21
-20.499999999999943
 31
0.0
  0
LINE
  5
454
100
AcDbEntity
  8
0
  6
CONTINUOUS
 62
               7
100
AcDbLine
 10
-18.99999998814809
 20
-1.0916511509956877
 30
0.0
 11
-18.99999998814809
 21
-19.908348849004142
 31
0.0
  0
LINE
  5
455
100
AcDbEntity
  8
0
  6
CENTER
 62
               2
100
AcDbLine
 10
-15.399999988148068
 20
-1.6947729114489789
 30
0.0
 11
-15.399999988148068
 21
12.400000000000105
 31
0.0
  0
LINE
  5
456
100
AcDbEntity
  8
0
  6
CONTINUOUS
 62
               7
100
AcDbLine
 10
-17.799999988148102
 20
-17.399999999999977
 30
0.0
 11
-18.99999998814809
 21
-17.399999999999977
 31
0.0
  0
LINE
  5
457
100
AcDbEntity
  8
0
  6
CONTINUOUS
 62
               7
100
AcDbLine
 10
-17.799999988148102
 20
-20.499999999999943
 30
0.0
 11
-17.799999988148102
 21
-17.399999999999977
 31
0.0
  0
LINE
  5
458
100
AcDbEntity
  8
0
  6
CENTER
 62
               2
100
AcDbLine
 10
-17.195856974999174
 20
-18.999999999999943
 30
0.0
 11
-19.435449279208456
 21
-18.999999999999943
 31
0.0
  0
LINE
  5
459
100
AcDbEntity
  8
0
  6
CONTINUOUS
 62
               7
100
AcDbLine
 10
-12.699999988148079
 20
-4.2999999999999545
 30
0.0
 11
-12.699999988148079
 21
-5.4999999999999432
 31
0.0
  0
LINE
  5
45A
100
AcDbEntity
  8
0
  6
CONTINUOUS
 62
               7
100
AcDbLine
 10
-13.599999988148056
 20
-4.2999999999999545
 30
0.0
 11
-13.599999988148056
 21
-5.4999999999999432
 31
0.0
  0
LINE
  5
45B
100
AcDbEntity
  8
0
  6
CONTINUOUS
 62
               7
100
AcDbLine
 10
-12.699999988148079
 20
-4.3999999999999204
 30
0.0
 11
-13.549999988148102
 21
-4.3999999999999204
 31
0.0
  0
LINE
  5
45C
100
AcDbEntity
  8
0
  6
CONTINUOUS
 62
               7
100
AcDbLine
 10
-12.699999988148079
 20
-5.3999999999999204
 30
0.0
 11
-13.549999988148102
 21
-5.3999999999999204
 31
0.0
  0
LINE
  5
45D
100
AcDbEntity
  8
0
  6
CONTINUOUS
 62
               7
100
AcDbLine
 10
-13.549999988148102
 20
-4.3999999999999204
 30
0.0
 11
-13.549999988148102
 21
-5.3999999999999204
 31
0.0
  0
LINE
  5
45E
100
AcDbEntity
  8
0
  6
CONTINUOUS
 62
               7
100
AcDbLine
 10
-12.849999988148056
 20
-4.3999999999999204
 30
0.0
 11
-12.849999988148056
 21
-5.3999999999999204
 31
0.0
  0
LINE
  5
45F
100
AcDbEntity
  8
0
  6
CONTINUOUS
 62
               7
100
AcDbLine
 10
-12.699999988148079
 20
-5.4999999999999432
 30
0.0
 11
-13.599999988148056
 21
-5.4999999999999432
 31
0.0
  0
LINE
  5
460
100
AcDbEntity
  8
0
  6
CONTINUOUS
 62
               7
100
AcDbLine
 10
-12.699999988148079
 20
-4.2999999999999545
 30
0.0
 11
-13.599999988148056
 21
-4.2999999999999545
 31
0.0
  0
LINE
  5
461
100
AcDbEntity
  8
0
  6
CONTINUOUS
 62
               7
100
AcDbLine
 10
-12.699999988148079
 20
-15.499999999999943
 30
0.0
 11
-13.599999988148056
 21
-15.499999999999943
 31
0.0
  0
LINE
  5
462
100
AcDbEntity
  8
0
  6
CONTINUOUS
 62
               7
100
AcDbLine
 10
-12.699999988148079
 20
-16.699999999999932
 30
0.0
 11
-13.599999988148056
 21
-16.699999999999932
 31
0.0
  0
LINE
  5
463
100
AcDbEntity
  8
0
  6
CONTINUOUS
 62
               7
100
AcDbLine
 10
-12.849999988148056
 20
-15.599999999999909
 30
0.0
 11
-12.849999988148056
 21
-16.599999999999909
 31
0.0
  0
LINE
  5
464
100
AcDbEntity
  8
0
  6
CONTINUOUS
 62
               7
100
AcDbLine
 10
-13.549999988148102
 20
-15.599999999999909
 30
0.0
 11
-13.549999988148102
 21
-16.599999999999909
 31
0.0
  0
LINE
  5
465
100
AcDbEntity
  8
0
  6
CONTINUOUS
 62
               7
100
AcDbLine
 10
-12.699999988148079
 20
-16.599999999999909
 30
0.0
 11
-13.549999988148102
 21
-16.599999999999909
 31
0.0
  0
LINE
  5
466
100
AcDbEntity
  8
0
  6
CONTINUOUS
 62
               7
100
AcDbLine
 10
-12.699999988148079
 20
-15.599999999999909
 30
0.0
 11
-13.549999988148102
 21
-15.599999999999909
 31
0.0
  0
LINE
  5
467
100
AcDbEntity
  8
0
  6
CONTINUOUS
 62
               7
100
AcDbLine
 10
-13.599999988148056
 20
-15.499999999999943
 30
0.0
 11
-13.599999988148056
 21
-16.699999999999932
 31
0.0
  0
LINE
  5
468
100
AcDbEntity
  8
0
  6
CONTINUOUS
 62
               7
100
AcDbLine
 10
-12.699999988148079
 20
-15.499999999999943
 30
0.0
 11
-12.699999988148079
 21
-16.699999999999932
 31
0.0
  0
LINE
  5
469
100
AcDbEntity
  8
0
  6
CONTINUOUS
 62
               7
100
AcDbLine
 10
-15.399999988148068
 20
12.400000000000105
 30
0.0
 11
-15.399999988148068
 21
13.880000000000067
 31
0.0
  0
LINE
  5
46A
100
AcDbEntity
  8
0
  6
CONTINUOUS
 62
               7
100
AcDbLine
 10
-11.699999988148079
 20
-0.4999999999999432
 30
0.0
 11
-18.50436325589726
 21
-0.5916701894636276
 31
0.0
  0
LINE
  5
46B
100
AcDbEntity
  8
0
  6
CONTINUOUS
 62
               7
100
AcDbLine
 10
-11.699999988148079
 20
-20.499999999999943
 30
0.0
 11
-17.799999988148102
 21
-20.417819179587411
 31
0.0
  0
ARC
  5
46C
100
AcDbEntity
  8
0
  6
CONTINUOUS
 62
               7
100
AcDbCircle
 10
-18.49999998814809
 20
-19.908348849004142
 30
0.0
 40
0.5
100
AcDbArc
 50
179.99999999999963
 51
269.49999999999943
  0
ARC
  5
46D
100
AcDbEntity
  8
0
  6
CONTINUOUS
 62
               7
100
AcDbCircle
 10
-18.49999998814809
 20
-1.0916511509956877
 30
0.0
 40
0.5
100
AcDbArc
 50
90.499999999999744
 51
179.99999999999963
  0
ARC
  5
46E
100
AcDbEntity
  8
0
  6
CONTINUOUS
 62
               7
100
AcDbCircle
 10
-17.899999976296158
 20
-19.999999999999943
 30
0.0
 40
0.5
100
AcDbArc
 50
179.99999999999963
 51
269.99999999999937
  0
LINE
  5
46F
100
AcDbEntity
  8
0
  6
CONTINUOUS
 62
               7
100
AcDbLine
 10
-18.399999976296158
 20
-19.999999999999943
 30
0.0
 11
-18.399999976296158
 21
-17.999999999999943
 31
0.0
  0
ARC
  5
470
100
AcDbEntity
  8
0
  6
CONTINUOUS
 62
               7
100
AcDbCircle
 10
-17.899999976296158
 20
-17.999999999999943
 30
0.0
 40
0.5
100
AcDbArc
 50
89.999999999999815
 51
179.99999999999963
  0
LINE
  5
471
100
AcDbEntity
  8
0
  6
CONTINUOUS
 62
               7
100
AcDbLine
 10
-17.799999976296192
 20
-20.499999999999943
 30
0.0
 11
-17.899999976296158
 21
-20.499999999999943
 31
0.0
  0
LINE
  5
472
100
AcDbEntity
  8
0
  6
CONTINUOUS
 62
               7
100
AcDbLine
 10
-17.799999976296192
 20
-17.499999999999943
 30
0.0
 11
-17.899999976296158
 21
-17.499999999999943
 31
0.0
  0
LINE
  5
473
100
AcDbEntity
  8
0
  6
CONTINUOUS
 62
               7
100
AcDbLine
 10
-18.182320260158519
 20
-20.412668459322788
 30
0.0
 11
-18.50436325589726
 21
-20.408329810536259
 31
0.0
  0
LINE
  5
474
100
AcDbEntity
  8
0
  6
CONTINUOUS
 62
               7
100
AcDbLine
 10
-11.699999988148079
 20
-0.4999999999999432
 30
0.0
 11
-8.0
 21
-0.5322894107223419
 31
0.0
  0
LINE
  5
475
100
AcDbEntity
  8
0
  6
CONTINUOUS
 62
               7
100
AcDbLine
 10
-11.699999988148079
 20
-20.499999999999943
 30
0.0
 11
-8.0
 21
-20.467710589277601
 31
0.0
  0
LINE
  5
476
100
AcDbEntity
  8
0
  6
CONTINUOUS
 62
               7
100
AcDbLine
 10
-0.6000000000000227
 20
-17.5
 30
0.0
 11
-0.6000000000000227
 21
-10.5
 31
0.0
  0
LINE
  5
477
100
AcDbEntity
  8
0
  6
CONTINUOUS
 62
               7
100
AcDbLine
 10
0.6000000000000227
 20
-17.5
 30
0.0
 11
0.6000000000000227
 21
-10.5
 31
0.0
  0
LINE
  5
478
100
AcDbEntity
  8
0
  6
CONTINUOUS
 62
               7
100
AcDbLine
 10
2.0199999999999818
 20
-10.5
 30
0.0
 11
-2.0219999999999914
 21
-10.5
 31
0.0
  0
LINE
  5
479
100
AcDbEntity
  8
0
  6
CONTINUOUS
 62
               7
100
AcDbLine
 10
-2.0219999999999914
 20
-17.5
 30
0.0
 11
2.0199999999999818
 21
-17.5
 31
0.0
  0
ARC
  5
47A
100
AcDbEntity
  8
0
  6
CONTINUOUS
 62
               7
100
AcDbCircle
 10
0.0
 20
-14.0
 30
0.0
 40
4.0
100
AcDbArc
 50
301.02599610038487
 51
358.99183125293081
  0
ARC
  5
47B
100
AcDbEntity
  8
0
  6
CONTINUOUS
 62
               7
100
AcDbCircle
 10
0.0
 20
-14.0
 30
0.0
 40
4.0
100
AcDbArc
 50
241.04497562814004
 51
298.95502437185871
  0
ARC
  5
47C
100
AcDbEntity
  8
0
  6
CONTINUOUS
 62
               7
100
AcDbCircle
 10
0.0
 20
-14.0
 30
0.0
 40
4.0
100
AcDbArc
 50
181.05941658577635
 51
238.92275606090575
  0
ARC
  5
47D
100
AcDbEntity
  8
0
  6
CONTINUOUS
 62
               7
100
AcDbCircle
 10
0.0
 20
-14.0
 30
0.0
 40
4.0
100
AcDbArc
 50
121.07724393909305
 51
178.94058341422343
  0
ARC
  5
47E
100
AcDbEntity
  8
0
  6
CONTINUOUS
 62
               7
100
AcDbCircle
 10
0.0
 20
-14.0
 30
0.0
 40
4.0
100
AcDbArc
 50
61.044975628139497
 51
118.95502437186015
  0
ARC
  5
47F
100
AcDbEntity
  8
0
  6
CONTINUOUS
 62
               7
100
AcDbCircle
 10
0.0
 20
-14.0
 30
0.0
 40
4.0
100
AcDbArc
 50
1.0081687470679896
 51
58.974003899614786
  0
LINE
  5
480
100
AcDbEntity
  8
0
  6
CONTINUOUS
 62
               7
100
AcDbLine
 10
2.0199999999999818
 20
-17.5
 30
0.0
 11
4.0399999999999636
 21
-14.0
 31
0.0
  0
LINE
  5
481
100
AcDbEntity
  8
0
  6
CONTINUOUS
 62
               7
100
AcDbLine
 10
4.0399999999999636
 20
-14.0
 30
0.0
 11
2.0199999999999818
 21
-10.5
 31
0.0
  0
LINE
  5
482
100
AcDbEntity
  8
0
  6
CONTINUOUS
 62
               7
100
AcDbLine
 10
-2.0219999999999914
 20
-10.5
 30
0.0
 11
-4.04200000000003
 21
-14.0
 31
0.0
  0
LINE
  5
483
100
AcDbEntity
  8
0
  6
CONTINUOUS
 62
               7
100
AcDbLine
 10
-4.04200000000003
 20
-14.0
 30
0.0
 11
-2.0219999999999914
 21
-17.5
 31
0.0
  0
ARC
  5
484
100
AcDbEntity
  8
0
  6
CONTINUOUS
 62
               7
100
AcDbCircle
 10
-0.0013335632787062
 20
-13.999000000000024
 30
0.0
 40
3.5005717393672393
100
AcDbArc
 50
99.847107000931288
 51
260.15289299906789
  0
ARC
  5
485
100
AcDbEntity
  8
0
  6
CONTINUOUS
 62
               7
100
AcDbCircle
 10
-0.0013336121164684
 20
-13.999000000000024
 30
0.0
 40
3.5010288649282808
100
AcDbArc
 50
279.89011336923943
 51
80.109886630759732
  0
CIRCLE
  5
486
100
AcDbEntity
  8
0
  6
CONTINUOUS
 62
               7
100
AcDbCircle
 10
0.0
 20
-14.0
 30
0.0
 40
4.2000000000000002
  0
LINE
  5
487
100
AcDbEntity
  8
0
  6
CONTINUOUS
 62
               4
100
AcDbLine
 10
-3.5
 20
-26.0
 30
0.0
 11
-3.5
 21
-27.0
 31
0.0
  0
LINE
  5
488
100
AcDbEntity
  8
0
  6
CONTINUOUS
 62
               4
100
AcDbLine
 10
3.5
 20
-26.0
 30
0.0
 11
3.5
 21
-27.0
 31
0.0
  0
LINE
  5
489
100
AcDbEntity
  8
0
  6
CONTINUOUS
 62
               4
100
AcDbLine
 10
-3.5
 20
-27.0
 30
0.0
 11
3.5
 21
-27.0
 31
0.0
  0
LINE
  5
48A
100
AcDbEntity
  8
0
  6
CONTINUOUS
 62
               7
100
AcDbLine
 10
-8.0
 20
-0.0000000075924049
 30
0.0
 11
-8.0
 21
-21.000000007592405
 31
0.0
  0
LINE
  5
48B
100
AcDbEntity
  8
0
  6
CONTINUOUS
 62
               7
100
AcDbLine
 10
-8.0
 20
-21.0
 30
0.0
 11
-10.0
 21
-21.0
 31
0.0
  0
LINE
  5
48C
100
AcDbEntity
  8
0
  6
CONTINUOUS
 62
               7
100
AcDbLine
 10
10.0
 20
-25.699999999999989
 30
0.0
 11
-10.0
 21
-25.699999999999989
 31
0.0
  0
LINE
  5
48D
100
AcDbEntity
  8
0
  6
CONTINUOUS
 62
               7
100
AcDbLine
 10
10.0
 20
-25.699999999999989
 30
0.0
 11
9.6999999999999886
 21
-26.0
 31
0.0
  0
LINE
  5
48E
100
AcDbEntity
  8
0
  6
CONTINUOUS
 62
               7
100
AcDbLine
 10
-9.6999999999999886
 20
-26.0
 30
0.0
 11
9.6999999999999886
 21
-26.0
 31
0.0
  0
LINE
  5
48F
100
AcDbEntity
  8
0
  6
CONTINUOUS
 62
               7
100
AcDbLine
 10
-9.6999999999999886
 20
-26.0
 30
0.0
 11
-10.0
 21
-25.699999999999989
 31
0.0
  0
LINE
  5
490
100
AcDbEntity
  8
0
  6
CONTINUOUS
 62
               7
100
AcDbLine
 10
9.5
 20
0.0
 30
0.0
 11
-8.0
 21
0.0
 31
0.0
  0
LINE
  5
491
100
AcDbEntity
  8
0
  6
CONTINUOUS
 62
               7
100
AcDbLine
 10
10.0
 20
-0.5
 30
0.0
 11
10.0
 21
-4.5
 31
0.0
  0
LINE
  5
492
100
AcDbEntity
  8
0
  6
CONTINUOUS
 62
               7
100
AcDbLine
 10
9.5
 20
-5.0
 30
0.0
 11
-8.0
 21
-5.0
 31
0.0
  0
LINE
  5
493
100
AcDbEntity
  8
0
  6
CENTER
 62
               2
100
AcDbLine
 10
0.0
 20
2.0
 30
0.0
 11
0.0
 21
-28.699999999999989
 31
0.0
  0
LINE
  5
494
100
AcDbEntity
  8
0
  6
CENTER
 62
               2
100
AcDbLine
 10
5.582299500478257
 20
-14.0
 30
0.0
 11
-5.6689152938675988
 21
-14.0
 31
0.0
  0
LINE
  5
495
100
AcDbEntity
  8
0
  6
CONTINUOUS
 62
               7
100
AcDbLine
 10
9.5
 20
-5.0
 30
0.0
 11
10.0
 21
-5.5
 31
0.0
  0
LINE
  5
496
100
AcDbEntity
  8
0
  6
CONTINUOUS
 62
               7
100
AcDbLine
 10
10.0
 20
-4.5
 30
0.0
 11
9.5
 21
-5.0
 31
0.0
  0
LINE
  5
497
100
AcDbEntity
  8
0
  6
CONTINUOUS
 62
               7
100
AcDbLine
 10
10.0
 20
-5.5
 30
0.0
 11
10.0
 21
-25.699999999999989
 31
0.0
  0
LINE
  5
498
100
AcDbEntity
  8
0
  6
CONTINUOUS
 62
               7
100
AcDbLine
 10
-10.0
 20
-21.0
 30
0.0
 11
-10.0
 21
-25.699999999999989
 31
0.0
  0
LINE
  5
499
100
AcDbEntity
  8
0
  6
CONTINUOUS
 62
               7
100
AcDbLine
 10
10.0
 20
-0.5
 30
0.0
 11
9.5
 21
0.0
 31
0.0
  0
LINE
  5
49A
100
AcDbEntity
  8
0
  6
CONTINUOUS
 62
               7
100
AcDbLine
 10
10.0
 20
-0.5
 30
0.0
 11
-8.0
 21
-0.5
 31
0.0
  0
LINE
  5
49B
100
AcDbEntity
  8
0
  6
CONTINUOUS
 62
               7
100
AcDbLine
 10
10.0
 20
-5.5
 30
0.0
 11
-8.0
 21
-5.5
 31
0.0
  0
LINE
  5
49C
100
AcDbEntity
  8
0
  6
CONTINUOUS
 62
               7
100
AcDbLine
 10
10.0
 20
-4.5
 30
0.0
 11
-8.0
 21
-4.5
 31
0.0
  0
LINE
  5
49D
100
AcDbEntity
  8
0
  6
DASHED
 62
               2
100
AcDbLine
 10
5.0
 20
-0.5
 30
0.0
 11
5.5
 21
0.0
 31
0.0
  0
LINE
  5
49E
100
AcDbEntity
  8
0
  6
DASHED
 62
               2
100
AcDbLine
 10
5.0
 20
-0.5
 30
0.0
 11
5.0
 21
-3.5
 31
0.0
  0
LINE
  5
49F
100
AcDbEntity
  8
0
  6
DASHED
 62
               2
100
AcDbLine
 10
5.0
 20
-3.5
 30
0.0
 11
-5.0
 21
-3.5
 31
0.0
  0
LINE
  5
4A0
100
AcDbEntity
  8
0
  6
DASHED
 62
               2
100
AcDbLine
 10
-5.0
 20
-0.5
 30
0.0
 11
-5.0
 21
-3.5
 31
0.0
  0
LINE
  5
4A1
100
AcDbEntity
  8
0
  6
DASHED
 62
               2
100
AcDbLine
 10
-5.5
 20
0.0
 30
0.0
 11
-5.0
 21
-0.5
 31
0.0
  0
LINE
  5
4A2
100
AcDbEntity
  8
0
  6
DASHED
 62
               2
100
AcDbLine
 10
2.1000000000000227
 20
-3.5
 30
0.0
 11
2.1000000000000227
 21
-7.4888067257199395
 31
0.0
  0
LINE
  5
4A3
100
AcDbEntity
  8
0
  6
DASHED
 62
               2
100
AcDbLine
 10
-2.1000000000000227
 20
-3.5
 30
0.0
 11
-2.1000000000000227
 21
-7.4888067257199395
 31
0.0
  0
LINE
  5
4A4
100
AcDbEntity
  8
0
  6
DASHED
 62
               2
100
AcDbLine
 10
2.5
 20
-3.5
 30
0.0
 11
2.5
 21
-6.7894597256052407
 31
0.0
  0
LINE
  5
4A5
100
AcDbEntity
  8
0
  6
DASHED
 62
               2
100
AcDbLine
 10
-2.5
 20
-3.5
 30
0.0
 11
-2.5
 21
-6.7894597256052407
 31
0.0
  0
LINE
  5
4A6
100
AcDbEntity
  8
0
  6
CONTINUOUS
 62
               7
100
AcDbLine
 10
-12.399999988148068
 20
-0.0999999999999091
 30
0.0
 11
-18.399999988148068
 21
-0.0999999999999091
 31
0.0
  0
LINE
  5
4A7
100
AcDbEntity
  8
0
  6
CONTINUOUS
 62
               7
100
AcDbLine
 10
-13.399999988148068
 20
6.9000000000000909
 30
0.0
 11
-17.399999988148068
 21
6.9000000000000909
 31
0.0
  0
LINE
  5
4A8
100
AcDbEntity
  8
0
  6
CONTINUOUS
 62
               7
100
AcDbLine
 10
-17.399999988148068
 20
6.9000000000000909
 30
0.0
 11
-17.685714273862402
 21
4.9000000000000909
 31
0.0
  0
LINE
  5
4A9
100
AcDbEntity
  8
0
  6
CONTINUOUS
 62
               7
100
AcDbLine
 10
-13.399999988148068
 20
6.9000000000000909
 30
0.0
 11
-13.114285702433847
 21
4.9000000000000909
 31
0.0
  0
LINE
  5
4AA
100
AcDbEntity
  8
0
  6
CONTINUOUS
 62
               7
100
AcDbLine
 10
-13.114285702433847
 20
4.9000000000000909
 30
0.0
 11
-17.685714273862402
 21
4.9000000000000909
 31
0.0
  0
LINE
  5
4AB
100
AcDbEntity
  8
0
  6
CONTINUOUS
 62
               7
100
AcDbLine
 10
-12.971428559576736
 20
3.9000000000000909
 30
0.0
 11
-17.828571416719512
 21
3.9000000000000909
 31
0.0
  0
LINE
  5
4AC
100
AcDbEntity
  8
0
  6
CONTINUOUS
 62
               7
100
AcDbLine
 10
-12.757142845290957
 20
2.4000000000000909
 30
0.0
 11
-18.042857131005292
 21
2.4000000000000909
 31
0.0
  0
LINE
  5
4AD
100
AcDbEntity
  8
0
  6
CONTINUOUS
 62
               7
100
AcDbLine
 10
-12.614285702433847
 20
1.4000000000000909
 30
0.0
 11
-18.185714273862402
 21
1.4000000000000909
 31
0.0
  0
LINE
  5
4AE
100
AcDbEntity
  8
0
  6
CONTINUOUS
 62
               7
100
AcDbLine
 10
-17.828571416719512
 20
3.9000000000000909
 30
0.0
 11
-18.042857131005292
 21
2.4000000000000909
 31
0.0
  0
LINE
  5
4AF
100
AcDbEntity
  8
0
  6
CONTINUOUS
 62
               7
100
AcDbLine
 10
-18.185714273862402
 20
1.4000000000000909
 30
0.0
 11
-18.399999988148068
 21
-0.0999999999999091
 31
0.0
  0
LINE
  5
4B0
100
AcDbEntity
  8
0
  6
CONTINUOUS
 62
               7
100
AcDbLine
 10
-12.971428559576736
 20
3.9000000000000909
 30
0.0
 11
-12.757142845290957
 21
2.4000000000000909
 31
0.0
  0
LINE
  5
4B1
100
AcDbEntity
  8
0
  6
CONTINUOUS
 62
               7
100
AcDbLine
 10
-12.614285702433847
 20
1.4000000000000909
 30
0.0
 11
-12.399999988148068
 21
-0.0999999999999091
 31
0.0
  0
LINE
  5
4B2
100
AcDbEntity
  8
0
  6
CONTINUOUS
 62
               7
100
AcDbLine
 10
-17.149999988148068
 20
4.9000000000000909
 30
0.0
 11
-17.149999988148068
 21
3.9000000000000909
 31
0.0
  0
LINE
  5
4B3
100
AcDbEntity
  8
0
  6
CONTINUOUS
 62
               7
100
AcDbLine
 10
-13.649999988148068
 20
4.9000000000000909
 30
0.0
 11
-13.649999988148068
 21
3.9000000000000909
 31
0.0
  0
LINE
  5
4B4
100
AcDbEntity
  8
0
  6
CONTINUOUS
 62
               7
100
AcDbLine
 10
-17.149999988148068
 20
2.4000000000000909
 30
0.0
 11
-17.149999988148068
 21
1.4000000000000909
 31
0.0
  0
LINE
  5
4B5
100
AcDbEntity
  8
0
  6
CONTINUOUS
 62
               7
100
AcDbLine
 10
-13.649999988148068
 20
2.4000000000000909
 30
0.0
 11
-13.649999988148068
 21
1.4000000000000909
 31
0.0
  0
LINE
  5
4B6
100
AcDbEntity
  8
0
  6
CONTINUOUS
 62
               7
100
AcDbLine
 10
-12.399999988148068
 20
-0.0999999999999091
 30
0.0
 11
-12.399999988148068
 21
-0.4999999999999432
 31
0.0
  0
LINE
  5
4B7
100
AcDbEntity
  8
0
  6
CONTINUOUS
 62
               7
100
AcDbLine
 10
-18.399999988148068
 20
-0.0999999999999091
 30
0.0
 11
-18.399999988148068
 21
-0.5902641797973161
 31
0.0
  0
LINE
  5
4B8
100
AcDbEntity
  8
0
  6
PHANTOM
 62
               2
100
AcDbLine
 10
-13.899999988682964
 20
13.072094392707541
 30
0.0
 11
-16.900000018485287
 21
14.804145213892653
 31
0.0
  0
LINE
  5
4B9
100
AcDbEntity
  8
0
  6
CONTINUOUS
 62
               7
100
AcDbLine
 10
-14.49999998814809
 20
12.400000000000105
 30
0.0
 11
-14.49999998814809
 21
13.360000000000085
 31
0.0
  0
LINE
  5
4BA
100
AcDbEntity
  8
0
  6
CONTINUOUS
 62
               7
100
AcDbLine
 10
-16.299999988148159
 20
12.400000000000105
 30
0.0
 11
-16.299999988148159
 21
14.400000000000048
 31
0.0
  0
ARC
  5
4BB
100
AcDbEntity
  8
0
  6
CONTINUOUS
 62
               7
100
AcDbCircle
 10
-16.949999988148136
 20
20.964381095037211
 30
0.0
 40
5.0
100
AcDbArc
 50
330.00000000000006
 51
0.0
  0
ARC
  5
4BC
100
AcDbEntity
  8
0
  6
CONTINUOUS
 62
               7
100
AcDbCircle
 10
-17.74999998814809
 20
21.17874044898214
 30
0.0
 40
5.0
100
AcDbArc
 50
330.00000000000006
 51
0.0
  0
ARC
  5
4BD
100
AcDbEntity
  8
0
  6
CONTINUOUS
 62
               7
100
AcDbCircle
 10
-13.74999998814809
 20
20.964381095037211
 30
0.0
 40
5.0
100
AcDbArc
 50
179.99999999999963
 51
209.99999999999955
  0
ARC
  5
4BE
100
AcDbEntity
  8
0
  6
CONTINUOUS
 62
               7
100
AcDbCircle
 10
-12.949999988148136
 20
21.17874044898214
 30
0.0
 40
5.0
100
AcDbArc
 50
179.99999999999963
 51
209.99999999999955
  0
LINE
  5
4BF
100
AcDbEntity
  8
0
  6
CONTINUOUS
 62
               7
100
AcDbLine
 10
-15.032050795716998
 20
15.886366542663623
 30
0.0
 11
-13.419872969225878
 21
18.67874044898214
 31
0.0
  0
LINE
  5
4C0
100
AcDbEntity
  8
0
  6
CONTINUOUS
 62
               7
100
AcDbLine
 10
-14.232050795717043
 20
15.672007188718752
 30
0.0
 11
-12.619872969225923
 21
18.464381095037211
 31
0.0
  0
LINE
  5
4C1
100
AcDbEntity
  8
0
  6
CONTINUOUS
 62
               7
100
AcDbLine
 10
-15.667949180579228
 20
15.886366542663623
 30
0.0
 11
-17.280127007070348
 21
18.67874044898214
 31
0.0
  0
LINE
  5
4C2
100
AcDbEntity
  8
0
  6
CONTINUOUS
 62
               7
100
AcDbLine
 10
-16.467949180579183
 20
15.672007188718752
 30
0.0
 11
-18.080127007070303
 21
18.464381095037211
 31
0.0
  0
LINE
  5
4C3
100
AcDbEntity
  8
0
  6
CONTINUOUS
 62
               7
100
AcDbLine
 10
-12.74999998814809
 20
24.508876136611107
 30
0.0
 11
-12.74999998814809
 21
21.17874044898214
 31
0.0
  0
LINE
  5
4C4
100
AcDbEntity
  8
0
  6
CONTINUOUS
 62
               7
100
AcDbLine
 10
-11.949999988148136
 20
24.508876136611107
 30
0.0
 11
-11.949999988148136
 21
20.964381095037211
 31
0.0
  0
LINE
  5
4C5
100
AcDbEntity
  8
0
  6
CONTINUOUS
 62
               7
100
AcDbLine
 10
-18.74999998814809
 20
24.508876136611107
 30
0.0
 11
-18.74999998814809
 21
20.964381095037211
 31
0.0
  0
LINE
  5
4C6
100
AcDbEntity
  8
0
  6
CONTINUOUS
 62
               7
100
AcDbLine
 10
-17.949999988148136
 20
24.508876136611107
 30
0.0
 11
-17.949999988148136
 21
21.17874044898214
 31
0.0
  0
LINE
  5
4C7
100
AcDbEntity
  8
0
  6
CONTINUOUS
 62
               7
100
AcDbLine
 10
-14.49999998814809
 20
14.284145143627157
 30
0.0
 11
-14.49999998814809
 21
14.672007188718752
 31
0.0
  0
LINE
  5
4C8
100
AcDbEntity
  8
0
  6
CONTINUOUS
 62
               7
100
AcDbLine
 10
-15.299999988148159
 20
14.746025358636203
 30
0.0
 11
-15.299999988148159
 21
14.886366542663623
 31
0.0
  0
LINE
  5
4C9
100
AcDbEntity
  8
0
  6
CONTINUOUS
 62
               7
100
AcDbLine
 10
-15.399999988148068
 20
14.803760385512319
 30
0.0
 11
-15.399999988148068
 21
14.886366542663623
 31
0.0
  0
LINE
  5
4CA
100
AcDbEntity
  8
0
  6
CONTINUOUS
 62
               7
100
AcDbLine
 10
-14.949999988148136
 20
24.508876136611107
 30
0.0
 11
-14.949999988148136
 21
16.02848271017497
 31
0.0
  0
LINE
  5
4CB
100
AcDbEntity
  8
0
  6
CONTINUOUS
 62
               7
100
AcDbLine
 10
-15.74999998814809
 20
24.508876136611107
 30
0.0
 11
-15.74999998814809
 21
16.028482710175027
 31
0.0
  0
ARC
  5
4CC
100
AcDbEntity
  8
0
  6
CONTINUOUS
 62
               7
100
AcDbCircle
 10
-12.49999998814809
 20
14.672007188718752
 30
0.0
 40
2.0
100
AcDbArc
 50
149.99999999999966
 51
179.99999999999963
  0
ARC
  5
4CD
100
AcDbEntity
  8
0
  6
CONTINUOUS
 62
               7
100
AcDbCircle
 10
-13.299999988148159
 20
14.886366542663623
 30
0.0
 40
2.0
100
AcDbArc
 50
149.99999999999966
 51
179.99999999999963
  0
ARC
  5
4CE
100
AcDbEntity
  8
0
  6
CONTINUOUS
 62
               7
100
AcDbCircle
 10
-17.399999988148068
 20
14.886366542663623
 30
0.0
 40
2.0
100
AcDbArc
 50
0.0
 51
29.999999999999954
  0
ARC
  5
4CF
100
AcDbEntity
  8
0
  6
CONTINUOUS
 62
               7
100
AcDbCircle
 10
-18.199999988148136
 20
14.672007188718752
 30
0.0
 40
2.0
100
AcDbArc
 50
19.204888898171518
 51
29.999999999999996
  0
LINE
  5
4D0
100
AcDbEntity
  8
0
  6
PHANTOM
 62
               2
100
AcDbLine
 10
-13.849999988682896
 20
13.908867469241059
 30
0.0
 11
-16.849999988682896
 21
15.64091827552501
 31
0.0
  0
LINE
  5
4D1
100
AcDbEntity
  8
0
  6
PHANTOM
 62
               2
100
AcDbLine
 10
-13.499999982722386
 20
9.014914688399017
 30
0.0
 11
-17.300000024445751
 21
11.208845731547072
 31
0.0
  0
LINE
  5
4D2
100
AcDbEntity
  8
0
  6
CONTINUOUS
 62
               7
100
AcDbLine
 10
-14.099999988148113
 20
9.361324850314702
 30
0.0
 11
-14.099999988148113
 21
12.400000000000105
 31
0.0
  0
LINE
  5
4D3
100
AcDbEntity
  8
0
  6
CONTINUOUS
 62
               7
100
AcDbLine
 10
-16.699999988148136
 20
6.9000000000000909
 30
0.0
 11
-16.699999988148136
 21
9.9386751509853752
 31
0.0
  0
LINE
  5
4D4
100
AcDbEntity
  8
0
  6
CONTINUOUS
 62
               7
100
AcDbLine
 10
-14.099999988148113
 20
6.9000000000000909
 30
0.0
 11
-14.099999988148113
 21
8.437564451092328
 31
0.0
  0
LINE
  5
4D5
100
AcDbEntity
  8
0
  6
PHANTOM
 62
               2
100
AcDbLine
 10
-13.500000012524708
 20
8.091154289176643
 30
0.0
 11
-17.300000024445751
 21
10.285085317423523
 31
0.0
  0
LINE
  5
4D6
100
AcDbEntity
  8
0
  6
CONTINUOUS
 62
               7
100
AcDbLine
 10
-16.699999988148136
 20
10.862435550207763
 30
0.0
 11
-16.699999988148136
 21
12.400000000000105
 31
0.0
  0
LINE
  5
4D7
100
AcDbEntity
  8
0
  6
CONTINUOUS
 62
               7
100
AcDbLine
 10
-14.099999988148113
 20
12.400000000000105
 30
0.0
 11
-16.699999988148136
 21
12.400000000000105
 31
0.0
  0
LINE
  5
4D8
100
AcDbEntity
  8
0
  6
CONTINUOUS
 62
               7
100
AcDbLine
 10
-18.74999998814809
 20
25.987051431259673
 30
0.0
 11
-18.74999998814809
 21
26.997963791222801
 31
0.0
  0
LINE
  5
4D9
100
AcDbEntity
  8
0
  6
CONTINUOUS
 62
               7
100
AcDbLine
 10
-17.949999988148136
 20
25.959114823660414
 30
0.0
 11
-17.949999988148136
 21
26.997963791222801
 31
0.0
  0
LINE
  5
4DA
100
AcDbEntity
  8
0
  6
CONTINUOUS
 62
               7
100
AcDbLine
 10
-17.949999988148136
 20
29.797963801941435
 30
0.0
 11
-17.949999988148136
 21
30.547963791222813
 31
0.0
  0
LINE
  5
4DB
100
AcDbEntity
  8
0
  6
CONTINUOUS
 62
               7
100
AcDbLine
 10
-18.74999998814809
 20
29.797963801941435
 30
0.0
 11
-18.74999998814809
 21
30.547963791222813
 31
0.0
  0
LINE
  5
4DC
100
AcDbEntity
  8
0
  6
CONTINUOUS
 62
               7
100
AcDbLine
 10
-15.74999998814809
 20
25.987051431259673
 30
0.0
 11
-15.74999998814809
 21
26.997963791222801
 31
0.0
  0
LINE
  5
4DD
100
AcDbEntity
  8
0
  6
CONTINUOUS
 62
               7
100
AcDbLine
 10
-14.949999988148136
 20
25.959114823660414
 30
0.0
 11
-14.949999988148136
 21
26.997963791222801
 31
0.0
  0
LINE
  5
4DE
100
AcDbEntity
  8
0
  6
CONTINUOUS
 62
               7
100
AcDbLine
 10
-14.949999988148136
 20
29.797963801941435
 30
0.0
 11
-14.949999988148136
 21
30.547963791222813
 31
0.0
  0
LINE
  5
4DF
100
AcDbEntity
  8
0
  6
CONTINUOUS
 62
               7
100
AcDbLine
 10
-15.74999998814809
 20
29.797963801941435
 30
0.0
 11
-15.74999998814809
 21
30.547963791222813
 31
0.0
  0
LINE
  5
4E0
100
AcDbEntity
  8
0
  6
CONTINUOUS
 62
               7
100
AcDbLine
 10
-12.74999998814809
 20
29.797963801941435
 30
0.0
 11
-12.74999998814809
 21
30.547963791222813
 31
0.0
  0
LINE
  5
4E1
100
AcDbEntity
  8
0
  6
CONTINUOUS
 62
               7
100
AcDbLine
 10
-11.949999988148136
 20
29.797963801941435
 30
0.0
 11
-11.949999988148136
 21
30.547963791222813
 31
0.0
  0
LINE
  5
4E2
100
AcDbEntity
  8
0
  6
CONTINUOUS
 62
               7
100
AcDbLine
 10
-12.74999998814809
 20
25.987051431259673
 30
0.0
 11
-12.74999998814809
 21
26.997963791222801
 31
0.0
  0
LINE
  5
4E3
100
AcDbEntity
  8
0
  6
CONTINUOUS
 62
               7
100
AcDbLine
 10
-11.949999988148136
 20
25.959114823660414
 30
0.0
 11
-11.949999988148136
 21
26.997963791222801
 31
0.0
  0
LINE
  5
4E4
100
AcDbEntity
  8
0
  6
CONTINUOUS
 62
               7
100
AcDbLine
 10
-12.874999978089875
 20
36.997963791222801
 30
0.0
 11
-12.874999978089875
 21
36.797963791222813
 31
0.0
  0
LINE
  5
4E5
100
AcDbEntity
  8
0
  6
CONTINUOUS
 62
               7
100
AcDbLine
 10
-13.174999991128345
 20
36.997963791222801
 30
0.0
 11
-12.874999978089875
 21
36.997963791222801
 31
0.0
  0
LINE
  5
4E6
100
AcDbEntity
  8
0
  6
CONTINUOUS
 62
               7
100
AcDbLine
 10
-11.526520253133128
 20
33.141740747280906
 30
0.0
 11
-11.842898512593081
 21
35.352218551709385
 31
0.0
  0
LINE
  5
4E7
100
AcDbEntity
  8
0
  6
CONTINUOUS
 62
               7
100
AcDbLine
 10
-11.627916200765242
 20
33.144373928637734
 30
0.0
 11
-11.917296681947107
 21
35.166223128324376
 31
0.0
  0
LINE
  5
4E8
100
AcDbEntity
  8
0
  6
CONTINUOUS
 62
               7
100
AcDbLine
 10
-11.627916196057697
 20
33.144373958440056
 30
0.0
 11
-11.827916199037929
 21
32.797963773341408
 31
0.0
  0
LINE
  5
4E9
100
AcDbEntity
  8
0
  6
CONTINUOUS
 62
               7
100
AcDbLine
 10
-11.526520253133128
 20
33.141740747280906
 30
0.0
 11
-11.724999971254363
 21
32.797963791222813
 31
0.0
  0
LINE
  5
4EA
100
AcDbEntity
  8
0
  6
CONTINUOUS
 62
               7
100
AcDbLine
 10
-11.724999978089784
 20
35.646964887967627
 30
0.0
 11
-12.024999978089852
 21
34.896964887967627
 31
0.0
  0
LINE
  5
4EB
100
AcDbEntity
  8
0
  6
CONTINUOUS
 62
               7
100
AcDbLine
 10
-11.824999978089807
 20
35.666223128324376
 30
0.0
 11
-12.024999978089852
 21
35.166223128324376
 31
0.0
  0
LINE
  5
4EC
100
AcDbEntity
  8
0
  6
CONTINUOUS
 62
               7
100
AcDbLine
 10
-11.824999978089807
 20
36.29796380314373
 30
0.0
 11
-11.824999978089807
 21
35.666223128324376
 31
0.0
  0
LINE
  5
4ED
100
AcDbEntity
  8
0
  6
CONTINUOUS
 62
               7
100
AcDbLine
 10
-11.724999978089784
 20
36.29796380314373
 30
0.0
 11
-11.724999978089784
 21
35.646964887967627
 31
0.0
  0
LINE
  5
4EE
100
AcDbEntity
  8
0
  6
CONTINUOUS
 62
               7
100
AcDbLine
 10
-13.074999978089807
 20
35.166223128324376
 30
0.0
 11
-13.074999978089807
 21
33.517579099775404
 31
0.0
  0
LINE
  5
4EF
100
AcDbEntity
  8
0
  6
CONTINUOUS
 62
               7
100
AcDbLine
 10
-13.074999982187649
 20
33.517579113574257
 30
0.0
 11
-12.974999958345791
 21
33.34437397632145
 31
0.0
  0
LINE
  5
4F0
100
AcDbEntity
  8
0
  6
CONTINUOUS
 62
               7
100
AcDbLine
 10
-13.174999991128345
 20
33.490784173341027
 30
0.0
 11
-12.974999958345791
 21
33.144373958440056
 31
0.0
  0
LINE
  5
4F1
100
AcDbEntity
  8
0
  6
CONTINUOUS
 62
               7
100
AcDbLine
 10
-12.974999988148113
 20
33.144373958440056
 30
0.0
 11
-13.174999978089829
 21
32.797963814347739
 31
0.0
  0
LINE
  5
4F2
100
AcDbEntity
  8
0
  6
CONTINUOUS
 62
               7
100
AcDbLine
 10
-13.174999978089829
 20
32.797963791222813
 30
0.0
 11
-13.174999978089829
 21
26.997963791222801
 31
0.0
  0
ARC
  5
4F3
100
AcDbEntity
  8
0
  6
CONTINUOUS
 62
               7
100
AcDbCircle
 10
-13.074999978089807
 20
35.066223128324353
 30
0.0
 40
0.1
100
AcDbArc
 50
0.0
 51
89.999999999999815
  0
ARC
  5
4F4
100
AcDbEntity
  8
0
  6
CONTINUOUS
 62
               7
100
AcDbCircle
 10
-13.074999978089807
 20
32.897963791222779
 30
0.0
 40
0.1
100
AcDbArc
 50
270.00000000000023
 51
0.0
  0
LINE
  5
4F5
100
AcDbEntity
  8
0
  6
CONTINUOUS
 62
               7
100
AcDbLine
 10
-12.974999978089784
 20
35.066223119826546
 30
0.0
 11
-12.974999978089784
 21
32.897963797183266
 31
0.0
  0
LINE
  5
4F6
100
AcDbEntity
  8
0
  6
CONTINUOUS
 62
               7
100
AcDbLine
 10
-13.174999991128345
 20
32.797963791222813
 30
0.0
 11
-13.074999967286487
 21
32.797963791222813
 31
0.0
  0
LINE
  5
4F7
100
AcDbEntity
  8
0
  6
CONTINUOUS
 62
               7
100
AcDbLine
 10
-13.174999991128345
 20
35.166223128324376
 30
0.0
 11
-13.074999967286487
 21
35.166223128324376
 31
0.0
  0
ARC
  5
4F8
100
AcDbEntity
  8
0
  6
CONTINUOUS
 62
               7
100
AcDbCircle
 10
-13.074999978089807
 20
35.766223128324341
 30
0.0
 40
0.1
100
AcDbArc
 50
270.00000000000023
 51
0.0
  0
LINE
  5
4F9
100
AcDbEntity
  8
0
  6
CONTINUOUS
 62
               7
100
AcDbLine
 10
-13.174999991128345
 20
35.666223128324376
 30
0.0
 11
-13.074999967286487
 21
35.666223128324376
 31
0.0
  0
ARC
  5
4FA
100
AcDbEntity
  8
0
  6
CONTINUOUS
 62
               7
100
AcDbCircle
 10
-13.074999978089807
 20
36.197963791222847
 30
0.0
 40
0.1
100
AcDbArc
 50
0.0
 51
89.999999999999815
  0
LINE
  5
4FB
100
AcDbEntity
  8
0
  6
CONTINUOUS
 62
               7
100
AcDbLine
 10
-12.974999978089784
 20
36.197963779301872
 30
0.0
 11
-12.974999978089784
 21
35.766223128324341
 31
0.0
  0
LINE
  5
4FC
100
AcDbEntity
  8
0
  6
CONTINUOUS
 62
               7
100
AcDbLine
 10
-13.072204582161646
 20
36.29796380314373
 30
0.0
 11
-13.072204582161646
 21
36.097963791222824
 31
0.0
  0
LINE
  5
4FD
100
AcDbEntity
  8
0
  6
CONTINUOUS
 62
               7
100
AcDbLine
 10
-13.174999978089829
 20
35.666223128324376
 30
0.0
 11
-13.174999978089829
 21
33.490784158312366
 31
0.0
  0
LINE
  5
4FE
100
AcDbEntity
  8
0
  6
CONTINUOUS
 62
               7
100
AcDbLine
 10
-13.674999978089829
 20
33.997963791222801
 30
0.0
 11
-13.577719356621344
 21
33.974801738492218
 31
0.0
  0
LINE
  5
4FF
100
AcDbEntity
  8
0
  6
CONTINUOUS
 62
               7
100
AcDbLine
 10
-13.072204582161646
 20
36.097963791222824
 30
0.0
 11
-13.577719356621344
 21
33.974801738492218
 31
0.0
  0
LINE
  5
500
100
AcDbEntity
  8
0
  6
CONTINUOUS
 62
               7
100
AcDbLine
 10
-13.174999978089829
 20
36.097963791222824
 30
0.0
 11
-13.674999978089829
 21
33.997963791222801
 31
0.0
  0
LINE
  5
501
100
AcDbEntity
  8
0
  6
CONTINUOUS
 62
               7
100
AcDbLine
 10
-13.174999991128345
 20
36.297963791222813
 30
0.0
 11
-13.074999967286487
 21
36.297963791222813
 31
0.0
  0
LINE
  5
502
100
AcDbEntity
  8
0
  6
CONTINUOUS
 62
               7
100
AcDbLine
 10
-11.524999978089852
 20
32.797963791222813
 30
0.0
 11
-11.524999978089852
 21
30.79796380314373
 31
0.0
  0
ARC
  5
503
100
AcDbEntity
  8
0
  6
CONTINUOUS
 62
               7
100
AcDbCircle
 10
-11.774999978089852
 20
33.047963791222813
 30
0.0
 40
0.25
100
AcDbArc
 50
179.99999999999963
 51
269.99999999999937
  0
ARC
  5
504
100
AcDbEntity
  8
0
  6
CONTINUOUS
 62
               7
100
AcDbCircle
 10
-11.774999978089852
 20
36.047963791222813
 30
0.0
 40
0.25
100
AcDbArc
 50
89.999999999999815
 51
179.99999999999963
  0
LINE
  5
505
100
AcDbEntity
  8
0
  6
CONTINUOUS
 62
               7
100
AcDbLine
 10
-12.024999978089852
 20
36.04796380314373
 30
0.0
 11
-12.024999978089852
 21
33.047963791222813
 31
0.0
  0
LINE
  5
506
100
AcDbEntity
  8
0
  6
CONTINUOUS
 62
               7
100
AcDbLine
 10
-11.774999985167881
 20
36.297963791222813
 30
0.0
 11
-11.524999978089852
 21
36.297963791222813
 31
0.0
  0
LINE
  5
507
100
AcDbEntity
  8
0
  6
CONTINUOUS
 62
               7
100
AcDbLine
 10
-11.774999985167881
 20
32.797963791222813
 30
0.0
 11
-11.524999978089852
 21
32.797963791222813
 31
0.0
  0
ARC
  5
508
100
AcDbEntity
  8
0
  6
CONTINUOUS
 62
               7
100
AcDbCircle
 10
-12.64919364024496
 20
30.297963791222813
 30
0.0
 40
0.25
100
AcDbArc
 50
89.999999999999815
 51
194.99999339411929
  0
LINE
  5
509
100
AcDbEntity
  8
0
  6
CONTINUOUS
 62
               7
100
AcDbLine
 10
-12.890675106713672
 20
30.233259057135811
 30
0.0
 11
-12.774038100311657
 21
29.797963832946053
 31
0.0
  0
ARC
  5
50A
100
AcDbEntity
  8
0
  6
CONTINUOUS
 62
               7
100
AcDbCircle
 10
-11.774999978089852
 20
30.797963791222813
 30
0.0
 40
0.25
100
AcDbArc
 50
269.99999999999937
 51
0.0
  0
LINE
  5
50B
100
AcDbEntity
  8
0
  6
CONTINUOUS
 62
               7
100
AcDbLine
 10
-12.649193653533359
 20
30.547963791222813
 30
0.0
 11
-11.774999985167881
 21
30.547963791222813
 31
0.0
  0
LINE
  5
50C
100
AcDbEntity
  8
0
  6
CONTINUOUS
 62
               7
100
AcDbLine
 10
-11.524999978089852
 20
36.79796380314373
 30
0.0
 11
-11.524999978089852
 21
36.29796380314373
 31
0.0
  0
ARC
  5
50D
100
AcDbEntity
  8
0
  6
CONTINUOUS
 62
               7
100
AcDbCircle
 10
-11.824999978089807
 20
29.547963791222813
 30
0.0
 40
0.25
100
AcDbArc
 50
0.0
 51
89.999999999999815
  0
ARC
  5
50E
100
AcDbEntity
  8
0
  6
CONTINUOUS
 62
               7
100
AcDbCircle
 10
-11.824999978089807
 20
27.247963791222801
 30
0.0
 40
0.25
100
AcDbArc
 50
270.00000000000023
 51
0.0
  0
LINE
  5
50F
100
AcDbEntity
  8
0
  6
CONTINUOUS
 62
               7
100
AcDbLine
 10
-11.574999978089807
 20
29.54796380314373
 30
0.0
 11
-11.574999978089807
 21
27.247963791222801
 31
0.0
  0
LINE
  5
510
100
AcDbEntity
  8
0
  6
CONTINUOUS
 62
               7
100
AcDbLine
 10
-13.174999978089829
 20
36.997963791222801
 30
0.0
 11
-13.174999978089829
 21
36.097963791222824
 31
0.0
  0
LINE
  5
511
100
AcDbEntity
  8
0
  6
CONTINUOUS
 62
               7
100
AcDbLine
 10
-12.974999973246952
 20
26.997963791222801
 30
0.0
 11
-11.824999978089807
 21
26.997963791222801
 31
0.0
  0
LINE
  5
512
100
AcDbEntity
  8
0
  6
CONTINUOUS
 62
               7
100
AcDbLine
 10
-12.774038085410496
 20
29.797963791222813
 30
0.0
 11
-11.824999967286487
 21
29.797963791222813
 31
0.0
  0
LINE
  5
513
100
AcDbEntity
  8
0
  6
CONTINUOUS
 62
               7
100
AcDbLine
 10
-11.76345060176601
 20
25.247963791222801
 30
0.0
 11
-11.524999978089852
 21
25.385633320357456
 31
0.0
  0
LINE
  5
514
100
AcDbEntity
  8
0
  6
CONTINUOUS
 62
               7
100
AcDbLine
 10
-13.062488892743488
 20
25.997963790291479
 30
0.0
 11
-11.524999978089852
 21
25.944273494963582
 31
0.0
  0
LINE
  5
515
100
AcDbEntity
  8
0
  6
CONTINUOUS
 62
               7
100
AcDbLine
 10
-13.26248864240398
 20
24.490979638391664
 30
0.0
 11
-11.524999978089852
 21
24.551654079726191
 31
0.0
  0
LINE
  5
516
100
AcDbEntity
  8
0
  6
CONTINUOUS
 62
               7
100
AcDbLine
 10
-13.062488684127231
 20
25.997963806123963
 30
0.0
 11
-11.524999978089852
 21
25.110294284914985
 31
0.0
  0
LINE
  5
517
100
AcDbEntity
  8
0
  6
CONTINUOUS
 62
               7
100
AcDbLine
 10
-13.174999978089829
 20
26.997963821025124
 30
0.0
 11
-13.262488640541335
 21
25.997963821025124
 31
0.0
  0
LINE
  5
518
100
AcDbEntity
  8
0
  6
CONTINUOUS
 62
               7
100
AcDbLine
 10
-12.974999978834887
 20
26.997963821025124
 30
0.0
 11
-13.062488641286393
 21
25.997963821025124
 31
0.0
  0
LINE
  5
519
100
AcDbEntity
  8
0
  6
CONTINUOUS
 62
               7
100
AcDbLine
 10
-13.174999991128345
 20
36.797963791222813
 30
0.0
 11
-11.524999985167881
 21
36.797963791222813
 31
0.0
  0
LINE
  5
51A
100
AcDbEntity
  8
0
  6
CONTINUOUS
 62
               7
100
AcDbLine
 10
-13.26248864240398
 20
25.997963791222801
 30
0.0
 11
-13.26248864240398
 21
24.490979638391664
 31
0.0
  0
LINE
  5
51B
100
AcDbEntity
  8
0
  6
CONTINUOUS
 62
               7
100
AcDbLine
 10
-11.524999978089852
 20
24.551654072110026
 30
0.0
 11
-11.524999978089852
 21
25.944273494963582
 31
0.0
  0
LINE
  5
51C
100
AcDbEntity
  8
0
  6
CONTINUOUS
 62
               7
100
AcDbLine
 10
-15.874999978089875
 20
36.997963791222801
 30
0.0
 11
-15.874999978089875
 21
36.797963791222813
 31
0.0
  0
LINE
  5
51D
100
AcDbEntity
  8
0
  6
CONTINUOUS
 62
               7
100
AcDbLine
 10
-16.174999991128345
 20
36.997963791222801
 30
0.0
 11
-15.874999978089875
 21
36.997963791222801
 31
0.0
  0
LINE
  5
51E
100
AcDbEntity
  8
0
  6
CONTINUOUS
 62
               7
100
AcDbLine
 10
-14.526520253133128
 20
33.141740747280906
 30
0.0
 11
-14.842898512593081
 21
35.352218551709385
 31
0.0
  0
LINE
  5
51F
100
AcDbEntity
  8
0
  6
CONTINUOUS
 62
               7
100
AcDbLine
 10
-14.627916200765242
 20
33.144373928637734
 30
0.0
 11
-14.917296681947107
 21
35.166223128324376
 31
0.0
  0
LINE
  5
520
100
AcDbEntity
  8
0
  6
CONTINUOUS
 62
               7
100
AcDbLine
 10
-14.627916196057697
 20
33.144373958440056
 30
0.0
 11
-14.827916199037929
 21
32.797963773341408
 31
0.0
  0
LINE
  5
521
100
AcDbEntity
  8
0
  6
CONTINUOUS
 62
               7
100
AcDbLine
 10
-14.526520253133128
 20
33.141740747280906
 30
0.0
 11
-14.724999971254363
 21
32.797963791222813
 31
0.0
  0
LINE
  5
522
100
AcDbEntity
  8
0
  6
CONTINUOUS
 62
               7
100
AcDbLine
 10
-14.724999978089784
 20
35.646964887967627
 30
0.0
 11
-15.024999978089852
 21
34.896964887967627
 31
0.0
  0
LINE
  5
523
100
AcDbEntity
  8
0
  6
CONTINUOUS
 62
               7
100
AcDbLine
 10
-14.824999978089807
 20
35.666223128324376
 30
0.0
 11
-15.024999978089852
 21
35.166223128324376
 31
0.0
  0
LINE
  5
524
100
AcDbEntity
  8
0
  6
CONTINUOUS
 62
               7
100
AcDbLine
 10
-14.824999978089807
 20
36.29796380314373
 30
0.0
 11
-14.824999978089807
 21
35.666223128324376
 31
0.0
  0
LINE
  5
525
100
AcDbEntity
  8
0
  6
CONTINUOUS
 62
               7
100
AcDbLine
 10
-14.724999978089784
 20
36.29796380314373
 30
0.0
 11
-14.724999978089784
 21
35.646964887967627
 31
0.0
  0
LINE
  5
526
100
AcDbEntity
  8
0
  6
CONTINUOUS
 62
               7
100
AcDbLine
 10
-16.074999978089807
 20
35.166223128324376
 30
0.0
 11
-16.074999978089807
 21
33.517579099775404
 31
0.0
  0
LINE
  5
527
100
AcDbEntity
  8
0
  6
CONTINUOUS
 62
               7
100
AcDbLine
 10
-16.074999982187649
 20
33.517579113574257
 30
0.0
 11
-15.974999958345791
 21
33.34437397632145
 31
0.0
  0
LINE
  5
528
100
AcDbEntity
  8
0
  6
CONTINUOUS
 62
               7
100
AcDbLine
 10
-16.174999991128345
 20
33.490784173341027
 30
0.0
 11
-15.974999958345791
 21
33.144373958440056
 31
0.0
  0
LINE
  5
529
100
AcDbEntity
  8
0
  6
CONTINUOUS
 62
               7
100
AcDbLine
 10
-15.974999988148113
 20
33.144373958440056
 30
0.0
 11
-16.174999978089829
 21
32.797963814347739
 31
0.0
  0
LINE
  5
52A
100
AcDbEntity
  8
0
  6
CONTINUOUS
 62
               7
100
AcDbLine
 10
-16.174999978089829
 20
32.797963791222813
 30
0.0
 11
-16.174999978089829
 21
26.997963791222801
 31
0.0
  0
ARC
  5
52B
100
AcDbEntity
  8
0
  6
CONTINUOUS
 62
               7
100
AcDbCircle
 10
-16.074999978089807
 20
35.066223128324353
 30
0.0
 40
0.1
100
AcDbArc
 50
0.0
 51
89.999999999999815
  0
ARC
  5
52C
100
AcDbEntity
  8
0
  6
CONTINUOUS
 62
               7
100
AcDbCircle
 10
-16.074999978089807
 20
32.897963791222779
 30
0.0
 40
0.1
100
AcDbArc
 50
270.00000000000023
 51
0.0
  0
LINE
  5
52D
100
AcDbEntity
  8
0
  6
CONTINUOUS
 62
               7
100
AcDbLine
 10
-15.974999978089784
 20
35.066223119826546
 30
0.0
 11
-15.974999978089784
 21
32.897963797183266
 31
0.0
  0
LINE
  5
52E
100
AcDbEntity
  8
0
  6
CONTINUOUS
 62
               7
100
AcDbLine
 10
-16.174999991128345
 20
32.797963791222813
 30
0.0
 11
-16.074999967286487
 21
32.797963791222813
 31
0.0
  0
LINE
  5
52F
100
AcDbEntity
  8
0
  6
CONTINUOUS
 62
               7
100
AcDbLine
 10
-16.174999991128345
 20
35.166223128324376
 30
0.0
 11
-16.074999967286487
 21
35.166223128324376
 31
0.0
  0
ARC
  5
530
100
AcDbEntity
  8
0
  6
CONTINUOUS
 62
               7
100
AcDbCircle
 10
-16.074999978089807
 20
35.766223128324341
 30
0.0
 40
0.1
100
AcDbArc
 50
270.00000000000023
 51
0.0
  0
LINE
  5
531
100
AcDbEntity
  8
0
  6
CONTINUOUS
 62
               7
100
AcDbLine
 10
-16.174999991128345
 20
35.666223128324376
 30
0.0
 11
-16.074999967286487
 21
35.666223128324376
 31
0.0
  0
ARC
  5
532
100
AcDbEntity
  8
0
  6
CONTINUOUS
 62
               7
100
AcDbCircle
 10
-16.074999978089807
 20
36.197963791222847
 30
0.0
 40
0.1
100
AcDbArc
 50
0.0
 51
89.999999999999815
  0
LINE
  5
533
100
AcDbEntity
  8
0
  6
CONTINUOUS
 62
               7
100
AcDbLine
 10
-15.974999978089784
 20
36.197963779301872
 30
0.0
 11
-15.974999978089784
 21
35.766223128324341
 31
0.0
  0
LINE
  5
534
100
AcDbEntity
  8
0
  6
CONTINUOUS
 62
               7
100
AcDbLine
 10
-16.072204582161646
 20
36.29796380314373
 30
0.0
 11
-16.072204582161646
 21
36.097963791222824
 31
0.0
  0
LINE
  5
535
100
AcDbEntity
  8
0
  6
CONTINUOUS
 62
               7
100
AcDbLine
 10
-16.174999978089829
 20
35.666223128324376
 30
0.0
 11
-16.174999978089829
 21
33.490784158312366
 31
0.0
  0
LINE
  5
536
100
AcDbEntity
  8
0
  6
CONTINUOUS
 62
               7
100
AcDbLine
 10
-16.674999978089829
 20
33.997963791222801
 30
0.0
 11
-16.577719356621344
 21
33.974801738492218
 31
0.0
  0
LINE
  5
537
100
AcDbEntity
  8
0
  6
CONTINUOUS
 62
               7
100
AcDbLine
 10
-16.072204582161646
 20
36.097963791222824
 30
0.0
 11
-16.577719356621344
 21
33.974801738492218
 31
0.0
  0
LINE
  5
538
100
AcDbEntity
  8
0
  6
CONTINUOUS
 62
               7
100
AcDbLine
 10
-16.174999978089829
 20
36.097963791222824
 30
0.0
 11
-16.674999978089829
 21
33.997963791222801
 31
0.0
  0
LINE
  5
539
100
AcDbEntity
  8
0
  6
CONTINUOUS
 62
               7
100
AcDbLine
 10
-16.174999991128345
 20
36.297963791222813
 30
0.0
 11
-16.074999967286487
 21
36.297963791222813
 31
0.0
  0
LINE
  5
53A
100
AcDbEntity
  8
0
  6
CONTINUOUS
 62
               7
100
AcDbLine
 10
-14.524999978089852
 20
32.797963791222813
 30
0.0
 11
-14.524999978089852
 21
30.79796380314373
 31
0.0
  0
ARC
  5
53B
100
AcDbEntity
  8
0
  6
CONTINUOUS
 62
               7
100
AcDbCircle
 10
-14.774999978089852
 20
33.047963791222813
 30
0.0
 40
0.25
100
AcDbArc
 50
179.99999999999963
 51
269.99999999999937
  0
ARC
  5
53C
100
AcDbEntity
  8
0
  6
CONTINUOUS
 62
               7
100
AcDbCircle
 10
-14.774999978089852
 20
36.047963791222813
 30
0.0
 40
0.25
100
AcDbArc
 50
89.999999999999815
 51
179.99999999999963
  0
LINE
  5
53D
100
AcDbEntity
  8
0
  6
CONTINUOUS
 62
               7
100
AcDbLine
 10
-15.024999978089852
 20
36.04796380314373
 30
0.0
 11
-15.024999978089852
 21
33.047963791222813
 31
0.0
  0
LINE
  5
53E
100
AcDbEntity
  8
0
  6
CONTINUOUS
 62
               7
100
AcDbLine
 10
-14.774999985167881
 20
36.297963791222813
 30
0.0
 11
-14.524999978089852
 21
36.297963791222813
 31
0.0
  0
LINE
  5
53F
100
AcDbEntity
  8
0
  6
CONTINUOUS
 62
               7
100
AcDbLine
 10
-14.774999985167881
 20
32.797963791222813
 30
0.0
 11
-14.524999978089852
 21
32.797963791222813
 31
0.0
  0
ARC
  5
540
100
AcDbEntity
  8
0
  6
CONTINUOUS
 62
               7
100
AcDbCircle
 10
-15.64919364024496
 20
30.297963791222813
 30
0.0
 40
0.25
100
AcDbArc
 50
89.999999999999815
 51
194.99999339411929
  0
LINE
  5
541
100
AcDbEntity
  8
0
  6
CONTINUOUS
 62
               7
100
AcDbLine
 10
-15.890675106713672
 20
30.233259057135811
 30
0.0
 11
-15.774038100311657
 21
29.797963832946053
 31
0.0
  0
ARC
  5
542
100
AcDbEntity
  8
0
  6
CONTINUOUS
 62
               7
100
AcDbCircle
 10
-14.774999978089852
 20
30.797963791222813
 30
0.0
 40
0.25
100
AcDbArc
 50
269.99999999999937
 51
0.0
  0
LINE
  5
543
100
AcDbEntity
  8
0
  6
CONTINUOUS
 62
               7
100
AcDbLine
 10
-15.649193653533359
 20
30.547963791222813
 30
0.0
 11
-14.774999985167881
 21
30.547963791222813
 31
0.0
  0
LINE
  5
544
100
AcDbEntity
  8
0
  6
CONTINUOUS
 62
               7
100
AcDbLine
 10
-14.524999978089852
 20
36.79796380314373
 30
0.0
 11
-14.524999978089852
 21
36.29796380314373
 31
0.0
  0
ARC
  5
545
100
AcDbEntity
  8
0
  6
CONTINUOUS
 62
               7
100
AcDbCircle
 10
-14.824999978089807
 20
29.547963791222813
 30
0.0
 40
0.25
100
AcDbArc
 50
0.0
 51
89.999999999999815
  0
ARC
  5
546
100
AcDbEntity
  8
0
  6
CONTINUOUS
 62
               7
100
AcDbCircle
 10
-14.824999978089807
 20
27.247963791222801
 30
0.0
 40
0.25
100
AcDbArc
 50
270.00000000000023
 51
0.0
  0
LINE
  5
547
100
AcDbEntity
  8
0
  6
CONTINUOUS
 62
               7
100
AcDbLine
 10
-14.574999978089807
 20
29.54796380314373
 30
0.0
 11
-14.574999978089807
 21
27.247963791222801
 31
0.0
  0
LINE
  5
548
100
AcDbEntity
  8
0
  6
CONTINUOUS
 62
               7
100
AcDbLine
 10
-16.174999978089829
 20
36.997963791222801
 30
0.0
 11
-16.174999978089829
 21
36.097963791222824
 31
0.0
  0
LINE
  5
549
100
AcDbEntity
  8
0
  6
CONTINUOUS
 62
               7
100
AcDbLine
 10
-15.974999973246952
 20
26.997963791222801
 30
0.0
 11
-14.824999978089807
 21
26.997963791222801
 31
0.0
  0
LINE
  5
54A
100
AcDbEntity
  8
0
  6
CONTINUOUS
 62
               7
100
AcDbLine
 10
-15.774038085410496
 20
29.797963791222813
 30
0.0
 11
-14.824999967286487
 21
29.797963791222813
 31
0.0
  0
LINE
  5
54B
100
AcDbEntity
  8
0
  6
CONTINUOUS
 62
               7
100
AcDbLine
 10
-14.76345060176601
 20
25.247963791222801
 30
0.0
 11
-14.524999978089852
 21
25.385633320357456
 31
0.0
  0
LINE
  5
54C
100
AcDbEntity
  8
0
  6
CONTINUOUS
 62
               7
100
AcDbLine
 10
-16.062488892743488
 20
25.997963790291479
 30
0.0
 11
-14.524999978089852
 21
25.944273494963582
 31
0.0
  0
LINE
  5
54D
100
AcDbEntity
  8
0
  6
CONTINUOUS
 62
               7
100
AcDbLine
 10
-16.26248864240398
 20
24.490979638391664
 30
0.0
 11
-14.524999978089852
 21
24.551654079726191
 31
0.0
  0
LINE
  5
54E
100
AcDbEntity
  8
0
  6
CONTINUOUS
 62
               7
100
AcDbLine
 10
-16.062488684127231
 20
25.997963806123963
 30
0.0
 11
-14.524999978089852
 21
25.110294284914985
 31
0.0
  0
LINE
  5
54F
100
AcDbEntity
  8
0
  6
CONTINUOUS
 62
               7
100
AcDbLine
 10
-16.174999978089829
 20
26.997963821025124
 30
0.0
 11
-16.262488640541335
 21
25.997963821025124
 31
0.0
  0
LINE
  5
550
100
AcDbEntity
  8
0
  6
CONTINUOUS
 62
               7
100
AcDbLine
 10
-15.974999978834887
 20
26.997963821025124
 30
0.0
 11
-16.062488641286393
 21
25.997963821025124
 31
0.0
  0
LINE
  5
551
100
AcDbEntity
  8
0
  6
CONTINUOUS
 62
               7
100
AcDbLine
 10
-16.174999991128345
 20
36.797963791222813
 30
0.0
 11
-14.524999985167881
 21
36.797963791222813
 31
0.0
  0
LINE
  5
552
100
AcDbEntity
  8
0
  6
CONTINUOUS
 62
               7
100
AcDbLine
 10
-16.26248864240398
 20
25.997963791222801
 30
0.0
 11
-16.26248864240398
 21
24.490979638391664
 31
0.0
  0
LINE
  5
553
100
AcDbEntity
  8
0
  6
CONTINUOUS
 62
               7
100
AcDbLine
 10
-14.524999978089852
 20
24.551654072110026
 30
0.0
 11
-14.524999978089852
 21
25.944273494963582
 31
0.0
  0
LINE
  5
554
100
AcDbEntity
  8
0
  6
CONTINUOUS
 62
               7
100
AcDbLine
 10
-18.874999978089875
 20
36.997963791222801
 30
0.0
 11
-18.874999978089875
 21
36.797963791222813
 31
0.0
  0
LINE
  5
555
100
AcDbEntity
  8
0
  6
CONTINUOUS
 62
               7
100
AcDbLine
 10
-19.174999991128345
 20
36.997963791222801
 30
0.0
 11
-18.874999978089875
 21
36.997963791222801
 31
0.0
  0
LINE
  5
556
100
AcDbEntity
  8
0
  6
CONTINUOUS
 62
               7
100
AcDbLine
 10
-17.526520253133128
 20
33.141740747280906
 30
0.0
 11
-17.842898512593081
 21
35.352218551709385
 31
0.0
  0
LINE
  5
557
100
AcDbEntity
  8
0
  6
CONTINUOUS
 62
               7
100
AcDbLine
 10
-17.627916200765242
 20
33.144373928637734
 30
0.0
 11
-17.917296681947107
 21
35.166223128324376
 31
0.0
  0
LINE
  5
558
100
AcDbEntity
  8
0
  6
CONTINUOUS
 62
               7
100
AcDbLine
 10
-17.627916196057697
 20
33.144373958440056
 30
0.0
 11
-17.827916199037929
 21
32.797963773341408
 31
0.0
  0
LINE
  5
559
100
AcDbEntity
  8
0
  6
CONTINUOUS
 62
               7
100
AcDbLine
 10
-17.526520253133128
 20
33.141740747280906
 30
0.0
 11
-17.724999971254363
 21
32.797963791222813
 31
0.0
  0
LINE
  5
55A
100
AcDbEntity
  8
0
  6
CONTINUOUS
 62
               7
100
AcDbLine
 10
-17.724999978089784
 20
35.646964887967627
 30
0.0
 11
-18.024999978089852
 21
34.896964887967627
 31
0.0
  0
LINE
  5
55B
100
AcDbEntity
  8
0
  6
CONTINUOUS
 62
               7
100
AcDbLine
 10
-17.824999978089807
 20
35.666223128324376
 30
0.0
 11
-18.024999978089852
 21
35.166223128324376
 31
0.0
  0
LINE
  5
55C
100
AcDbEntity
  8
0
  6
CONTINUOUS
 62
               7
100
AcDbLine
 10
-17.824999978089807
 20
36.29796380314373
 30
0.0
 11
-17.824999978089807
 21
35.666223128324376
 31
0.0
  0
LINE
  5
55D
100
AcDbEntity
  8
0
  6
CONTINUOUS
 62
               7
100
AcDbLine
 10
-17.724999978089784
 20
36.29796380314373
 30
0.0
 11
-17.724999978089784
 21
35.646964887967627
 31
0.0
  0
LINE
  5
55E
100
AcDbEntity
  8
0
  6
CONTINUOUS
 62
               7
100
AcDbLine
 10
-19.074999978089807
 20
35.166223128324376
 30
0.0
 11
-19.074999978089807
 21
33.517579099775404
 31
0.0
  0
LINE
  5
55F
100
AcDbEntity
  8
0
  6
CONTINUOUS
 62
               7
100
AcDbLine
 10
-19.074999982187649
 20
33.517579113574257
 30
0.0
 11
-18.974999958345791
 21
33.34437397632145
 31
0.0
  0
LINE
  5
560
100
AcDbEntity
  8
0
  6
CONTINUOUS
 62
               7
100
AcDbLine
 10
-19.174999991128345
 20
33.490784173341027
 30
0.0
 11
-18.974999958345791
 21
33.144373958440056
 31
0.0
  0
LINE
  5
561
100
AcDbEntity
  8
0
  6
CONTINUOUS
 62
               7
100
AcDbLine
 10
-18.974999988148113
 20
33.144373958440056
 30
0.0
 11
-19.174999978089829
 21
32.797963814347739
 31
0.0
  0
LINE
  5
562
100
AcDbEntity
  8
0
  6
CONTINUOUS
 62
               7
100
AcDbLine
 10
-19.174999978089829
 20
32.797963791222813
 30
0.0
 11
-19.174999978089829
 21
26.997963791222801
 31
0.0
  0
ARC
  5
563
100
AcDbEntity
  8
0
  6
CONTINUOUS
 62
               7
100
AcDbCircle
 10
-19.074999978089807
 20
35.066223128324353
 30
0.0
 40
0.1
100
AcDbArc
 50
0.0
 51
89.999999999999815
  0
ARC
  5
564
100
AcDbEntity
  8
0
  6
CONTINUOUS
 62
               7
100
AcDbCircle
 10
-19.074999978089807
 20
32.897963791222779
 30
0.0
 40
0.1
100
AcDbArc
 50
270.00000000000023
 51
0.0
  0
LINE
  5
565
100
AcDbEntity
  8
0
  6
CONTINUOUS
 62
               7
100
AcDbLine
 10
-18.974999978089784
 20
35.066223119826546
 30
0.0
 11
-18.974999978089784
 21
32.897963797183266
 31
0.0
  0
LINE
  5
566
100
AcDbEntity
  8
0
  6
CONTINUOUS
 62
               7
100
AcDbLine
 10
-19.174999991128345
 20
32.797963791222813
 30
0.0
 11
-19.074999967286487
 21
32.797963791222813
 31
0.0
  0
LINE
  5
567
100
AcDbEntity
  8
0
  6
CONTINUOUS
 62
               7
100
AcDbLine
 10
-19.174999991128345
 20
35.166223128324376
 30
0.0
 11
-19.074999967286487
 21
35.166223128324376
 31
0.0
  0
ARC
  5
568
100
AcDbEntity
  8
0
  6
CONTINUOUS
 62
               7
100
AcDbCircle
 10
-19.074999978089807
 20
35.766223128324341
 30
0.0
 40
0.1
100
AcDbArc
 50
270.00000000000023
 51
0.0
  0
LINE
  5
569
100
AcDbEntity
  8
0
  6
CONTINUOUS
 62
               7
100
AcDbLine
 10
-19.174999991128345
 20
35.666223128324376
 30
0.0
 11
-19.074999967286487
 21
35.666223128324376
 31
0.0
  0
ARC
  5
56A
100
AcDbEntity
  8
0
  6
CONTINUOUS
 62
               7
100
AcDbCircle
 10
-19.074999978089807
 20
36.197963791222847
 30
0.0
 40
0.1
100
AcDbArc
 50
0.0
 51
89.999999999999815
  0
LINE
  5
56B
100
AcDbEntity
  8
0
  6
CONTINUOUS
 62
               7
100
AcDbLine
 10
-18.974999978089784
 20
36.197963779301872
 30
0.0
 11
-18.974999978089784
 21
35.766223128324341
 31
0.0
  0
LINE
  5
56C
100
AcDbEntity
  8
0
  6
CONTINUOUS
 62
               7
100
AcDbLine
 10
-19.072204582161646
 20
36.29796380314373
 30
0.0
 11
-19.072204582161646
 21
36.097963791222824
 31
0.0
  0
LINE
  5
56D
100
AcDbEntity
  8
0
  6
CONTINUOUS
 62
               7
100
AcDbLine
 10
-19.174999978089829
 20
35.666223128324376
 30
0.0
 11
-19.174999978089829
 21
33.490784158312366
 31
0.0
  0
LINE
  5
56E
100
AcDbEntity
  8
0
  6
CONTINUOUS
 62
               7
100
AcDbLine
 10
-19.674999978089829
 20
33.997963791222801
 30
0.0
 11
-19.577719356621344
 21
33.974801738492218
 31
0.0
  0
LINE
  5
56F
100
AcDbEntity
  8
0
  6
CONTINUOUS
 62
               7
100
AcDbLine
 10
-19.072204582161646
 20
36.097963791222824
 30
0.0
 11
-19.577719356621344
 21
33.974801738492218
 31
0.0
  0
LINE
  5
570
100
AcDbEntity
  8
0
  6
CONTINUOUS
 62
               7
100
AcDbLine
 10
-19.174999978089829
 20
36.097963791222824
 30
0.0
 11
-19.674999978089829
 21
33.997963791222801
 31
0.0
  0
LINE
  5
571
100
AcDbEntity
  8
0
  6
CONTINUOUS
 62
               7
100
AcDbLine
 10
-19.174999991128345
 20
36.297963791222813
 30
0.0
 11
-19.074999967286487
 21
36.297963791222813
 31
0.0
  0
LINE
  5
572
100
AcDbEntity
  8
0
  6
CONTINUOUS
 62
               7
100
AcDbLine
 10
-17.524999978089852
 20
32.797963791222813
 30
0.0
 11
-17.524999978089852
 21
30.79796380314373
 31
0.0
  0
ARC
  5
573
100
AcDbEntity
  8
0
  6
CONTINUOUS
 62
               7
100
AcDbCircle
 10
-17.774999978089852
 20
33.047963791222813
 30
0.0
 40
0.25
100
AcDbArc
 50
179.99999999999963
 51
269.99999999999937
  0
ARC
  5
574
100
AcDbEntity
  8
0
  6
CONTINUOUS
 62
               7
100
AcDbCircle
 10
-17.774999978089852
 20
36.047963791222813
 30
0.0
 40
0.25
100
AcDbArc
 50
89.999999999999815
 51
179.99999999999963
  0
LINE
  5
575
100
AcDbEntity
  8
0
  6
CONTINUOUS
 62
               7
100
AcDbLine
 10
-18.024999978089852
 20
36.04796380314373
 30
0.0
 11
-18.024999978089852
 21
33.047963791222813
 31
0.0
  0
LINE
  5
576
100
AcDbEntity
  8
0
  6
CONTINUOUS
 62
               7
100
AcDbLine
 10
-17.774999985167881
 20
36.297963791222813
 30
0.0
 11
-17.524999978089852
 21
36.297963791222813
 31
0.0
  0
LINE
  5
577
100
AcDbEntity
  8
0
  6
CONTINUOUS
 62
               7
100
AcDbLine
 10
-17.774999985167881
 20
32.797963791222813
 30
0.0
 11
-17.524999978089852
 21
32.797963791222813
 31
0.0
  0
ARC
  5
578
100
AcDbEntity
  8
0
  6
CONTINUOUS
 62
               7
100
AcDbCircle
 10
-18.64919364024496
 20
30.297963791222813
 30
0.0
 40
0.25
100
AcDbArc
 50
89.999999999999815
 51
194.99999339411929
  0
LINE
  5
579
100
AcDbEntity
  8
0
  6
CONTINUOUS
 62
               7
100
AcDbLine
 10
-18.890675106713672
 20
30.233259057135811
 30
0.0
 11
-18.774038100311657
 21
29.797963832946053
 31
0.0
  0
ARC
  5
57A
100
AcDbEntity
  8
0
  6
CONTINUOUS
 62
               7
100
AcDbCircle
 10
-17.774999978089852
 20
30.797963791222813
 30
0.0
 40
0.25
100
AcDbArc
 50
269.99999999999937
 51
0.0
  0
LINE
  5
57B
100
AcDbEntity
  8
0
  6
CONTINUOUS
 62
               7
100
AcDbLine
 10
-18.649193653533359
 20
30.547963791222813
 30
0.0
 11
-17.774999985167881
 21
30.547963791222813
 31
0.0
  0
LINE
  5
57C
100
AcDbEntity
  8
0
  6
CONTINUOUS
 62
               7
100
AcDbLine
 10
-17.524999978089852
 20
36.79796380314373
 30
0.0
 11
-17.524999978089852
 21
36.29796380314373
 31
0.0
  0
ARC
  5
57D
100
AcDbEntity
  8
0
  6
CONTINUOUS
 62
               7
100
AcDbCircle
 10
-17.824999978089807
 20
29.547963791222813
 30
0.0
 40
0.25
100
AcDbArc
 50
0.0
 51
89.999999999999815
  0
ARC
  5
57E
100
AcDbEntity
  8
0
  6
CONTINUOUS
 62
               7
100
AcDbCircle
 10
-17.824999978089807
 20
27.247963791222801
 30
0.0
 40
0.25
100
AcDbArc
 50
270.00000000000023
 51
0.0
  0
LINE
  5
57F
100
AcDbEntity
  8
0
  6
CONTINUOUS
 62
               7
100
AcDbLine
 10
-17.574999978089807
 20
29.54796380314373
 30
0.0
 11
-17.574999978089807
 21
27.247963791222801
 31
0.0
  0
LINE
  5
580
100
AcDbEntity
  8
0
  6
CONTINUOUS
 62
               7
100
AcDbLine
 10
-19.174999978089829
 20
36.997963791222801
 30
0.0
 11
-19.174999978089829
 21
36.097963791222824
 31
0.0
  0
LINE
  5
581
100
AcDbEntity
  8
0
  6
CONTINUOUS
 62
               7
100
AcDbLine
 10
-18.974999973246952
 20
26.997963791222801
 30
0.0
 11
-17.824999978089807
 21
26.997963791222801
 31
0.0
  0
LINE
  5
582
100
AcDbEntity
  8
0
  6
CONTINUOUS
 62
               7
100
AcDbLine
 10
-18.774038085410496
 20
29.797963791222813
 30
0.0
 11
-17.824999967286487
 21
29.797963791222813
 31
0.0
  0
LINE
  5
583
100
AcDbEntity
  8
0
  6
CONTINUOUS
 62
               7
100
AcDbLine
 10
-17.76345060176601
 20
25.247963791222801
 30
0.0
 11
-17.524999978089852
 21
25.385633320357456
 31
0.0
  0
LINE
  5
584
100
AcDbEntity
  8
0
  6
CONTINUOUS
 62
               7
100
AcDbLine
 10
-19.062488892743488
 20
25.997963790291479
 30
0.0
 11
-17.524999978089852
 21
25.944273494963582
 31
0.0
  0
LINE
  5
585
100
AcDbEntity
  8
0
  6
CONTINUOUS
 62
               7
100
AcDbLine
 10
-19.26248864240398
 20
24.490979638391664
 30
0.0
 11
-17.524999978089852
 21
24.551654079726191
 31
0.0
  0
LINE
  5
586
100
AcDbEntity
  8
0
  6
CONTINUOUS
 62
               7
100
AcDbLine
 10
-19.062488684127231
 20
25.997963806123963
 30
0.0
 11
-17.524999978089852
 21
25.110294284914985
 31
0.0
  0
LINE
  5
587
100
AcDbEntity
  8
0
  6
CONTINUOUS
 62
               7
100
AcDbLine
 10
-19.174999978089829
 20
26.997963821025124
 30
0.0
 11
-19.262488640541335
 21
25.997963821025124
 31
0.0
  0
LINE
  5
588
100
AcDbEntity
  8
0
  6
CONTINUOUS
 62
               7
100
AcDbLine
 10
-18.974999978834887
 20
26.997963821025124
 30
0.0
 11
-19.062488641286393
 21
25.997963821025124
 31
0.0
  0
LINE
  5
589
100
AcDbEntity
  8
0
  6
CONTINUOUS
 62
               7
100
AcDbLine
 10
-19.174999991128345
 20
36.797963791222813
 30
0.0
 11
-17.524999985167881
 21
36.797963791222813
 31
0.0
  0
LINE
  5
58A
100
AcDbEntity
  8
0
  6
CONTINUOUS
 62
               7
100
AcDbLine
 10
-19.26248864240398
 20
25.997963791222801
 30
0.0
 11
-19.26248864240398
 21
24.490979638391664
 31
0.0
  0
LINE
  5
58B
100
AcDbEntity
  8
0
  6
CONTINUOUS
 62
               7
100
AcDbLine
 10
-17.524999978089852
 20
24.551654072110026
 30
0.0
 11
-17.524999978089852
 21
25.944273494963582
 31
0.0
  0
ENDBLK
  5
58C
100
AcDbEntity
  8
0
100
AcDbBlockEnd
  0
ENDSEC
  0
SECTION
  2
ENTITIES
  0
INSERT
  5
58D
100
AcDbEntity
  8
0
  6
ByBlock
100
AcDbBlockReference
  2
NCT20-1
 10
-187.35835774739581
 20
55.55095876288658
 30
0.0
  0
INSERT
  5
58E
100
AcDbEntity
  8
0
  6
ByBlock
100
AcDbBlockReference
  2
NCT20-3
 10
-187.35835774739581
 20
117.875
 30
0.0
  0
INSERT
  5
58F
100
AcDbEntity
  8
0
  6
ByBlock
100
AcDbBlockReference
  2
NCT20-4
 10
-1.3937265901348077
 20
54.500958762886583
 30
0.0
  0
INSERT
  5
590
100
AcDbEntity
  8
0
  6
ByBlock
100
AcDbBlockReference
  2
NCT20-5
 10
-1.3937265901348077
 20
116.825
 30
0.0
  0
INSERT
  5
591
100
AcDbEntity
  8
0
  6
ByBlock
100
AcDbBlockReference
  2
NCT20-6
 10
-1.3937265901348077
 20
-118.54904428887123
 30
0.0
  0
INSERT
  5
592
100
AcDbEntity
  8
0
  6
ByBlock
100
AcDbBlockReference
  2
NCT20-7
 10
-1.3937265901348077
 20
-66.22500305175781
 30
0.0
  0
INSERT
  5
593
100
AcDbEntity
  8
0
  6
ByBlock
100
AcDbBlockReference
  2
NCT20-8
 10
188.20821125116893
 20
55.55095876288658
 30
0.0
  0
INSERT
  5
594
100
AcDbEntity
  8
0
  6
ByBlock
100
AcDbBlockReference
  2
NCT20-9
 10
188.20821126302084
 20
117.875
 30
0.0
  0
INSERT
  5
595
100
AcDbEntity
  8
0
  6
ByBlock
100
AcDbBlockReference
  2
NCT20-10
 10
188.20821125116893
 20
-133.54904428887124
 30
0.0
  0
INSERT
  5
596
100
AcDbEntity
  8
0
  6
ByBlock
100
AcDbBlockReference
  2
NCT20-2
 10
188.20821126302084
 20
-66.22500305175781
 30
0.0
  0
MTEXT
  5
597
100
AcDbEntity
  8
0
  6
CONTINUOUS
 62
               7
100
AcDbMText
 10
-268.25454577981247
 20
160.5
 30
0.0
 40
6.3000001907348633
 41
0.0
 71
               4
 72
               1
  1
\W1.091;\A1;MODEL:NCT20-B1
  0
LINE
  5
598
100
AcDbEntity
  8
0
  6
CONTINUOUS
 62
               7
100
AcDbLine
 10
-281.25
 20
-195.0
 30
0.0
 11
282.099853515625
 21
-195.0
 31
0.0
  0
LINE
  5
599
100
AcDbEntity
  8
0
  6
CONTINUOUS
 62
               7
100
AcDbLine
 10
-281.25
 20
195.5
 30
0.0
 11
-281.25
 21
-195.0
 31
0.0
  0
LINE
  5
59A
100
AcDbEntity
  8
0
  6
CONTINUOUS
 62
               7
100
AcDbLine
 10
-281.25
 20
195.5
 30
0.0
 11
282.099853515625
 21
195.5
 31
0.0
  0
LINE
  5
59B
100
AcDbEntity
  8
0
  6
CONTINUOUS
 62
               7
100
AcDbLine
 10
282.099853515625
 20
195.5
 30
0.0
 11
282.099853515625
 21
-195.0
 31
0.0
  0
LINE
  5
59C
100
AcDbEntity
  8
0
  6
CONTINUOUS
 62
               7
100
AcDbLine
 10
162.0999755859375
 20
195.5
 30
0.0
 11
162.0999755859375
 21
175.5
 31
0.0
  0
LINE
  5
59D
100
AcDbEntity
  8
0
  6
CONTINUOUS
 62
               7
100
AcDbLine
 10
162.0999755859375
 20
175.5
 30
0.0
 11
282.099853515625
 21
175.5
 31
0.0
  0
MTEXT
  5
59E
100
AcDbEntity
  8
0
  6
CONTINUOUS
 62
               7
100
AcDbMText
 10
198.27702046155224
 20
185.5
 30
0.0
 40
6.3000001907348633
 41
0.0
 71
               4
 72
               1
  1
\W1.311;\A1;Ver. 1.0
  0
MTEXT
  5
59F
100
AcDbEntity
  8
0
  6
CONTINUOUS
 62
               7
100
AcDbMText
 10
187.32669246344659
 20
-185.0
 30
0.0
 40
6.3000001907348633
 41
0.0
 71
               4
 72
               1
  1
\W1.121;\A1;KOGANEI CORP.
  0
LINE
  5
5A0
100
AcDbEntity
  8
0
  6
CONTINUOUS
 62
               7
100
AcDbLine
 10
162.0999755859375
 20
-175.0
 30
0.0
 11
282.099853515625
 21
-175.0
 31
0.0
  0
LINE
  5
5A1
100
AcDbEntity
  8
0
  6
CONTINUOUS
 62
               7
100
AcDbLine
 10
162.0999755859375
 20
-175.0
 30
0.0
 11
162.0999755859375
 21
-195.0
 31
0.0
  0
LINE
  5
5A2
100
AcDbEntity
  8
0
  6
CONTINUOUS
 62
               7
100
AcDbLine
 10
-281.25
 20
175.5
 30
0.0
 11
-85.949999999999989
 21
175.5
 31
0.0
  0
MTEXT
  5
5A3
100
AcDbEntity
  8
0
  6
CONTINUOUS
 62
               7
100
AcDbMText
 10
-277.02124982238189
 20
185.5
 30
0.0
 40
6.3000001907348633
 41
0.0
 71
               4
 72
               1
  1
\W1.027;\A1;NON-CONTACT TRANSFER COMPONENT
  0
LINE
  5
5A4
100
AcDbEntity
  8
0
  6
CONTINUOUS
 62
               7
100
AcDbLine
 10
-93.466715494791657
 20
-195.0
 30
0.0
 11
-93.466715494791657
 21
175.5
 31
0.0
  0
LINE
  5
5A5
100
AcDbEntity
  8
0
  6
CONTINUOUS
 62
               7
100
AcDbLine
 10
94.316569010416686
 20
-195.0
 30
0.0
 11
94.316569010416686
 21
195.5
 31
0.0
  0
LINE
  5
5A6
100
AcDbEntity
  8
0
  6
CONTINUOUS
 62
               7
100
AcDbLine
 10
-93.466715494791657
 20
0.25
 30
0.0
 11
282.099853515625
 21
0.25
 31
0.0
  0
MTEXT
  5
5A7
100
AcDbEntity
  8
0
  6
CONTINUOUS
 62
               7
100
AcDbMText
 10
-80.447645324797023
 20
160.5
 30
0.0
 40
6.3000001907348633
 41
0.0
 71
               4
 72
               1
  1
\W1.113;\A1;MODEL:NCT20-B1-S11
  0
MTEXT
  5
5A8
100
AcDbEntity
  8
0
  6
CONTINUOUS
 62
               7
100
AcDbMText
 10
107.31202372303133
 20
160.5
 30
0.0
 40
6.3000001907348633
 41
0.0
 71
               4
 72
               1
  1
\W1.091;\A1;MODEL:NCT20-B1-S12
  0
MTEXT
  5
5A9
100
AcDbEntity
  8
0
  6
CONTINUOUS
 62
               7
100
AcDbMText
 10
-80.471261276968676
 20
-14.75
 30
0.0
 40
6.3000001907348633
 41
0.0
 71
               4
 72
               1
  1
\W1.091;\A1;MODEL:NCT20-B1-S13
  0
MTEXT
  5
5AA
100
AcDbEntity
  8
0
  6
CONTINUOUS
 62
               7
100
AcDbMText
 10
107.31202322823967
 20
-14.75
 30
0.0
 40
6.3000001907348633
 41
0.0
 71
               4
 72
               1
  1
\W1.091;\A1;MODEL:NCT20-B1-S14
  0
MTEXT
  5
5AB
100
AcDbEntity
  8
0
  6
CONTINUOUS
 62
               7
100
AcDbMText
 10
-230.52765880950497
 20
150.5
 30
0.0
 40
6.3000001907348633
 41
0.0
 71
               4
 72
               1
  1
\W1.021;\A1;NCT20-B2
  0
MTEXT
  5
5AC
100
AcDbEntity
  8
0
  6
CONTINUOUS
 62
               7
100
AcDbMText
 10
-42.68835652176498
 20
150.5
 30
0.0
 40
6.3000001907348633
 41
0.0
 71
               4
 72
               1
  1
\W1.075;\A1;NCT20-B2-S11
  0
MTEXT
  5
5AD
100
AcDbEntity
  8
0
  6
CONTINUOUS
 62
               7
100
AcDbMText
 10
145.06222242911852
 20
150.5
 30
0.0
 40
6.3000001907348633
 41
0.0
 71
               4
 72
               1
  1
\W1.043;\A1;NCT20-B2-S12
  0
MTEXT
  5
5AE
100
AcDbEntity
  8
0
  6
CONTINUOUS
 62
               7
100
AcDbMText
 10
145.06222193432686
 20
-24.75
 30
0.0
 40
6.3000001907348633
 41
0.0
 71
               4
 72
               1
  1
\W1.043;\A1;NCT20-B2-S14
  0
MTEXT
  5
5AF
100
AcDbEntity
  8
0
  6
CONTINUOUS
 62
               7
100
AcDbMText
 10
-42.721062570881486
 20
-24.75
 30
0.0
 40
6.3000001907348633
 41
0.0
 71
               4
 72
               1
  1
\W1.043;\A1;NCT20-B2-S13
  0
LINE
  5
5B0
100
AcDbEntity
  8
0
  6
CONTINUOUS
 62
               7
100
AcDbLine
 10
-85.949999999999989
 20
195.5
 30
0.0
 11
-85.949999999999989
 21
175.5
 31
0.0
  0
ENDSEC
  0
SECTION
  2
OBJECTS
  0
DICTIONARY
  5
19
100
AcDbDictionary
  3
ACAD_GROUP
350
1A
  3
ACAD_MLINESTYLE
350
1B
  0
DICTIONARY
  5
1A
102
{ACAD_REACTORS
330
19
102
}
100
AcDbDictionary
  0
DICTIONARY
  5
1B
102
{ACAD_REACTORS
330
19
102
}
100
AcDbDictionary
  3
STANDARD
350
1C
  0
MLINESTYLE
  5
1C
102
{ACAD_REACTORS
330
1B
102
}
100
AcDbMlineStyle
  2
Standard
 70
               0
  3

 62
               0
 51
90.0
 52
90.0
 71
               2
 49
0.5
 62
             256
  6
ByLayer
 49
-0.5
 62
             256
  6
ByLayer
  0
ENDSEC
  0
EOF
