  0
SECTION
  2
HEADER
  9
$ACADVER
  1
AC1012
  9
$DWGCODEPAGE
  3
dos932
  9
$INSBASE
 10
0.0
 20
0.0
 30
0.0
  9
$EXTMIN
 10
-194.25
 20
-133.5
 30
0.0
  9
$EXTMAX
 10
196.27235406470908
 20
132.60000610351562
 30
0.0
  9
$LIMMIN
 10
-194.25
 20
-133.5
  9
$LIMMAX
 10
196.27235406470908
 20
132.60000610351562
  9
$ORTHOMODE
 70
               0
  9
$REGENMODE
 70
               1
  9
$FILLMODE
 70
               1
  9
$QTEXTMODE
 70
               0
  9
$MIRRTEXT
 70
               1
  9
$DRAGMODE
 70
               2
  9
$LTSCALE
 40
1.0
  9
$OSMODE
 70
               0
  9
$ATTMODE
 70
               1
  9
$TEXTSIZE
 40
3.2000000476837158
  9
$TRACEWID
 40
0.05
  9
$TEXTSTYLE
  7
MX_NOTE_STANDARD
  9
$CLAYER
  8
0
  9
$CELTYPE
  6
CONTINUOUS
  9
$CECOLOR
 62
             256
  9
$CELTSCALE
 40
1.0
  9
$DELOBJ
 70
               1
  9
$DISPSILH
 70
               0
  9
$DIMSCALE
 40
1.0
  9
$DIMASZ
 40
2.5
  9
$DIMEXO
 40
1.5
  9
$DIMDLI
 40
3.75
  9
$DIMRND
 40
0.0
  9
$DIMDLE
 40
0.0
  9
$DIMEXE
 40
1.5
  9
$DIMTP
 40
0.0
  9
$DIMTM
 40
0.0
  9
$DIMTXT
 40
3.2000000476837158
  9
$DIMCEN
 40
2.5
  9
$DIMTSZ
 40
0.0
  9
$DIMTOL
 70
               0
  9
$DIMLIM
 70
               0
  9
$DIMTIH
 70
               0
  9
$DIMTOH
 70
               0
  9
$DIMSE1
 70
               0
  9
$DIMSE2
 70
               0
  9
$DIMTAD
 70
               1
  9
$DIMZIN
 70
               8
  9
$DIMBLK
  1

  9
$DIMASO
 70
               1
  9
$DIMSHO
 70
               1
  9
$DIMPOST
  1

  9
$DIMAPOST
  1

  9
$DIMALT
 70
               0
  9
$DIMALTD
 70
               4
  9
$DIMALTF
 40
0.03937007874016
  9
$DIMLFAC
 40
1.0
  9
$DIMTOFL
 70
               1
  9
$DIMTVP
 40
0.0
  9
$DIMTIX
 70
               0
  9
$DIMSOXD
 70
               0
  9
$DIMSAH
 70
               0
  9
$DIMBLK1
  1

  9
$DIMBLK2
  1

  9
$DIMSTYLE
  2
MXDIMSTYLE
  9
$DIMCLRD
 70
               0
  9
$DIMCLRE
 70
               0
  9
$DIMCLRT
 70
               0
  9
$DIMTFAC
 40
1.0
  9
$DIMGAP
 40
1.0
  9
$DIMJUST
 70
               0
  9
$DIMSD1
 70
               0
  9
$DIMSD2
 70
               0
  9
$DIMTOLJ
 70
               1
  9
$DIMTZIN
 70
               0
  9
$DIMALTZ
 70
               0
  9
$DIMALTTZ
 70
               0
  9
$DIMFIT
 70
               3
  9
$DIMUPT
 70
               1
  9
$DIMUNIT
 70
               2
  9
$DIMDEC
 70
               4
  9
$DIMTDEC
 70
               4
  9
$DIMALTU
 70
               2
  9
$DIMALTTD
 70
               4
  9
$DIMTXSTY
  7
MX_NOTE_STANDARD
  9
$DIMAUNIT
 70
               0
  9
$LUNITS
 70
               2
  9
$LUPREC
 70
               4
  9
$SKETCHINC
 40
0.1
  9
$FILLETRAD
 40
0.0
  9
$AUNITS
 70
               0
  9
$AUPREC
 70
               0
  9
$MENU
  1
acad
  9
$ELEVATION
 40
0.0
  9
$PELEVATION
 40
0.0
  9
$THICKNESS
 40
0.0
  9
$LIMCHECK
 70
               0
  9
$BLIPMODE
 70
               1
  9
$CHAMFERA
 40
0.0
  9
$CHAMFERB
 40
0.0
  9
$CHAMFERC
 40
0.0
  9
$CHAMFERD
 40
0.0
  9
$SKPOLY
 70
               0
  9
$TDCREATE
 40
2453378.356759260
  9
$TDUPDATE
 40
2453378.356759260
  9
$TDINDWG
 40
0.0000000000
  9
$TDUSRTIMER
 40
0.0000000000
  9
$USRTIMER
 70
               1
  9
$ANGBASE
 50
0.0
  9
$ANGDIR
 70
               0
  9
$PDMODE
 70
               0
  9
$PDSIZE
 40
0.0
  9
$PLINEWID
 40
0.0
  9
$COORDS
 70
               1
  9
$SPLFRAME
 70
               0
  9
$SPLINETYPE
 70
               6
  9
$SPLINESEGS
 70
               8
  9
$ATTDIA
 70
               0
  9
$ATTREQ
 70
               1
  9
$HANDLING
 70
               1
  9
$HANDSEED
  5
533
  9
$SURFTAB1
 70
               6
  9
$SURFTAB2
 70
               6
  9
$SURFTYPE
 70
               6
  9
$SURFU
 70
               6
  9
$SURFV
 70
               6
  9
$UCSNAME
  2

  9
$UCSORG
 10
0.0
 20
0.0
 30
0.0
  9
$UCSXDIR
 10
1.0
 20
0.0
 30
0.0
  9
$UCSYDIR
 10
0.0
 20
1.0
 30
0.0
  9
$PUCSNAME
  2

  9
$PUCSORG
 10
0.0
 20
0.0
 30
0.0
  9
$PUCSXDIR
 10
1.0
 20
0.0
 30
0.0
  9
$PUCSYDIR
 10
0.0
 20
1.0
 30
0.0
  9
$USERI1
 70
               0
  9
$USERI2
 70
               0
  9
$USERI3
 70
               0
  9
$USERI4
 70
               0
  9
$USERI5
 70
               0
  9
$USERR1
 40
0.0
  9
$USERR2
 40
0.0
  9
$USERR3
 40
0.0
  9
$USERR4
 40
0.0
  9
$USERR5
 40
0.0
  9
$WORLDVIEW
 70
               1
  9
$SHADEDGE
 70
               3
  9
$SHADEDIF
 70
              70
  9
$TILEMODE
 70
               1
  9
$MAXACTVP
 70
              16
  9
$PINSBASE
 10
0.0
 20
0.0
 30
0.0
  9
$PLIMCHECK
 70
               0
  9
$PEXTMIN
 10
1.0000000000000000E+20
 20
1.0000000000000000E+20
 30
1.0000000000000000E+20
  9
$PEXTMAX
 10
-1.0000000000000000E+20
 20
-1.0000000000000000E+20
 30
-1.0000000000000000E+20
  9
$PLIMMIN
 10
0.0
 20
0.0
  9
$PLIMMAX
 10
12.0
 20
9.0
  9
$UNITMODE
 70
               0
  9
$VISRETAIN
 70
               0
  9
$PLINEGEN
 70
               1
  9
$PSLTSCALE
 70
               0
  9
$TREEDEPTH
 70
            3020
  9
$PICKSTYLE
 70
               1
  9
$CMLSTYLE
  2
Standard
  9
$CMLJUST
 70
               0
  9
$CMLSCALE
 40
1.0
  9
$SAVEIMAGES
 70
               0
  0
ENDSEC
  0
SECTION
  2
CLASSES
  0
CLASS
  1
LWPOLYLINE
  2
AcDbPolyline
  3
"AutoCAD"
 90
        0
280
               0
281
               1
  0
CLASS
  1
IMAGE
  2
AcDbRasterImage
  3
ISM
 90
      127
280
               0
281
               1
  0
CLASS
  1
OLE2FRAME
  2
AcDbOle2Frame
  3
""
 90
        0
280
               0
281
               1
  0
CLASS
  1
HATCH
  2
AcDbHatch
  3
"ACAD_SEDONA"
 90
        0
280
               0
281
               1
  0
CLASS
  1
DICTIONARYVAR
  2
AcDbDictionaryVar
  3
"AutoCAD"
 90
        0
280
               0
281
               0
  0
CLASS
  1
RASTERVARIABLES
  2
AcDbRasterVariables
  3
ISM
 90
        0
280
               0
281
               0
  0
CLASS
  1
IMAGEDEF
  2
AcDbRasterImageDef
  3
ISM
 90
        0
280
               0
281
               0
  0
CLASS
  1
IMAGEDEF_REACTOR
  2
AcDbRasterImageDefReactor
  3
ISM
 90
        1
280
               0
281
               0
  0
CLASS
  1
IDBUFFER
  2
AcDbIdBuffer
  3
"Acad"
 90
        0
280
               0
281
               0
  0
CLASS
  1
SPATIAL_FILTER
  2
AcDbSpatialFilter
  3
"Acad"
 90
        0
280
               0
281
               0
  0
CLASS
  1
XRECORD
  2
AcDbXrecord
  3
"<Built In>"
 90
        0
280
               0
281
               0
  0
CLASS
  1
SORTENTSTABLE
  2
AcDbSortentsTable
  3
"AutoCAD"
 90
        0
280
               0
281
               0
  0
CLASS
  1
LAYER_INDEX
  2
AcDbLayerIndex
  3
"Acad"
 90
        0
280
               0
281
               0
  0
CLASS
  1
SPATIAL_INDEX
  2
AcDbSpatialIndex
  3
"Acad"
 90
        0
280
               0
281
               0
  0
CLASS
  1
OBJECT_PTR
  2
CAseDLPNTableRecord
  3
"ASE-LPNTableRecord"
 90
        1
280
               0
281
               0
  0
CLASS
  1
LAYOUT
  2
AcDbLayout
  3
"AutoCAD 2000"
 90
        1
280
               0
281
               0
  0
CLASS
  1
PLOTSETTINGS
  2
AcDbPlotSettings
  3
"AutoCAD 2000"
 90
        1
280
               0
281
               0
  0
CLASS
  1
ACDBDICTIONARYWDFLT
  2
AcDbDictionaryWithDefault
  3
"AutoCAD 2000"
 90
        1
280
               0
281
               0
  0
CLASS
  1
ACDBPLACEHOLDER
  2
AcDbPlaceHolder
  3
"AutoCAD 2000"
 90
        1
280
               0
281
               0
  0
ENDSEC
  0
SECTION
  2
TABLES
  0
TABLE
  2
VPORT
  5
7
100
AcDbSymbolTable
 70
               1
  0
VPORT
  5
15
100
AcDbSymbolTableRecord
100
AcDbViewportTableRecord
  2
*ACTIVE
 70
               0
 10
0.0
 20
0.0
 11
1.0
 21
1.0
 12
1.0111770323545386
 22
-0.4499969482421875
 13
0.0
 23
0.0
 14
1.0
 24
1.0
 15
0.0
 25
0.0
 16
0.0
 26
0.0
 36
1.0
 17
0.0
 27
0.0
 37
0.0
 40
268.76100616455079
 41
1.7320508075688772
 42
50.0
 43
0.0
 44
0.0
 50
0.0
 51
0.0
 71
               0
 72
             100
 73
               1
 74
               1
 75
               0
 76
               0
 77
               0
 78
               0
  0
ENDTAB
  0
TABLE
  2
LTYPE
  5
4
100
AcDbSymbolTable
 70
               6
  0
LTYPE
  5
11
100
AcDbSymbolTableRecord
100
AcDbLinetypeTableRecord
  2
BYBLOCK
 70
              64
  3

 72
              65
 73
               0
 40
0.0
  0
LTYPE
  5
12
100
AcDbSymbolTableRecord
100
AcDbLinetypeTableRecord
  2
BYLAYER
 70
              64
  3

 72
              65
 73
               0
 40
0.0
  0
LTYPE
  5
13
100
AcDbSymbolTableRecord
100
AcDbLinetypeTableRecord
  2
CONTINUOUS
 70
              64
  3
Solid line
 72
              65
 73
               0
 40
0.0
  0
LTYPE
  5
22
100
AcDbSymbolTableRecord
100
AcDbLinetypeTableRecord
  2
CENTER
 70
              64
  3
Center ____ _ ____ _ ____ _ ____ _ ____ _ ____
 72
              65
 73
               4
 40
26.0
 49
20.0
 74
               0
 49
-2.0
 74
               0
 49
2.0
 74
               0
 49
-2.0
 74
               0
  0
LTYPE
  5
24
100
AcDbSymbolTableRecord
100
AcDbLinetypeTableRecord
  2
DASHED
 70
              64
  3
Dashed __ __ __ __ __ __ __ __ __ __ __ __ __ _
 72
              65
 73
               2
 40
4.0
 49
2.0
 74
               0
 49
-2.0
 74
               0
  0
LTYPE
  5
2DE
100
AcDbSymbolTableRecord
100
AcDbLinetypeTableRecord
  2
PHANTOM
 70
              64
  3
Phantom ______  __  __  ______  __  __  ______
 72
              65
 73
               6
 40
30.0
 49
20.0
 74
               0
 49
-2.0
 74
               0
 49
2.0
 74
               0
 49
-2.0
 74
               0
 49
2.0
 74
               0
 49
-2.0
 74
               0
  0
ENDTAB
  0
TABLE
  2
LAYER
  5
2
100
AcDbSymbolTable
 70
               2
  0
LAYER
  5
14
100
AcDbSymbolTableRecord
100
AcDbLayerTableRecord
  2
0
 70
               0
 62
               7
  6
CONTINUOUS
  0
LAYER
  5
1D
100
AcDbSymbolTableRecord
100
AcDbLayerTableRecord
  2
DEFPOINTS
 70
               0
 62
               7
  6
CONTINUOUS
  0
ENDTAB
  0
TABLE
  2
STYLE
  5
3
100
AcDbSymbolTable
 70
               1
  0
STYLE
  5
17
100
AcDbSymbolTableRecord
100
AcDbTextStyleTableRecord
  2
MX_NOTE_STANDARD
 70
               0
 40
0.0
 41
1.0
 50
0.0
 71
               0
 42
3.2000000476837158
  3
txt.shx
  4
extfont.shx
  0
ENDTAB
  0
TABLE
  2
VIEW
  5
5
100
AcDbSymbolTable
 70
               0
  0
ENDTAB
  0
TABLE
  2
UCS
  5
6
100
AcDbSymbolTable
 70
               0
  0
ENDTAB
  0
TABLE
  2
APPID
  5
8
100
AcDbSymbolTable
 70
               1
  0
APPID
  5
16
100
AcDbSymbolTableRecord
100
AcDbRegAppTableRecord
  2
ACAD
 70
               0
  0
ENDTAB
  0
TABLE
  2
DIMSTYLE
  5
9
100
AcDbSymbolTable
 70
               1
  0
DIMSTYLE
105
18
100
AcDbSymbolTableRecord
100
AcDbDimStyleTableRecord
  2
MXDIMSTYLE
 70
               0
  3

  4

  5

  6

  7

 40
1.0
 41
2.5
 42
1.5
 43
3.75
 44
1.5
 45
0.0
 46
0.0
 47
0.0
 48
0.0
 71
               0
 72
               0
 73
               0
 74
               0
 75
               0
 76
               0
 77
               1
 78
               8
140
3.2000000476837158
141
2.5
142
0.0
143
0.03937007874016
144
1.0
145
0.0
146
1.0
147
1.0
170
               0
171
               4
172
               1
173
               0
174
               0
175
               0
176
               0
177
               0
178
               0
270
               2
271
               4
272
               4
273
               2
274
               4
275
               0
280
               0
281
               0
282
               0
283
               1
284
               0
285
               0
286
               0
287
               3
288
               1
340
17
  0
ENDTAB
  0
TABLE
  2
BLOCK_RECORD
  5
1
100
AcDbSymbolTable
 70
               3
  0
BLOCK_RECORD
  5
A
100
AcDbSymbolTableRecord
100
AcDbBlockTableRecord
  2
*MODEL_SPACE
  0
BLOCK_RECORD
  5
B
100
AcDbSymbolTableRecord
100
AcDbBlockTableRecord
  2
*PAPER_SPACE
  0
BLOCK_RECORD
  5
1E
100
AcDbSymbolTableRecord
100
AcDbBlockTableRecord
  2
NCT-MV-CUB8-1
  0
BLOCK_RECORD
  5
1F
100
AcDbSymbolTableRecord
100
AcDbBlockTableRecord
  2
NCT-MV-CUB8-2
  0
BLOCK_RECORD
  5
20
100
AcDbSymbolTableRecord
100
AcDbBlockTableRecord
  2
NCT-MV-CUB8-3
  0
ENDTAB
  0
ENDSEC
  0
SECTION
  2
BLOCKS
  0
BLOCK
  5
D
100
AcDbEntity
  8
0
100
AcDbBlockBegin
  2
*MODEL_SPACE
 70
               0
 10
0.0
 20
0.0
 30
0.0
  3
*MODEL_SPACE
  1

  0
ENDBLK
  5
E
100
AcDbEntity
  8
0
100
AcDbBlockEnd
  0
BLOCK
  5
F
100
AcDbEntity
 67
               1
  8
0
100
AcDbBlockBegin
  2
*PAPER_SPACE
 70
               0
 10
0.0
 20
0.0
 30
0.0
  3
*PAPER_SPACE
  1

  0
ENDBLK
  5
10
100
AcDbEntity
 67
               1
  8
0
100
AcDbBlockEnd
  0
BLOCK
  5
21
100
AcDbEntity
  8
0
100
AcDbBlockBegin
  2
NCT-MV-CUB8-1
 70
               0
 10
0.0
 20
0.0
 30
0.0
  3
NCT-MV-CUB8-1
  1

  0
LINE
  5
23
100
AcDbEntity
  8
0
  6
CENTER
 62
               2
100
AcDbLine
 10
49.370000000000005
 20
65.400302384023988
 30
0.0
 11
49.370000000000005
 21
-69.865454873758438
 31
0.0
  0
LINE
  5
25
100
AcDbEntity
  8
0
  6
DASHED
 62
               7
100
AcDbLine
 10
18.054072341668018
 20
17.852058071186363
 30
0.0
 11
18.539221863176323
 21
17.852058071186363
 31
0.0
  0
LINE
  5
26
100
AcDbEntity
  8
0
  6
DASHED
 62
               7
100
AcDbLine
 10
18.539221863176323
 20
17.366908549678172
 30
0.0
 11
18.054072341668018
 21
17.366908549678172
 31
0.0
  0
LINE
  5
27
100
AcDbEntity
  8
0
  6
DASHED
 62
               7
100
AcDbLine
 10
15.589512772406522
 20
17.366908549678172
 30
0.0
 11
16.074662293914713
 21
17.366908549678172
 31
0.0
  0
LINE
  5
28
100
AcDbEntity
  8
0
  6
DASHED
 62
               7
100
AcDbLine
 10
16.074662293914713
 20
17.852058071186363
 30
0.0
 11
15.589512772406522
 21
17.852058071186363
 31
0.0
  0
LINE
  5
29
100
AcDbEntity
  8
0
  6
DASHED
 62
               7
100
AcDbLine
 10
18.539221863176323
 20
17.852058071186363
 30
0.0
 11
18.539221863176323
 21
17.366908549678172
 31
0.0
  0
LINE
  5
2A
100
AcDbEntity
  8
0
  6
DASHED
 62
               7
100
AcDbLine
 10
18.054072341668018
 20
17.852058071186363
 30
0.0
 11
18.054072341668018
 21
17.366908549678172
 31
0.0
  0
LINE
  5
2B
100
AcDbEntity
  8
0
  6
DASHED
 62
               7
100
AcDbLine
 10
16.074662293914713
 20
17.852058071186363
 30
0.0
 11
16.074662293914713
 21
17.366908549678172
 31
0.0
  0
LINE
  5
2C
100
AcDbEntity
  8
0
  6
DASHED
 62
               7
100
AcDbLine
 10
15.589512772406522
 20
17.852058071186363
 30
0.0
 11
15.589512772406522
 21
17.366908549678172
 31
0.0
  0
LINE
  5
2D
100
AcDbEntity
  8
0
  6
CONTINUOUS
 62
               7
100
AcDbLine
 10
15.589512772406522
 20
20.316617456017127
 30
0.0
 11
16.074662293914713
 21
20.316617456017127
 31
0.0
  0
LINE
  5
2E
100
AcDbEntity
  8
0
  6
CONTINUOUS
 62
               7
100
AcDbLine
 10
16.074662293914713
 20
19.831467934508936
 30
0.0
 11
15.589512772406522
 21
19.831467934508936
 31
0.0
  0
LINE
  5
2F
100
AcDbEntity
  8
0
  6
CONTINUOUS
 62
               7
100
AcDbLine
 10
18.054072341668018
 20
20.316617456017127
 30
0.0
 11
18.539221863176323
 21
20.316617456017127
 31
0.0
  0
LINE
  5
30
100
AcDbEntity
  8
0
  6
CONTINUOUS
 62
               7
100
AcDbLine
 10
18.054072341668018
 20
19.831467934508936
 30
0.0
 11
18.539221863176323
 21
19.831467934508936
 31
0.0
  0
LINE
  5
31
100
AcDbEntity
  8
0
  6
CONTINUOUS
 62
               7
100
AcDbLine
 10
18.054072341668018
 20
20.316617456017127
 30
0.0
 11
18.054072341668018
 21
19.831467934508936
 31
0.0
  0
LINE
  5
32
100
AcDbEntity
  8
0
  6
CONTINUOUS
 62
               7
100
AcDbLine
 10
18.539221863176323
 20
20.316617456017127
 30
0.0
 11
18.539221863176323
 21
19.831467934508936
 31
0.0
  0
LINE
  5
33
100
AcDbEntity
  8
0
  6
CONTINUOUS
 62
               7
100
AcDbLine
 10
16.074662293914713
 20
19.831467934508936
 30
0.0
 11
16.074662293914713
 21
20.316617456017127
 31
0.0
  0
LINE
  5
34
100
AcDbEntity
  8
0
  6
CONTINUOUS
 62
               7
100
AcDbLine
 10
15.589512772406522
 20
20.316617456017127
 30
0.0
 11
15.589512772406522
 21
19.831467934508936
 31
0.0
  0
LINE
  5
35
100
AcDbEntity
  8
0
  6
CONTINUOUS
 62
               7
100
AcDbLine
 10
15.589512772406522
 20
22.781177056017128
 30
0.0
 11
16.074662293914713
 21
22.781177056017128
 31
0.0
  0
LINE
  5
36
100
AcDbEntity
  8
0
  6
CONTINUOUS
 62
               7
100
AcDbLine
 10
16.074662293914713
 20
22.296027534508937
 30
0.0
 11
15.589512772406522
 21
22.296027534508937
 31
0.0
  0
LINE
  5
37
100
AcDbEntity
  8
0
  6
CONTINUOUS
 62
               7
100
AcDbLine
 10
18.054072341668018
 20
22.781177056017128
 30
0.0
 11
18.539221863176323
 21
22.781177056017128
 31
0.0
  0
LINE
  5
38
100
AcDbEntity
  8
0
  6
CONTINUOUS
 62
               7
100
AcDbLine
 10
18.054072341668018
 20
22.296027534508937
 30
0.0
 11
18.539221863176323
 21
22.296027534508937
 31
0.0
  0
LINE
  5
39
100
AcDbEntity
  8
0
  6
CONTINUOUS
 62
               7
100
AcDbLine
 10
18.054072341668018
 20
22.781177056017128
 30
0.0
 11
18.054072341668018
 21
22.296027534508937
 31
0.0
  0
LINE
  5
3A
100
AcDbEntity
  8
0
  6
CONTINUOUS
 62
               7
100
AcDbLine
 10
18.539221863176323
 20
22.781177056017128
 30
0.0
 11
18.539221863176323
 21
22.296027534508937
 31
0.0
  0
LINE
  5
3B
100
AcDbEntity
  8
0
  6
CONTINUOUS
 62
               7
100
AcDbLine
 10
16.074662293914713
 20
22.296027534508937
 30
0.0
 11
16.074662293914713
 21
22.781177056017128
 31
0.0
  0
LINE
  5
3C
100
AcDbEntity
  8
0
  6
CONTINUOUS
 62
               7
100
AcDbLine
 10
15.589512772406522
 20
22.781177056017128
 30
0.0
 11
15.589512772406522
 21
22.296027534508937
 31
0.0
  0
LINE
  5
3D
100
AcDbEntity
  8
0
  6
CONTINUOUS
 62
               7
100
AcDbLine
 10
15.589512772406522
 20
25.245736656017129
 30
0.0
 11
16.074662293914713
 21
25.245736656017129
 31
0.0
  0
LINE
  5
3E
100
AcDbEntity
  8
0
  6
CONTINUOUS
 62
               7
100
AcDbLine
 10
16.074662293914713
 20
24.760587134508938
 30
0.0
 11
15.589512772406522
 21
24.760587134508938
 31
0.0
  0
LINE
  5
3F
100
AcDbEntity
  8
0
  6
CONTINUOUS
 62
               7
100
AcDbLine
 10
18.054072341668018
 20
25.245736656017129
 30
0.0
 11
18.539221863176323
 21
25.245736656017129
 31
0.0
  0
LINE
  5
40
100
AcDbEntity
  8
0
  6
CONTINUOUS
 62
               7
100
AcDbLine
 10
18.054072341668018
 20
24.760587134508938
 30
0.0
 11
18.539221863176323
 21
24.760587134508938
 31
0.0
  0
LINE
  5
41
100
AcDbEntity
  8
0
  6
CONTINUOUS
 62
               7
100
AcDbLine
 10
18.054072341668018
 20
25.245736656017129
 30
0.0
 11
18.054072341668018
 21
24.760587134508938
 31
0.0
  0
LINE
  5
42
100
AcDbEntity
  8
0
  6
CONTINUOUS
 62
               7
100
AcDbLine
 10
18.539221863176323
 20
25.245736656017129
 30
0.0
 11
18.539221863176323
 21
24.760587134508938
 31
0.0
  0
LINE
  5
43
100
AcDbEntity
  8
0
  6
CONTINUOUS
 62
               7
100
AcDbLine
 10
16.074662293914713
 20
24.760587134508938
 30
0.0
 11
16.074662293914713
 21
25.245736656017129
 31
0.0
  0
LINE
  5
44
100
AcDbEntity
  8
0
  6
CONTINUOUS
 62
               7
100
AcDbLine
 10
15.589512772406522
 20
25.245736656017129
 30
0.0
 11
15.589512772406522
 21
24.760587134508938
 31
0.0
  0
LINE
  5
45
100
AcDbEntity
  8
0
  6
CONTINUOUS
 62
               7
100
AcDbLine
 10
15.589512772406522
 20
27.710296256017131
 30
0.0
 11
16.074662293914713
 21
27.710296256017131
 31
0.0
  0
LINE
  5
46
100
AcDbEntity
  8
0
  6
CONTINUOUS
 62
               7
100
AcDbLine
 10
16.074662293914713
 20
27.22514673450894
 30
0.0
 11
15.589512772406522
 21
27.22514673450894
 31
0.0
  0
LINE
  5
47
100
AcDbEntity
  8
0
  6
CONTINUOUS
 62
               7
100
AcDbLine
 10
18.054072341668018
 20
27.710296256017131
 30
0.0
 11
18.539221863176323
 21
27.710296256017131
 31
0.0
  0
LINE
  5
48
100
AcDbEntity
  8
0
  6
CONTINUOUS
 62
               7
100
AcDbLine
 10
18.054072341668018
 20
27.22514673450894
 30
0.0
 11
18.539221863176323
 21
27.22514673450894
 31
0.0
  0
LINE
  5
49
100
AcDbEntity
  8
0
  6
CONTINUOUS
 62
               7
100
AcDbLine
 10
18.054072341668018
 20
27.710296256017131
 30
0.0
 11
18.054072341668018
 21
27.22514673450894
 31
0.0
  0
LINE
  5
4A
100
AcDbEntity
  8
0
  6
CONTINUOUS
 62
               7
100
AcDbLine
 10
18.539221863176323
 20
27.710296256017131
 30
0.0
 11
18.539221863176323
 21
27.22514673450894
 31
0.0
  0
LINE
  5
4B
100
AcDbEntity
  8
0
  6
CONTINUOUS
 62
               7
100
AcDbLine
 10
16.074662293914713
 20
27.22514673450894
 30
0.0
 11
16.074662293914713
 21
27.710296256017131
 31
0.0
  0
LINE
  5
4C
100
AcDbEntity
  8
0
  6
CONTINUOUS
 62
               7
100
AcDbLine
 10
15.589512772406522
 20
27.710296256017131
 30
0.0
 11
15.589512772406522
 21
27.22514673450894
 31
0.0
  0
LINE
  5
4D
100
AcDbEntity
  8
0
  6
CONTINUOUS
 62
               7
100
AcDbLine
 10
15.589512772406522
 20
30.174855856017132
 30
0.0
 11
16.074662293914713
 21
30.174855856017132
 31
0.0
  0
LINE
  5
4E
100
AcDbEntity
  8
0
  6
CONTINUOUS
 62
               7
100
AcDbLine
 10
16.074662293914713
 20
29.689706334508941
 30
0.0
 11
15.589512772406522
 21
29.689706334508941
 31
0.0
  0
LINE
  5
4F
100
AcDbEntity
  8
0
  6
CONTINUOUS
 62
               7
100
AcDbLine
 10
18.054072341668018
 20
30.174855856017132
 30
0.0
 11
18.539221863176323
 21
30.174855856017132
 31
0.0
  0
LINE
  5
50
100
AcDbEntity
  8
0
  6
CONTINUOUS
 62
               7
100
AcDbLine
 10
18.054072341668018
 20
29.689706334508941
 30
0.0
 11
18.539221863176323
 21
29.689706334508941
 31
0.0
  0
LINE
  5
51
100
AcDbEntity
  8
0
  6
CONTINUOUS
 62
               7
100
AcDbLine
 10
18.054072341668018
 20
30.174855856017132
 30
0.0
 11
18.054072341668018
 21
29.689706334508941
 31
0.0
  0
LINE
  5
52
100
AcDbEntity
  8
0
  6
CONTINUOUS
 62
               7
100
AcDbLine
 10
18.539221863176323
 20
30.174855856017132
 30
0.0
 11
18.539221863176323
 21
29.689706334508941
 31
0.0
  0
LINE
  5
53
100
AcDbEntity
  8
0
  6
CONTINUOUS
 62
               7
100
AcDbLine
 10
16.074662293914713
 20
29.689706334508941
 30
0.0
 11
16.074662293914713
 21
30.174855856017132
 31
0.0
  0
LINE
  5
54
100
AcDbEntity
  8
0
  6
CONTINUOUS
 62
               7
100
AcDbLine
 10
15.589512772406522
 20
30.174855856017132
 30
0.0
 11
15.589512772406522
 21
29.689706334508941
 31
0.0
  0
LINE
  5
55
100
AcDbEntity
  8
0
  6
CONTINUOUS
 62
               7
100
AcDbLine
 10
15.589512772406522
 20
32.639415456017133
 30
0.0
 11
16.074662293914713
 21
32.639415456017133
 31
0.0
  0
LINE
  5
56
100
AcDbEntity
  8
0
  6
CONTINUOUS
 62
               7
100
AcDbLine
 10
16.074662293914713
 20
32.154265934508942
 30
0.0
 11
15.589512772406522
 21
32.154265934508942
 31
0.0
  0
LINE
  5
57
100
AcDbEntity
  8
0
  6
CONTINUOUS
 62
               7
100
AcDbLine
 10
18.054072341668018
 20
32.639415456017133
 30
0.0
 11
18.539221863176323
 21
32.639415456017133
 31
0.0
  0
LINE
  5
58
100
AcDbEntity
  8
0
  6
CONTINUOUS
 62
               7
100
AcDbLine
 10
18.054072341668018
 20
32.154265934508942
 30
0.0
 11
18.539221863176323
 21
32.154265934508942
 31
0.0
  0
LINE
  5
59
100
AcDbEntity
  8
0
  6
CONTINUOUS
 62
               7
100
AcDbLine
 10
18.054072341668018
 20
32.639415456017133
 30
0.0
 11
18.054072341668018
 21
32.154265934508942
 31
0.0
  0
LINE
  5
5A
100
AcDbEntity
  8
0
  6
CONTINUOUS
 62
               7
100
AcDbLine
 10
18.539221863176323
 20
32.639415456017133
 30
0.0
 11
18.539221863176323
 21
32.154265934508942
 31
0.0
  0
LINE
  5
5B
100
AcDbEntity
  8
0
  6
CONTINUOUS
 62
               7
100
AcDbLine
 10
16.074662293914713
 20
32.154265934508942
 30
0.0
 11
16.074662293914713
 21
32.639415456017133
 31
0.0
  0
LINE
  5
5C
100
AcDbEntity
  8
0
  6
CONTINUOUS
 62
               7
100
AcDbLine
 10
15.589512772406522
 20
32.639415456017133
 30
0.0
 11
15.589512772406522
 21
32.154265934508942
 31
0.0
  0
LINE
  5
5D
100
AcDbEntity
  8
0
  6
CONTINUOUS
 62
               7
100
AcDbLine
 10
15.589512772406522
 20
35.103975056017134
 30
0.0
 11
16.074662293914713
 21
35.103975056017134
 31
0.0
  0
LINE
  5
5E
100
AcDbEntity
  8
0
  6
CONTINUOUS
 62
               7
100
AcDbLine
 10
16.074662293914713
 20
34.618825534508943
 30
0.0
 11
15.589512772406522
 21
34.618825534508943
 31
0.0
  0
LINE
  5
5F
100
AcDbEntity
  8
0
  6
CONTINUOUS
 62
               7
100
AcDbLine
 10
18.054072341668018
 20
35.103975056017134
 30
0.0
 11
18.539221863176323
 21
35.103975056017134
 31
0.0
  0
LINE
  5
60
100
AcDbEntity
  8
0
  6
CONTINUOUS
 62
               7
100
AcDbLine
 10
18.054072341668018
 20
34.618825534508943
 30
0.0
 11
18.539221863176323
 21
34.618825534508943
 31
0.0
  0
LINE
  5
61
100
AcDbEntity
  8
0
  6
CONTINUOUS
 62
               7
100
AcDbLine
 10
18.054072341668018
 20
35.103975056017134
 30
0.0
 11
18.054072341668018
 21
34.618825534508943
 31
0.0
  0
LINE
  5
62
100
AcDbEntity
  8
0
  6
CONTINUOUS
 62
               7
100
AcDbLine
 10
18.539221863176323
 20
35.103975056017134
 30
0.0
 11
18.539221863176323
 21
34.618825534508943
 31
0.0
  0
LINE
  5
63
100
AcDbEntity
  8
0
  6
CONTINUOUS
 62
               7
100
AcDbLine
 10
16.074662293914713
 20
34.618825534508943
 30
0.0
 11
16.074662293914713
 21
35.103975056017134
 31
0.0
  0
LINE
  5
64
100
AcDbEntity
  8
0
  6
CONTINUOUS
 62
               7
100
AcDbLine
 10
15.589512772406522
 20
35.103975056017134
 30
0.0
 11
15.589512772406522
 21
34.618825534508943
 31
0.0
  0
LINE
  5
65
100
AcDbEntity
  8
0
  6
DASHED
 62
               7
100
AcDbLine
 10
15.589512772406522
 20
40.033094194540325
 30
0.0
 11
15.589512772406522
 21
39.547944673032134
 31
0.0
  0
LINE
  5
66
100
AcDbEntity
  8
0
  6
DASHED
 62
               7
100
AcDbLine
 10
16.074662293914713
 20
40.033094194540325
 30
0.0
 11
16.074662293914713
 21
39.547944673032134
 31
0.0
  0
LINE
  5
67
100
AcDbEntity
  8
0
  6
CONTINUOUS
 62
               7
100
AcDbLine
 10
15.589512772406522
 20
37.568534625278744
 30
0.0
 11
15.589512772406522
 21
37.083385103770553
 31
0.0
  0
LINE
  5
68
100
AcDbEntity
  8
0
  6
CONTINUOUS
 62
               7
100
AcDbLine
 10
16.074662293914713
 20
37.083385103770553
 30
0.0
 11
16.074662293914713
 21
37.568534625278744
 31
0.0
  0
LINE
  5
69
100
AcDbEntity
  8
0
  6
CONTINUOUS
 62
               7
100
AcDbLine
 10
18.539221863176323
 20
37.568534625278744
 30
0.0
 11
18.539221863176323
 21
37.083385103770553
 31
0.0
  0
LINE
  5
6A
100
AcDbEntity
  8
0
  6
CONTINUOUS
 62
               7
100
AcDbLine
 10
18.054072341668018
 20
37.568534625278744
 30
0.0
 11
18.054072341668018
 21
37.083385103770553
 31
0.0
  0
LINE
  5
6B
100
AcDbEntity
  8
0
  6
DASHED
 62
               7
100
AcDbLine
 10
18.054072341668018
 20
40.033094194540325
 30
0.0
 11
18.054072341668018
 21
39.547944673032134
 31
0.0
  0
LINE
  5
6C
100
AcDbEntity
  8
0
  6
DASHED
 62
               7
100
AcDbLine
 10
18.539221863176323
 20
40.033094194540325
 30
0.0
 11
18.539221863176323
 21
39.547944673032134
 31
0.0
  0
LINE
  5
6D
100
AcDbEntity
  8
0
  6
CONTINUOUS
 62
               7
100
AcDbLine
 10
18.054072341668018
 20
37.083385103770553
 30
0.0
 11
18.539221863176323
 21
37.083385103770553
 31
0.0
  0
LINE
  5
6E
100
AcDbEntity
  8
0
  6
CONTINUOUS
 62
               7
100
AcDbLine
 10
18.054072341668018
 20
37.568534625278744
 30
0.0
 11
18.539221863176323
 21
37.568534625278744
 31
0.0
  0
LINE
  5
6F
100
AcDbEntity
  8
0
  6
CONTINUOUS
 62
               7
100
AcDbLine
 10
16.074662293914713
 20
37.083385103770553
 30
0.0
 11
15.589512772406522
 21
37.083385103770553
 31
0.0
  0
LINE
  5
70
100
AcDbEntity
  8
0
  6
CONTINUOUS
 62
               7
100
AcDbLine
 10
15.589512772406522
 20
37.568534625278744
 30
0.0
 11
16.074662293914713
 21
37.568534625278744
 31
0.0
  0
LINE
  5
71
100
AcDbEntity
  8
0
  6
DASHED
 62
               7
100
AcDbLine
 10
16.074662293914713
 20
40.033094194540325
 30
0.0
 11
15.589512772406522
 21
40.033094194540325
 31
0.0
  0
LINE
  5
72
100
AcDbEntity
  8
0
  6
DASHED
 62
               7
100
AcDbLine
 10
15.589512772406522
 20
39.547944673032134
 30
0.0
 11
16.074662293914713
 21
39.547944673032134
 31
0.0
  0
LINE
  5
73
100
AcDbEntity
  8
0
  6
DASHED
 62
               7
100
AcDbLine
 10
18.539221863176323
 20
39.547944673032134
 30
0.0
 11
18.054072341668018
 21
39.547944673032134
 31
0.0
  0
LINE
  5
74
100
AcDbEntity
  8
0
  6
DASHED
 62
               7
100
AcDbLine
 10
18.054072341668018
 20
40.033094194540325
 30
0.0
 11
18.539221863176323
 21
40.033094194540325
 31
0.0
  0
LINE
  5
75
100
AcDbEntity
  8
0
  6
CONTINUOUS
 62
               7
100
AcDbLine
 10
82.695038655562087
 20
20.316617456017127
 30
0.0
 11
83.180188177070164
 21
20.316617456017127
 31
0.0
  0
LINE
  5
76
100
AcDbEntity
  8
0
  6
CONTINUOUS
 62
               7
100
AcDbLine
 10
82.695038655562087
 20
19.831467934508936
 30
0.0
 11
83.180188177070164
 21
19.831467934508936
 31
0.0
  0
LINE
  5
77
100
AcDbEntity
  8
0
  6
CONTINUOUS
 62
               7
100
AcDbLine
 10
80.230479086300505
 20
19.831467934508936
 30
0.0
 11
80.715628607808696
 21
19.831467934508936
 31
0.0
  0
LINE
  5
78
100
AcDbEntity
  8
0
  6
CONTINUOUS
 62
               7
100
AcDbLine
 10
80.230479086300505
 20
20.316617456017127
 30
0.0
 11
80.715628607808696
 21
20.316617456017127
 31
0.0
  0
LINE
  5
79
100
AcDbEntity
  8
0
  6
CONTINUOUS
 62
               7
100
AcDbLine
 10
82.695038655562087
 20
20.316617456017127
 30
0.0
 11
82.695038655562087
 21
19.831467934508936
 31
0.0
  0
LINE
  5
7A
100
AcDbEntity
  8
0
  6
CONTINUOUS
 62
               7
100
AcDbLine
 10
83.180188177070164
 20
20.316617456017127
 30
0.0
 11
83.180188177070164
 21
19.831467934508936
 31
0.0
  0
LINE
  5
7B
100
AcDbEntity
  8
0
  6
CONTINUOUS
 62
               7
100
AcDbLine
 10
80.715628607808696
 20
19.831467934508936
 30
0.0
 11
80.715628607808696
 21
20.316617456017127
 31
0.0
  0
LINE
  5
7C
100
AcDbEntity
  8
0
  6
CONTINUOUS
 62
               7
100
AcDbLine
 10
80.230479086300505
 20
20.316617456017127
 30
0.0
 11
80.230479086300505
 21
19.831467934508936
 31
0.0
  0
LINE
  5
7D
100
AcDbEntity
  8
0
  6
CONTINUOUS
 62
               7
100
AcDbLine
 10
82.695038655562087
 20
22.781177056017128
 30
0.0
 11
83.180188177070164
 21
22.781177056017128
 31
0.0
  0
LINE
  5
7E
100
AcDbEntity
  8
0
  6
CONTINUOUS
 62
               7
100
AcDbLine
 10
82.695038655562087
 20
22.296027534508937
 30
0.0
 11
83.180188177070164
 21
22.296027534508937
 31
0.0
  0
LINE
  5
7F
100
AcDbEntity
  8
0
  6
CONTINUOUS
 62
               7
100
AcDbLine
 10
80.230479086300505
 20
22.296027534508937
 30
0.0
 11
80.715628607808696
 21
22.296027534508937
 31
0.0
  0
LINE
  5
80
100
AcDbEntity
  8
0
  6
CONTINUOUS
 62
               7
100
AcDbLine
 10
80.230479086300505
 20
22.781177056017128
 30
0.0
 11
80.715628607808696
 21
22.781177056017128
 31
0.0
  0
LINE
  5
81
100
AcDbEntity
  8
0
  6
CONTINUOUS
 62
               7
100
AcDbLine
 10
82.695038655562087
 20
22.781177056017128
 30
0.0
 11
82.695038655562087
 21
22.296027534508937
 31
0.0
  0
LINE
  5
82
100
AcDbEntity
  8
0
  6
CONTINUOUS
 62
               7
100
AcDbLine
 10
83.180188177070164
 20
22.781177056017128
 30
0.0
 11
83.180188177070164
 21
22.296027534508937
 31
0.0
  0
LINE
  5
83
100
AcDbEntity
  8
0
  6
CONTINUOUS
 62
               7
100
AcDbLine
 10
80.715628607808696
 20
22.296027534508937
 30
0.0
 11
80.715628607808696
 21
22.781177056017128
 31
0.0
  0
LINE
  5
84
100
AcDbEntity
  8
0
  6
CONTINUOUS
 62
               7
100
AcDbLine
 10
80.230479086300505
 20
22.781177056017128
 30
0.0
 11
80.230479086300505
 21
22.296027534508937
 31
0.0
  0
LINE
  5
85
100
AcDbEntity
  8
0
  6
CONTINUOUS
 62
               7
100
AcDbLine
 10
82.695038655562087
 20
25.245736656017129
 30
0.0
 11
83.180188177070164
 21
25.245736656017129
 31
0.0
  0
LINE
  5
86
100
AcDbEntity
  8
0
  6
CONTINUOUS
 62
               7
100
AcDbLine
 10
82.695038655562087
 20
24.760587134508938
 30
0.0
 11
83.180188177070164
 21
24.760587134508938
 31
0.0
  0
LINE
  5
87
100
AcDbEntity
  8
0
  6
CONTINUOUS
 62
               7
100
AcDbLine
 10
80.230479086300505
 20
24.760587134508938
 30
0.0
 11
80.715628607808696
 21
24.760587134508938
 31
0.0
  0
LINE
  5
88
100
AcDbEntity
  8
0
  6
CONTINUOUS
 62
               7
100
AcDbLine
 10
80.230479086300505
 20
25.245736656017129
 30
0.0
 11
80.715628607808696
 21
25.245736656017129
 31
0.0
  0
LINE
  5
89
100
AcDbEntity
  8
0
  6
CONTINUOUS
 62
               7
100
AcDbLine
 10
82.695038655562087
 20
25.245736656017129
 30
0.0
 11
82.695038655562087
 21
24.760587134508938
 31
0.0
  0
LINE
  5
8A
100
AcDbEntity
  8
0
  6
CONTINUOUS
 62
               7
100
AcDbLine
 10
83.180188177070164
 20
25.245736656017129
 30
0.0
 11
83.180188177070164
 21
24.760587134508938
 31
0.0
  0
LINE
  5
8B
100
AcDbEntity
  8
0
  6
CONTINUOUS
 62
               7
100
AcDbLine
 10
80.715628607808696
 20
24.760587134508938
 30
0.0
 11
80.715628607808696
 21
25.245736656017129
 31
0.0
  0
LINE
  5
8C
100
AcDbEntity
  8
0
  6
CONTINUOUS
 62
               7
100
AcDbLine
 10
80.230479086300505
 20
25.245736656017129
 30
0.0
 11
80.230479086300505
 21
24.760587134508938
 31
0.0
  0
LINE
  5
8D
100
AcDbEntity
  8
0
  6
CONTINUOUS
 62
               7
100
AcDbLine
 10
82.695038655562087
 20
27.710296256017131
 30
0.0
 11
83.180188177070164
 21
27.710296256017131
 31
0.0
  0
LINE
  5
8E
100
AcDbEntity
  8
0
  6
CONTINUOUS
 62
               7
100
AcDbLine
 10
82.695038655562087
 20
27.22514673450894
 30
0.0
 11
83.180188177070164
 21
27.22514673450894
 31
0.0
  0
LINE
  5
8F
100
AcDbEntity
  8
0
  6
CONTINUOUS
 62
               7
100
AcDbLine
 10
80.230479086300505
 20
27.22514673450894
 30
0.0
 11
80.715628607808696
 21
27.22514673450894
 31
0.0
  0
LINE
  5
90
100
AcDbEntity
  8
0
  6
CONTINUOUS
 62
               7
100
AcDbLine
 10
80.230479086300505
 20
27.710296256017131
 30
0.0
 11
80.715628607808696
 21
27.710296256017131
 31
0.0
  0
LINE
  5
91
100
AcDbEntity
  8
0
  6
CONTINUOUS
 62
               7
100
AcDbLine
 10
82.695038655562087
 20
27.710296256017131
 30
0.0
 11
82.695038655562087
 21
27.22514673450894
 31
0.0
  0
LINE
  5
92
100
AcDbEntity
  8
0
  6
CONTINUOUS
 62
               7
100
AcDbLine
 10
83.180188177070164
 20
27.710296256017131
 30
0.0
 11
83.180188177070164
 21
27.22514673450894
 31
0.0
  0
LINE
  5
93
100
AcDbEntity
  8
0
  6
CONTINUOUS
 62
               7
100
AcDbLine
 10
80.715628607808696
 20
27.22514673450894
 30
0.0
 11
80.715628607808696
 21
27.710296256017131
 31
0.0
  0
LINE
  5
94
100
AcDbEntity
  8
0
  6
CONTINUOUS
 62
               7
100
AcDbLine
 10
80.230479086300505
 20
27.710296256017131
 30
0.0
 11
80.230479086300505
 21
27.22514673450894
 31
0.0
  0
LINE
  5
95
100
AcDbEntity
  8
0
  6
CONTINUOUS
 62
               7
100
AcDbLine
 10
82.695038655562087
 20
30.174855856017132
 30
0.0
 11
83.180188177070164
 21
30.174855856017132
 31
0.0
  0
LINE
  5
96
100
AcDbEntity
  8
0
  6
CONTINUOUS
 62
               7
100
AcDbLine
 10
82.695038655562087
 20
29.689706334508941
 30
0.0
 11
83.180188177070164
 21
29.689706334508941
 31
0.0
  0
LINE
  5
97
100
AcDbEntity
  8
0
  6
CONTINUOUS
 62
               7
100
AcDbLine
 10
80.230479086300505
 20
29.689706334508941
 30
0.0
 11
80.715628607808696
 21
29.689706334508941
 31
0.0
  0
LINE
  5
98
100
AcDbEntity
  8
0
  6
CONTINUOUS
 62
               7
100
AcDbLine
 10
80.230479086300505
 20
30.174855856017132
 30
0.0
 11
80.715628607808696
 21
30.174855856017132
 31
0.0
  0
LINE
  5
99
100
AcDbEntity
  8
0
  6
CONTINUOUS
 62
               7
100
AcDbLine
 10
82.695038655562087
 20
30.174855856017132
 30
0.0
 11
82.695038655562087
 21
29.689706334508941
 31
0.0
  0
LINE
  5
9A
100
AcDbEntity
  8
0
  6
CONTINUOUS
 62
               7
100
AcDbLine
 10
83.180188177070164
 20
30.174855856017132
 30
0.0
 11
83.180188177070164
 21
29.689706334508941
 31
0.0
  0
LINE
  5
9B
100
AcDbEntity
  8
0
  6
CONTINUOUS
 62
               7
100
AcDbLine
 10
80.715628607808696
 20
29.689706334508941
 30
0.0
 11
80.715628607808696
 21
30.174855856017132
 31
0.0
  0
LINE
  5
9C
100
AcDbEntity
  8
0
  6
CONTINUOUS
 62
               7
100
AcDbLine
 10
80.230479086300505
 20
30.174855856017132
 30
0.0
 11
80.230479086300505
 21
29.689706334508941
 31
0.0
  0
LINE
  5
9D
100
AcDbEntity
  8
0
  6
CONTINUOUS
 62
               7
100
AcDbLine
 10
82.695038655562087
 20
32.639415456017133
 30
0.0
 11
83.180188177070164
 21
32.639415456017133
 31
0.0
  0
LINE
  5
9E
100
AcDbEntity
  8
0
  6
CONTINUOUS
 62
               7
100
AcDbLine
 10
82.695038655562087
 20
32.154265934508942
 30
0.0
 11
83.180188177070164
 21
32.154265934508942
 31
0.0
  0
LINE
  5
9F
100
AcDbEntity
  8
0
  6
CONTINUOUS
 62
               7
100
AcDbLine
 10
80.230479086300505
 20
32.154265934508942
 30
0.0
 11
80.715628607808696
 21
32.154265934508942
 31
0.0
  0
LINE
  5
A0
100
AcDbEntity
  8
0
  6
CONTINUOUS
 62
               7
100
AcDbLine
 10
80.230479086300505
 20
32.639415456017133
 30
0.0
 11
80.715628607808696
 21
32.639415456017133
 31
0.0
  0
LINE
  5
A1
100
AcDbEntity
  8
0
  6
CONTINUOUS
 62
               7
100
AcDbLine
 10
82.695038655562087
 20
32.639415456017133
 30
0.0
 11
82.695038655562087
 21
32.154265934508942
 31
0.0
  0
LINE
  5
A2
100
AcDbEntity
  8
0
  6
CONTINUOUS
 62
               7
100
AcDbLine
 10
83.180188177070164
 20
32.639415456017133
 30
0.0
 11
83.180188177070164
 21
32.154265934508942
 31
0.0
  0
LINE
  5
A3
100
AcDbEntity
  8
0
  6
CONTINUOUS
 62
               7
100
AcDbLine
 10
80.715628607808696
 20
32.154265934508942
 30
0.0
 11
80.715628607808696
 21
32.639415456017133
 31
0.0
  0
LINE
  5
A4
100
AcDbEntity
  8
0
  6
CONTINUOUS
 62
               7
100
AcDbLine
 10
80.230479086300505
 20
32.639415456017133
 30
0.0
 11
80.230479086300505
 21
32.154265934508942
 31
0.0
  0
LINE
  5
A5
100
AcDbEntity
  8
0
  6
CONTINUOUS
 62
               7
100
AcDbLine
 10
82.695038655562087
 20
35.103975056017134
 30
0.0
 11
83.180188177070164
 21
35.103975056017134
 31
0.0
  0
LINE
  5
A6
100
AcDbEntity
  8
0
  6
CONTINUOUS
 62
               7
100
AcDbLine
 10
82.695038655562087
 20
34.618825534508943
 30
0.0
 11
83.180188177070164
 21
34.618825534508943
 31
0.0
  0
LINE
  5
A7
100
AcDbEntity
  8
0
  6
CONTINUOUS
 62
               7
100
AcDbLine
 10
80.230479086300505
 20
34.618825534508943
 30
0.0
 11
80.715628607808696
 21
34.618825534508943
 31
0.0
  0
LINE
  5
A8
100
AcDbEntity
  8
0
  6
CONTINUOUS
 62
               7
100
AcDbLine
 10
80.230479086300505
 20
35.103975056017134
 30
0.0
 11
80.715628607808696
 21
35.103975056017134
 31
0.0
  0
LINE
  5
A9
100
AcDbEntity
  8
0
  6
CONTINUOUS
 62
               7
100
AcDbLine
 10
82.695038655562087
 20
35.103975056017134
 30
0.0
 11
82.695038655562087
 21
34.618825534508943
 31
0.0
  0
LINE
  5
AA
100
AcDbEntity
  8
0
  6
CONTINUOUS
 62
               7
100
AcDbLine
 10
83.180188177070164
 20
35.103975056017134
 30
0.0
 11
83.180188177070164
 21
34.618825534508943
 31
0.0
  0
LINE
  5
AB
100
AcDbEntity
  8
0
  6
CONTINUOUS
 62
               7
100
AcDbLine
 10
80.715628607808696
 20
34.618825534508943
 30
0.0
 11
80.715628607808696
 21
35.103975056017134
 31
0.0
  0
LINE
  5
AC
100
AcDbEntity
  8
0
  6
CONTINUOUS
 62
               7
100
AcDbLine
 10
80.230479086300505
 20
35.103975056017134
 30
0.0
 11
80.230479086300505
 21
34.618825534508943
 31
0.0
  0
LINE
  5
AD
100
AcDbEntity
  8
0
  6
CONTINUOUS
 62
               7
100
AcDbLine
 10
80.230479086300505
 20
37.568534625278744
 30
0.0
 11
80.230479086300505
 21
37.083385103770553
 31
0.0
  0
LINE
  5
AE
100
AcDbEntity
  8
0
  6
CONTINUOUS
 62
               7
100
AcDbLine
 10
80.715628607808696
 20
37.083385103770553
 30
0.0
 11
80.715628607808696
 21
37.568534625278744
 31
0.0
  0
LINE
  5
AF
100
AcDbEntity
  8
0
  6
CONTINUOUS
 62
               7
100
AcDbLine
 10
83.180188177070164
 20
37.568534625278744
 30
0.0
 11
83.180188177070164
 21
37.083385103770553
 31
0.0
  0
LINE
  5
B0
100
AcDbEntity
  8
0
  6
CONTINUOUS
 62
               7
100
AcDbLine
 10
82.695038655562087
 20
37.568534625278744
 30
0.0
 11
82.695038655562087
 21
37.083385103770553
 31
0.0
  0
LINE
  5
B1
100
AcDbEntity
  8
0
  6
CONTINUOUS
 62
               7
100
AcDbLine
 10
80.230479086300505
 20
37.568534625278744
 30
0.0
 11
80.715628607808696
 21
37.568534625278744
 31
0.0
  0
LINE
  5
B2
100
AcDbEntity
  8
0
  6
CONTINUOUS
 62
               7
100
AcDbLine
 10
80.230479086300505
 20
37.083385103770553
 30
0.0
 11
80.715628607808696
 21
37.083385103770553
 31
0.0
  0
LINE
  5
B3
100
AcDbEntity
  8
0
  6
CONTINUOUS
 62
               7
100
AcDbLine
 10
82.695038655562087
 20
37.083385103770553
 30
0.0
 11
83.180188177070164
 21
37.083385103770553
 31
0.0
  0
LINE
  5
B4
100
AcDbEntity
  8
0
  6
CONTINUOUS
 62
               7
100
AcDbLine
 10
82.695038655562087
 20
37.568534625278744
 30
0.0
 11
83.180188177070164
 21
37.568534625278744
 31
0.0
  0
LINE
  5
B5
100
AcDbEntity
  8
0
  6
CONTINUOUS
 62
               7
100
AcDbLine
 10
82.695038655562087
 20
-28.330335667697518
 30
0.0
 11
83.180188177070164
 21
-28.330335667697518
 31
0.0
  0
LINE
  5
B6
100
AcDbEntity
  8
0
  6
CONTINUOUS
 62
               7
100
AcDbLine
 10
83.180188177070164
 20
-28.815485189205738
 30
0.0
 11
82.695038655562087
 21
-28.815485189205738
 31
0.0
  0
LINE
  5
B7
100
AcDbEntity
  8
0
  6
CONTINUOUS
 62
               7
100
AcDbLine
 10
80.715628607808696
 20
-28.815485189205738
 30
0.0
 11
80.230479086300505
 21
-28.815485189205738
 31
0.0
  0
LINE
  5
B8
100
AcDbEntity
  8
0
  6
CONTINUOUS
 62
               7
100
AcDbLine
 10
80.230479086300505
 20
-28.330335667697518
 30
0.0
 11
80.715628607808696
 21
-28.330335667697518
 31
0.0
  0
LINE
  5
B9
100
AcDbEntity
  8
0
  6
CONTINUOUS
 62
               7
100
AcDbLine
 10
83.180188177070164
 20
-28.330335667697518
 30
0.0
 11
83.180188177070164
 21
-28.815485189205738
 31
0.0
  0
LINE
  5
BA
100
AcDbEntity
  8
0
  6
CONTINUOUS
 62
               7
100
AcDbLine
 10
82.695038655562087
 20
-28.815485189205738
 30
0.0
 11
82.695038655562087
 21
-28.330335667697518
 31
0.0
  0
LINE
  5
BB
100
AcDbEntity
  8
0
  6
CONTINUOUS
 62
               7
100
AcDbLine
 10
80.715628607808696
 20
-28.815485189205738
 30
0.0
 11
80.715628607808696
 21
-28.330335667697518
 31
0.0
  0
LINE
  5
BC
100
AcDbEntity
  8
0
  6
CONTINUOUS
 62
               7
100
AcDbLine
 10
80.230479086300505
 20
-28.330335667697518
 30
0.0
 11
80.230479086300505
 21
-28.815485189205738
 31
0.0
  0
LINE
  5
BD
100
AcDbEntity
  8
0
  6
CONTINUOUS
 62
               7
100
AcDbLine
 10
82.695038655562087
 20
-25.865776067697517
 30
0.0
 11
83.180188177070164
 21
-25.865776067697517
 31
0.0
  0
LINE
  5
BE
100
AcDbEntity
  8
0
  6
CONTINUOUS
 62
               7
100
AcDbLine
 10
83.180188177070164
 20
-26.350925589205737
 30
0.0
 11
82.695038655562087
 21
-26.350925589205737
 31
0.0
  0
LINE
  5
BF
100
AcDbEntity
  8
0
  6
CONTINUOUS
 62
               7
100
AcDbLine
 10
80.715628607808696
 20
-26.350925589205737
 30
0.0
 11
80.230479086300505
 21
-26.350925589205737
 31
0.0
  0
LINE
  5
C0
100
AcDbEntity
  8
0
  6
CONTINUOUS
 62
               7
100
AcDbLine
 10
80.230479086300505
 20
-25.865776067697517
 30
0.0
 11
80.715628607808696
 21
-25.865776067697517
 31
0.0
  0
LINE
  5
C1
100
AcDbEntity
  8
0
  6
CONTINUOUS
 62
               7
100
AcDbLine
 10
83.180188177070164
 20
-25.865776067697517
 30
0.0
 11
83.180188177070164
 21
-26.350925589205737
 31
0.0
  0
LINE
  5
C2
100
AcDbEntity
  8
0
  6
CONTINUOUS
 62
               7
100
AcDbLine
 10
82.695038655562087
 20
-26.350925589205737
 30
0.0
 11
82.695038655562087
 21
-25.865776067697517
 31
0.0
  0
LINE
  5
C3
100
AcDbEntity
  8
0
  6
CONTINUOUS
 62
               7
100
AcDbLine
 10
80.715628607808696
 20
-26.350925589205737
 30
0.0
 11
80.715628607808696
 21
-25.865776067697517
 31
0.0
  0
LINE
  5
C4
100
AcDbEntity
  8
0
  6
CONTINUOUS
 62
               7
100
AcDbLine
 10
80.230479086300505
 20
-25.865776067697517
 30
0.0
 11
80.230479086300505
 21
-26.350925589205737
 31
0.0
  0
LINE
  5
C5
100
AcDbEntity
  8
0
  6
CONTINUOUS
 62
               7
100
AcDbLine
 10
82.695038655562087
 20
-23.401216467697516
 30
0.0
 11
83.180188177070164
 21
-23.401216467697516
 31
0.0
  0
LINE
  5
C6
100
AcDbEntity
  8
0
  6
CONTINUOUS
 62
               7
100
AcDbLine
 10
83.180188177070164
 20
-23.886365989205736
 30
0.0
 11
82.695038655562087
 21
-23.886365989205736
 31
0.0
  0
LINE
  5
C7
100
AcDbEntity
  8
0
  6
CONTINUOUS
 62
               7
100
AcDbLine
 10
80.715628607808696
 20
-23.886365989205736
 30
0.0
 11
80.230479086300505
 21
-23.886365989205736
 31
0.0
  0
LINE
  5
C8
100
AcDbEntity
  8
0
  6
CONTINUOUS
 62
               7
100
AcDbLine
 10
80.230479086300505
 20
-23.401216467697516
 30
0.0
 11
80.715628607808696
 21
-23.401216467697516
 31
0.0
  0
LINE
  5
C9
100
AcDbEntity
  8
0
  6
CONTINUOUS
 62
               7
100
AcDbLine
 10
83.180188177070164
 20
-23.401216467697516
 30
0.0
 11
83.180188177070164
 21
-23.886365989205736
 31
0.0
  0
LINE
  5
CA
100
AcDbEntity
  8
0
  6
CONTINUOUS
 62
               7
100
AcDbLine
 10
82.695038655562087
 20
-23.886365989205736
 30
0.0
 11
82.695038655562087
 21
-23.401216467697516
 31
0.0
  0
LINE
  5
CB
100
AcDbEntity
  8
0
  6
CONTINUOUS
 62
               7
100
AcDbLine
 10
80.715628607808696
 20
-23.886365989205736
 30
0.0
 11
80.715628607808696
 21
-23.401216467697516
 31
0.0
  0
LINE
  5
CC
100
AcDbEntity
  8
0
  6
CONTINUOUS
 62
               7
100
AcDbLine
 10
80.230479086300505
 20
-23.401216467697516
 30
0.0
 11
80.230479086300505
 21
-23.886365989205736
 31
0.0
  0
LINE
  5
CD
100
AcDbEntity
  8
0
  6
CONTINUOUS
 62
               7
100
AcDbLine
 10
82.695038655562087
 20
-20.936656867697518
 30
0.0
 11
83.180188177070164
 21
-20.936656867697518
 31
0.0
  0
LINE
  5
CE
100
AcDbEntity
  8
0
  6
CONTINUOUS
 62
               7
100
AcDbLine
 10
83.180188177070164
 20
-21.421806389205738
 30
0.0
 11
82.695038655562087
 21
-21.421806389205738
 31
0.0
  0
LINE
  5
CF
100
AcDbEntity
  8
0
  6
CONTINUOUS
 62
               7
100
AcDbLine
 10
80.715628607808696
 20
-21.421806389205738
 30
0.0
 11
80.230479086300505
 21
-21.421806389205738
 31
0.0
  0
LINE
  5
D0
100
AcDbEntity
  8
0
  6
CONTINUOUS
 62
               7
100
AcDbLine
 10
80.230479086300505
 20
-20.936656867697518
 30
0.0
 11
80.715628607808696
 21
-20.936656867697518
 31
0.0
  0
LINE
  5
D1
100
AcDbEntity
  8
0
  6
CONTINUOUS
 62
               7
100
AcDbLine
 10
83.180188177070164
 20
-20.936656867697518
 30
0.0
 11
83.180188177070164
 21
-21.421806389205738
 31
0.0
  0
LINE
  5
D2
100
AcDbEntity
  8
0
  6
CONTINUOUS
 62
               7
100
AcDbLine
 10
82.695038655562087
 20
-21.421806389205738
 30
0.0
 11
82.695038655562087
 21
-20.936656867697518
 31
0.0
  0
LINE
  5
D3
100
AcDbEntity
  8
0
  6
CONTINUOUS
 62
               7
100
AcDbLine
 10
80.715628607808696
 20
-21.421806389205738
 30
0.0
 11
80.715628607808696
 21
-20.936656867697518
 31
0.0
  0
LINE
  5
D4
100
AcDbEntity
  8
0
  6
CONTINUOUS
 62
               7
100
AcDbLine
 10
80.230479086300505
 20
-20.936656867697518
 30
0.0
 11
80.230479086300505
 21
-21.421806389205738
 31
0.0
  0
LINE
  5
D5
100
AcDbEntity
  8
0
  6
CONTINUOUS
 62
               7
100
AcDbLine
 10
82.695038655562087
 20
-18.472097267697521
 30
0.0
 11
83.180188177070164
 21
-18.472097267697521
 31
0.0
  0
LINE
  5
D6
100
AcDbEntity
  8
0
  6
CONTINUOUS
 62
               7
100
AcDbLine
 10
83.180188177070164
 20
-18.95724678920574
 30
0.0
 11
82.695038655562087
 21
-18.95724678920574
 31
0.0
  0
LINE
  5
D7
100
AcDbEntity
  8
0
  6
CONTINUOUS
 62
               7
100
AcDbLine
 10
80.715628607808696
 20
-18.95724678920574
 30
0.0
 11
80.230479086300505
 21
-18.95724678920574
 31
0.0
  0
LINE
  5
D8
100
AcDbEntity
  8
0
  6
CONTINUOUS
 62
               7
100
AcDbLine
 10
80.230479086300505
 20
-18.472097267697521
 30
0.0
 11
80.715628607808696
 21
-18.472097267697521
 31
0.0
  0
LINE
  5
D9
100
AcDbEntity
  8
0
  6
CONTINUOUS
 62
               7
100
AcDbLine
 10
83.180188177070164
 20
-18.472097267697521
 30
0.0
 11
83.180188177070164
 21
-18.95724678920574
 31
0.0
  0
LINE
  5
DA
100
AcDbEntity
  8
0
  6
CONTINUOUS
 62
               7
100
AcDbLine
 10
82.695038655562087
 20
-18.95724678920574
 30
0.0
 11
82.695038655562087
 21
-18.472097267697521
 31
0.0
  0
LINE
  5
DB
100
AcDbEntity
  8
0
  6
CONTINUOUS
 62
               7
100
AcDbLine
 10
80.715628607808696
 20
-18.95724678920574
 30
0.0
 11
80.715628607808696
 21
-18.472097267697521
 31
0.0
  0
LINE
  5
DC
100
AcDbEntity
  8
0
  6
CONTINUOUS
 62
               7
100
AcDbLine
 10
80.230479086300505
 20
-18.472097267697521
 30
0.0
 11
80.230479086300505
 21
-18.95724678920574
 31
0.0
  0
LINE
  5
DD
100
AcDbEntity
  8
0
  6
CONTINUOUS
 62
               7
100
AcDbLine
 10
82.695038655562087
 20
-16.00753766769752
 30
0.0
 11
83.180188177070164
 21
-16.00753766769752
 31
0.0
  0
LINE
  5
DE
100
AcDbEntity
  8
0
  6
CONTINUOUS
 62
               7
100
AcDbLine
 10
83.180188177070164
 20
-16.492687189205739
 30
0.0
 11
82.695038655562087
 21
-16.492687189205739
 31
0.0
  0
LINE
  5
DF
100
AcDbEntity
  8
0
  6
CONTINUOUS
 62
               7
100
AcDbLine
 10
80.715628607808696
 20
-16.492687189205739
 30
0.0
 11
80.230479086300505
 21
-16.492687189205739
 31
0.0
  0
LINE
  5
E0
100
AcDbEntity
  8
0
  6
CONTINUOUS
 62
               7
100
AcDbLine
 10
80.230479086300505
 20
-16.00753766769752
 30
0.0
 11
80.715628607808696
 21
-16.00753766769752
 31
0.0
  0
LINE
  5
E1
100
AcDbEntity
  8
0
  6
CONTINUOUS
 62
               7
100
AcDbLine
 10
83.180188177070164
 20
-16.00753766769752
 30
0.0
 11
83.180188177070164
 21
-16.492687189205739
 31
0.0
  0
LINE
  5
E2
100
AcDbEntity
  8
0
  6
CONTINUOUS
 62
               7
100
AcDbLine
 10
82.695038655562087
 20
-16.492687189205739
 30
0.0
 11
82.695038655562087
 21
-16.00753766769752
 31
0.0
  0
LINE
  5
E3
100
AcDbEntity
  8
0
  6
CONTINUOUS
 62
               7
100
AcDbLine
 10
80.715628607808696
 20
-16.492687189205739
 30
0.0
 11
80.715628607808696
 21
-16.00753766769752
 31
0.0
  0
LINE
  5
E4
100
AcDbEntity
  8
0
  6
CONTINUOUS
 62
               7
100
AcDbLine
 10
80.230479086300505
 20
-16.00753766769752
 30
0.0
 11
80.230479086300505
 21
-16.492687189205739
 31
0.0
  0
LINE
  5
E5
100
AcDbEntity
  8
0
  6
CONTINUOUS
 62
               7
100
AcDbLine
 10
82.695038655562087
 20
-13.542978098435995
 30
0.0
 11
83.180188177070164
 21
-13.542978098435995
 31
0.0
  0
LINE
  5
E6
100
AcDbEntity
  8
0
  6
CONTINUOUS
 62
               7
100
AcDbLine
 10
83.180188177070164
 20
-14.028127619944215
 30
0.0
 11
82.695038655562087
 21
-14.028127619944215
 31
0.0
  0
LINE
  5
E7
100
AcDbEntity
  8
0
  6
CONTINUOUS
 62
               7
100
AcDbLine
 10
80.715628607808696
 20
-14.028127619944215
 30
0.0
 11
80.230479086300505
 21
-14.028127619944215
 31
0.0
  0
LINE
  5
E8
100
AcDbEntity
  8
0
  6
CONTINUOUS
 62
               7
100
AcDbLine
 10
80.230479086300505
 20
-13.542978098435995
 30
0.0
 11
80.715628607808696
 21
-13.542978098435995
 31
0.0
  0
LINE
  5
E9
100
AcDbEntity
  8
0
  6
CONTINUOUS
 62
               7
100
AcDbLine
 10
83.180188177070164
 20
-13.542978098435995
 30
0.0
 11
83.180188177070164
 21
-14.028127619944215
 31
0.0
  0
LINE
  5
EA
100
AcDbEntity
  8
0
  6
CONTINUOUS
 62
               7
100
AcDbLine
 10
82.695038655562087
 20
-14.028127619944215
 30
0.0
 11
82.695038655562087
 21
-13.542978098435995
 31
0.0
  0
LINE
  5
EB
100
AcDbEntity
  8
0
  6
CONTINUOUS
 62
               7
100
AcDbLine
 10
80.715628607808696
 20
-14.028127619944215
 30
0.0
 11
80.715628607808696
 21
-13.542978098435995
 31
0.0
  0
LINE
  5
EC
100
AcDbEntity
  8
0
  6
CONTINUOUS
 62
               7
100
AcDbLine
 10
80.230479086300505
 20
-13.542978098435995
 30
0.0
 11
80.230479086300505
 21
-14.028127619944215
 31
0.0
  0
LINE
  5
ED
100
AcDbEntity
  8
0
  6
CONTINUOUS
 62
               7
100
AcDbLine
 10
80.230479086300505
 20
-11.078418529174428
 30
0.0
 11
80.230479086300505
 21
-11.563568050682647
 31
0.0
  0
LINE
  5
EE
100
AcDbEntity
  8
0
  6
CONTINUOUS
 62
               7
100
AcDbLine
 10
80.715628607808696
 20
-11.563568050682647
 30
0.0
 11
80.715628607808696
 21
-11.078418529174428
 31
0.0
  0
LINE
  5
EF
100
AcDbEntity
  8
0
  6
CONTINUOUS
 62
               7
100
AcDbLine
 10
82.695038655562087
 20
-11.563568050682647
 30
0.0
 11
82.695038655562087
 21
-11.078418529174428
 31
0.0
  0
LINE
  5
F0
100
AcDbEntity
  8
0
  6
CONTINUOUS
 62
               7
100
AcDbLine
 10
83.180188177070164
 20
-11.078418529174428
 30
0.0
 11
83.180188177070164
 21
-11.563568050682647
 31
0.0
  0
LINE
  5
F1
100
AcDbEntity
  8
0
  6
CONTINUOUS
 62
               7
100
AcDbLine
 10
80.230479086300505
 20
-11.078418529174428
 30
0.0
 11
80.715628607808696
 21
-11.078418529174428
 31
0.0
  0
LINE
  5
F2
100
AcDbEntity
  8
0
  6
CONTINUOUS
 62
               7
100
AcDbLine
 10
80.715628607808696
 20
-11.563568050682647
 30
0.0
 11
80.230479086300505
 21
-11.563568050682647
 31
0.0
  0
LINE
  5
F3
100
AcDbEntity
  8
0
  6
CONTINUOUS
 62
               7
100
AcDbLine
 10
83.180188177070164
 20
-11.563568050682647
 30
0.0
 11
82.695038655562087
 21
-11.563568050682647
 31
0.0
  0
LINE
  5
F4
100
AcDbEntity
  8
0
  6
CONTINUOUS
 62
               7
100
AcDbLine
 10
82.695038655562087
 20
-11.078418529174428
 30
0.0
 11
83.180188177070164
 21
-11.078418529174428
 31
0.0
  0
LINE
  5
F5
100
AcDbEntity
  8
0
  6
CONTINUOUS
 62
               7
100
AcDbLine
 10
29.019999097821483
 20
-58.050002473786662
 30
0.0
 11
29.019999097821483
 21
-62.05000265111903
 31
0.0
  0
LINE
  5
F6
100
AcDbEntity
  8
0
  6
CONTINUOUS
 62
               7
100
AcDbLine
 10
59.020000427814352
 20
-58.050002473786662
 30
0.0
 11
59.020000427814352
 21
-62.05000265111903
 31
0.0
  0
LINE
  5
F7
100
AcDbEntity
  8
0
  6
CONTINUOUS
 62
               7
100
AcDbLine
 10
29.019999097821483
 20
-62.05000265111903
 30
0.0
 11
59.020000427814352
 21
-62.05000265111903
 31
0.0
  0
LINE
  5
F8
100
AcDbEntity
  8
0
  6
CONTINUOUS
 62
               7
100
AcDbLine
 10
29.019999097821483
 20
-58.050002473786662
 30
0.0
 11
59.020000427814352
 21
-58.050002473786662
 31
0.0
  0
LINE
  5
F9
100
AcDbEntity
  8
0
  6
CONTINUOUS
 62
               7
100
AcDbLine
 10
31.299999198900991
 20
52.350002420586932
 30
0.0
 11
31.299999198900991
 21
55.350002553586208
 31
0.0
  0
LINE
  5
FA
100
AcDbEntity
  8
0
  6
CONTINUOUS
 62
               7
100
AcDbLine
 10
34.799999354066813
 20
55.350002553586208
 30
0.0
 11
34.799999354066813
 21
52.350002420586932
 31
0.0
  0
LINE
  5
FB
100
AcDbEntity
  8
0
  6
CONTINUOUS
 62
               7
100
AcDbLine
 10
34.799999354066813
 20
52.350002420586932
 30
0.0
 11
31.299999198900991
 21
52.350002420586932
 31
0.0
  0
LINE
  5
FC
100
AcDbEntity
  8
0
  6
CONTINUOUS
 62
               7
100
AcDbLine
 10
31.299999198900991
 20
55.350002553586208
 30
0.0
 11
34.799999354066813
 21
55.350002553586208
 31
0.0
  0
LINE
  5
FD
100
AcDbEntity
  8
0
  6
CONTINUOUS
 62
               7
100
AcDbLine
 10
37.649999480416113
 20
26.550001276793068
 30
0.0
 11
41.649999657748481
 21
26.550001276793068
 31
0.0
  0
LINE
  5
FE
100
AcDbEntity
  8
0
  6
CONTINUOUS
 62
               7
100
AcDbLine
 10
37.649999480416113
 20
28.550001365459309
 30
0.0
 11
41.649999657748481
 21
28.550001365459309
 31
0.0
  0
LINE
  5
FF
100
AcDbEntity
  8
0
  6
CONTINUOUS
 62
               7
100
AcDbLine
 10
36.649999436083021
 20
29.550001409792401
 30
0.0
 11
36.649999436083021
 21
25.550001232460033
 31
0.0
  0
LINE
  5
100
100
AcDbEntity
  8
0
  6
CONTINUOUS
 62
               7
100
AcDbLine
 10
37.649999480416113
 20
26.550001276793068
 30
0.0
 11
37.649999480416113
 21
28.550001365459309
 31
0.0
  0
LINE
  5
101
100
AcDbEntity
  8
0
  6
CONTINUOUS
 62
               7
100
AcDbLine
 10
41.649999657748481
 20
28.550001365459309
 30
0.0
 11
41.649999657748481
 21
26.550001276793068
 31
0.0
  0
LINE
  5
102
100
AcDbEntity
  8
0
  6
CONTINUOUS
 62
               7
100
AcDbLine
 10
42.649999702081573
 20
25.550001232460033
 30
0.0
 11
42.649999702081573
 21
29.550001409792401
 31
0.0
  0
LINE
  5
103
100
AcDbEntity
  8
0
  6
CONTINUOUS
 62
               7
100
AcDbLine
 10
47.649999923747032
 20
29.550001409792401
 30
0.0
 11
47.649999923747032
 21
25.550001232460033
 31
0.0
  0
LINE
  5
104
100
AcDbEntity
  8
0
  6
CONTINUOUS
 62
               7
100
AcDbLine
 10
48.649999968080124
 20
26.550001276793068
 30
0.0
 11
48.649999968080124
 21
28.550001365459309
 31
0.0
  0
LINE
  5
105
100
AcDbEntity
  8
0
  6
CONTINUOUS
 62
               7
100
AcDbLine
 10
52.650000145412491
 20
28.550001365459309
 30
0.0
 11
52.650000145412491
 21
26.550001276793068
 31
0.0
  0
LINE
  5
106
100
AcDbEntity
  8
0
  6
CONTINUOUS
 62
               7
100
AcDbLine
 10
53.650000189745583
 20
25.550001232460033
 30
0.0
 11
53.650000189745583
 21
29.550001409792401
 31
0.0
  0
LINE
  5
107
100
AcDbEntity
  8
0
  6
CONTINUOUS
 62
               7
100
AcDbLine
 10
64.650000677409594
 20
29.550001409792401
 30
0.0
 11
64.650000677409594
 21
25.550001232460033
 31
0.0
  0
LINE
  5
108
100
AcDbEntity
  8
0
  6
CONTINUOUS
 62
               7
100
AcDbLine
 10
58.650000411411042
 20
25.550001232460033
 30
0.0
 11
58.650000411411042
 21
29.550001409792401
 31
0.0
  0
LINE
  5
109
100
AcDbEntity
  8
0
  6
CONTINUOUS
 62
               7
100
AcDbLine
 10
59.650000455744134
 20
28.550001365459309
 30
0.0
 11
59.650000455744134
 21
26.550001276793068
 31
0.0
  0
LINE
  5
10A
100
AcDbEntity
  8
0
  6
CONTINUOUS
 62
               7
100
AcDbLine
 10
63.650000633076502
 20
28.550001365459309
 30
0.0
 11
63.650000633076502
 21
26.550001276793068
 31
0.0
  0
LINE
  5
10B
100
AcDbEntity
  8
0
  6
CONTINUOUS
 62
               7
100
AcDbLine
 10
58.650000411411042
 20
25.550001232460033
 30
0.0
 11
64.650000677409594
 21
25.550001232460033
 31
0.0
  0
LINE
  5
10C
100
AcDbEntity
  8
0
  6
CONTINUOUS
 62
               7
100
AcDbLine
 10
42.649999702081573
 20
25.550001232460033
 30
0.0
 11
36.649999436083021
 21
25.550001232460033
 31
0.0
  0
LINE
  5
10D
100
AcDbEntity
  8
0
  6
CONTINUOUS
 62
               7
100
AcDbLine
 10
47.649999923747032
 20
25.550001232460033
 30
0.0
 11
53.650000189745583
 21
25.550001232460033
 31
0.0
  0
LINE
  5
10E
100
AcDbEntity
  8
0
  6
CONTINUOUS
 62
               7
100
AcDbLine
 10
52.650000145412491
 20
26.550001276793068
 30
0.0
 11
48.649999968080124
 21
26.550001276793068
 31
0.0
  0
LINE
  5
10F
100
AcDbEntity
  8
0
  6
CONTINUOUS
 62
               7
100
AcDbLine
 10
48.649999968080124
 20
28.550001365459309
 30
0.0
 11
52.650000145412491
 21
28.550001365459309
 31
0.0
  0
LINE
  5
110
100
AcDbEntity
  8
0
  6
CONTINUOUS
 62
               7
100
AcDbLine
 10
59.650000455744134
 20
26.550001276793068
 30
0.0
 11
63.650000633076502
 21
26.550001276793068
 31
0.0
  0
LINE
  5
111
100
AcDbEntity
  8
0
  6
CONTINUOUS
 62
               7
100
AcDbLine
 10
59.650000455744134
 20
28.550001365459309
 30
0.0
 11
63.650000633076502
 21
28.550001365459309
 31
0.0
  0
LINE
  5
112
100
AcDbEntity
  8
0
  6
CONTINUOUS
 62
               7
100
AcDbLine
 10
58.650000411411042
 20
29.550001409792401
 30
0.0
 11
64.650000677409594
 21
29.550001409792401
 31
0.0
  0
LINE
  5
113
100
AcDbEntity
  8
0
  6
CONTINUOUS
 62
               7
100
AcDbLine
 10
47.649999923747032
 20
29.550001409792401
 30
0.0
 11
53.650000189745583
 21
29.550001409792401
 31
0.0
  0
LINE
  5
114
100
AcDbEntity
  8
0
  6
CONTINUOUS
 62
               7
100
AcDbLine
 10
36.649999436083021
 20
29.550001409792401
 30
0.0
 11
42.649999702081573
 21
29.550001409792401
 31
0.0
  0
LINE
  5
115
100
AcDbEntity
  8
0
  6
CONTINUOUS
 62
               7
100
AcDbLine
 10
60.800000533327108
 20
19.850000979761376
 30
0.0
 11
60.800000533327108
 21
12.65000066056308
 31
0.0
  0
LINE
  5
116
100
AcDbEntity
  8
0
  6
CONTINUOUS
 62
               7
100
AcDbLine
 10
68.000000852525346
 20
19.850000979761376
 30
0.0
 11
68.000000852525346
 21
12.65000066056308
 31
0.0
  0
LINE
  5
117
100
AcDbEntity
  8
0
  6
CONTINUOUS
 62
               7
100
AcDbLine
 10
60.800000533327108
 20
12.65000066056308
 30
0.0
 11
68.000000852525346
 21
12.65000066056308
 31
0.0
  0
LINE
  5
118
100
AcDbEntity
  8
0
  6
CONTINUOUS
 62
               7
100
AcDbLine
 10
60.800000533327108
 20
19.850000979761376
 30
0.0
 11
68.000000852525346
 21
19.850000979761376
 31
0.0
  0
LINE
  5
119
100
AcDbEntity
  8
0
  6
CONTINUOUS
 62
               7
100
AcDbLine
 10
15.589512772406522
 20
-31.383081955427301
 30
0.0
 11
15.589512772406522
 21
-30.897932433919109
 31
0.0
  0
LINE
  5
11A
100
AcDbEntity
  8
0
  6
CONTINUOUS
 62
               7
100
AcDbLine
 10
16.074662293914713
 20
-30.897932433919109
 30
0.0
 11
16.074662293914713
 21
-31.383081955427301
 31
0.0
  0
LINE
  5
11B
100
AcDbEntity
  8
0
  6
CONTINUOUS
 62
               7
100
AcDbLine
 10
18.054072341668018
 20
-31.383081955427301
 30
0.0
 11
18.054072341668018
 21
-30.897932433919109
 31
0.0
  0
LINE
  5
11C
100
AcDbEntity
  8
0
  6
CONTINUOUS
 62
               7
100
AcDbLine
 10
18.539221863176323
 20
-30.897932433919109
 30
0.0
 11
18.539221863176323
 21
-31.383081955427301
 31
0.0
  0
LINE
  5
11D
100
AcDbEntity
  8
0
  6
CONTINUOUS
 62
               7
100
AcDbLine
 10
18.054072341668018
 20
-31.383081955427301
 30
0.0
 11
18.539221863176323
 21
-31.383081955427301
 31
0.0
  0
LINE
  5
11E
100
AcDbEntity
  8
0
  6
CONTINUOUS
 62
               7
100
AcDbLine
 10
18.054072341668018
 20
-30.897932433919109
 30
0.0
 11
18.539221863176323
 21
-30.897932433919109
 31
0.0
  0
LINE
  5
11F
100
AcDbEntity
  8
0
  6
CONTINUOUS
 62
               7
100
AcDbLine
 10
15.589512772406522
 20
-31.383081955427301
 30
0.0
 11
16.074662293914713
 21
-31.383081955427301
 31
0.0
  0
LINE
  5
120
100
AcDbEntity
  8
0
  6
CONTINUOUS
 62
               7
100
AcDbLine
 10
15.589512772406522
 20
-30.897932433919109
 30
0.0
 11
16.074662293914713
 21
-30.897932433919109
 31
0.0
  0
LINE
  5
121
100
AcDbEntity
  8
0
  6
DASHED
 62
               7
100
AcDbLine
 10
15.589512772406522
 20
-9.2020458320733951
 30
0.0
 11
15.589512772406522
 21
-8.716896310565204
 31
0.0
  0
LINE
  5
122
100
AcDbEntity
  8
0
  6
DASHED
 62
               7
100
AcDbLine
 10
16.074662293914713
 20
-8.716896310565204
 30
0.0
 11
16.074662293914713
 21
-9.2020458320733951
 31
0.0
  0
LINE
  5
123
100
AcDbEntity
  8
0
  6
DASHED
 62
               7
100
AcDbLine
 10
18.054072341668018
 20
-8.716896310565204
 30
0.0
 11
18.054072341668018
 21
-9.2020458320733951
 31
0.0
  0
LINE
  5
124
100
AcDbEntity
  8
0
  6
DASHED
 62
               7
100
AcDbLine
 10
18.539221863176323
 20
-8.716896310565204
 30
0.0
 11
18.539221863176323
 21
-9.2020458320733951
 31
0.0
  0
LINE
  5
125
100
AcDbEntity
  8
0
  6
DASHED
 62
               7
100
AcDbLine
 10
16.074662293914713
 20
-9.2020458320733951
 30
0.0
 11
15.589512772406522
 21
-9.2020458320733951
 31
0.0
  0
LINE
  5
126
100
AcDbEntity
  8
0
  6
DASHED
 62
               7
100
AcDbLine
 10
18.539221863176323
 20
-9.2020458320733951
 30
0.0
 11
18.054072341668018
 21
-9.2020458320733951
 31
0.0
  0
LINE
  5
127
100
AcDbEntity
  8
0
  6
DASHED
 62
               7
100
AcDbLine
 10
18.054072341668018
 20
-8.716896310565204
 30
0.0
 11
18.539221863176323
 21
-8.716896310565204
 31
0.0
  0
LINE
  5
128
100
AcDbEntity
  8
0
  6
DASHED
 62
               7
100
AcDbLine
 10
15.589512772406522
 20
-8.716896310565204
 30
0.0
 11
16.074662293914713
 21
-8.716896310565204
 31
0.0
  0
LINE
  5
129
100
AcDbEntity
  8
0
  6
CONTINUOUS
 62
               7
100
AcDbLine
 10
18.054072341668018
 20
-28.433373049088264
 30
0.0
 11
18.539221863176323
 21
-28.433373049088264
 31
0.0
  0
LINE
  5
12A
100
AcDbEntity
  8
0
  6
CONTINUOUS
 62
               7
100
AcDbLine
 10
18.539221863176323
 20
-28.918522570596455
 30
0.0
 11
18.054072341668018
 21
-28.918522570596455
 31
0.0
  0
LINE
  5
12B
100
AcDbEntity
  8
0
  6
CONTINUOUS
 62
               7
100
AcDbLine
 10
18.054072341668018
 20
-28.433373049088264
 30
0.0
 11
18.054072341668018
 21
-28.918522570596455
 31
0.0
  0
LINE
  5
12C
100
AcDbEntity
  8
0
  6
CONTINUOUS
 62
               7
100
AcDbLine
 10
18.539221863176323
 20
-28.433373049088264
 30
0.0
 11
18.539221863176323
 21
-28.918522570596455
 31
0.0
  0
LINE
  5
12D
100
AcDbEntity
  8
0
  6
CONTINUOUS
 62
               7
100
AcDbLine
 10
16.074662293914713
 20
-28.918522570596455
 30
0.0
 11
16.074662293914713
 21
-28.433373049088264
 31
0.0
  0
LINE
  5
12E
100
AcDbEntity
  8
0
  6
CONTINUOUS
 62
               7
100
AcDbLine
 10
15.589512772406522
 20
-28.433373049088264
 30
0.0
 11
15.589512772406522
 21
-28.918522570596455
 31
0.0
  0
LINE
  5
12F
100
AcDbEntity
  8
0
  6
CONTINUOUS
 62
               7
100
AcDbLine
 10
15.589512772406522
 20
-28.433373049088264
 30
0.0
 11
16.074662293914713
 21
-28.433373049088264
 31
0.0
  0
LINE
  5
130
100
AcDbEntity
  8
0
  6
CONTINUOUS
 62
               7
100
AcDbLine
 10
15.589512772406522
 20
-28.918522570596455
 30
0.0
 11
16.074662293914713
 21
-28.918522570596455
 31
0.0
  0
LINE
  5
131
100
AcDbEntity
  8
0
  6
CONTINUOUS
 62
               7
100
AcDbLine
 10
18.054072341668018
 20
-25.968813449088266
 30
0.0
 11
18.539221863176323
 21
-25.968813449088266
 31
0.0
  0
LINE
  5
132
100
AcDbEntity
  8
0
  6
CONTINUOUS
 62
               7
100
AcDbLine
 10
18.539221863176323
 20
-26.453962970596457
 30
0.0
 11
18.054072341668018
 21
-26.453962970596457
 31
0.0
  0
LINE
  5
133
100
AcDbEntity
  8
0
  6
CONTINUOUS
 62
               7
100
AcDbLine
 10
18.054072341668018
 20
-25.968813449088266
 30
0.0
 11
18.054072341668018
 21
-26.453962970596457
 31
0.0
  0
LINE
  5
134
100
AcDbEntity
  8
0
  6
CONTINUOUS
 62
               7
100
AcDbLine
 10
18.539221863176323
 20
-25.968813449088266
 30
0.0
 11
18.539221863176323
 21
-26.453962970596457
 31
0.0
  0
LINE
  5
135
100
AcDbEntity
  8
0
  6
CONTINUOUS
 62
               7
100
AcDbLine
 10
16.074662293914713
 20
-26.453962970596457
 30
0.0
 11
16.074662293914713
 21
-25.968813449088266
 31
0.0
  0
LINE
  5
136
100
AcDbEntity
  8
0
  6
CONTINUOUS
 62
               7
100
AcDbLine
 10
15.589512772406522
 20
-25.968813449088266
 30
0.0
 11
15.589512772406522
 21
-26.453962970596457
 31
0.0
  0
LINE
  5
137
100
AcDbEntity
  8
0
  6
CONTINUOUS
 62
               7
100
AcDbLine
 10
15.589512772406522
 20
-25.968813449088266
 30
0.0
 11
16.074662293914713
 21
-25.968813449088266
 31
0.0
  0
LINE
  5
138
100
AcDbEntity
  8
0
  6
CONTINUOUS
 62
               7
100
AcDbLine
 10
15.589512772406522
 20
-26.453962970596457
 30
0.0
 11
16.074662293914713
 21
-26.453962970596457
 31
0.0
  0
LINE
  5
139
100
AcDbEntity
  8
0
  6
CONTINUOUS
 62
               7
100
AcDbLine
 10
18.054072341668018
 20
-23.504253849088265
 30
0.0
 11
18.539221863176323
 21
-23.504253849088265
 31
0.0
  0
LINE
  5
13A
100
AcDbEntity
  8
0
  6
CONTINUOUS
 62
               7
100
AcDbLine
 10
18.539221863176323
 20
-23.989403370596456
 30
0.0
 11
18.054072341668018
 21
-23.989403370596456
 31
0.0
  0
LINE
  5
13B
100
AcDbEntity
  8
0
  6
CONTINUOUS
 62
               7
100
AcDbLine
 10
18.054072341668018
 20
-23.504253849088265
 30
0.0
 11
18.054072341668018
 21
-23.989403370596456
 31
0.0
  0
LINE
  5
13C
100
AcDbEntity
  8
0
  6
CONTINUOUS
 62
               7
100
AcDbLine
 10
18.539221863176323
 20
-23.504253849088265
 30
0.0
 11
18.539221863176323
 21
-23.989403370596456
 31
0.0
  0
LINE
  5
13D
100
AcDbEntity
  8
0
  6
CONTINUOUS
 62
               7
100
AcDbLine
 10
16.074662293914713
 20
-23.989403370596456
 30
0.0
 11
16.074662293914713
 21
-23.504253849088265
 31
0.0
  0
LINE
  5
13E
100
AcDbEntity
  8
0
  6
CONTINUOUS
 62
               7
100
AcDbLine
 10
15.589512772406522
 20
-23.504253849088265
 30
0.0
 11
15.589512772406522
 21
-23.989403370596456
 31
0.0
  0
LINE
  5
13F
100
AcDbEntity
  8
0
  6
CONTINUOUS
 62
               7
100
AcDbLine
 10
15.589512772406522
 20
-23.504253849088265
 30
0.0
 11
16.074662293914713
 21
-23.504253849088265
 31
0.0
  0
LINE
  5
140
100
AcDbEntity
  8
0
  6
CONTINUOUS
 62
               7
100
AcDbLine
 10
15.589512772406522
 20
-23.989403370596456
 30
0.0
 11
16.074662293914713
 21
-23.989403370596456
 31
0.0
  0
LINE
  5
141
100
AcDbEntity
  8
0
  6
CONTINUOUS
 62
               7
100
AcDbLine
 10
18.054072341668018
 20
-21.039694249088264
 30
0.0
 11
18.539221863176323
 21
-21.039694249088264
 31
0.0
  0
LINE
  5
142
100
AcDbEntity
  8
0
  6
CONTINUOUS
 62
               7
100
AcDbLine
 10
18.539221863176323
 20
-21.524843770596455
 30
0.0
 11
18.054072341668018
 21
-21.524843770596455
 31
0.0
  0
LINE
  5
143
100
AcDbEntity
  8
0
  6
CONTINUOUS
 62
               7
100
AcDbLine
 10
18.054072341668018
 20
-21.039694249088264
 30
0.0
 11
18.054072341668018
 21
-21.524843770596455
 31
0.0
  0
LINE
  5
144
100
AcDbEntity
  8
0
  6
CONTINUOUS
 62
               7
100
AcDbLine
 10
18.539221863176323
 20
-21.039694249088264
 30
0.0
 11
18.539221863176323
 21
-21.524843770596455
 31
0.0
  0
LINE
  5
145
100
AcDbEntity
  8
0
  6
CONTINUOUS
 62
               7
100
AcDbLine
 10
16.074662293914713
 20
-21.524843770596455
 30
0.0
 11
16.074662293914713
 21
-21.039694249088264
 31
0.0
  0
LINE
  5
146
100
AcDbEntity
  8
0
  6
CONTINUOUS
 62
               7
100
AcDbLine
 10
15.589512772406522
 20
-21.039694249088264
 30
0.0
 11
15.589512772406522
 21
-21.524843770596455
 31
0.0
  0
LINE
  5
147
100
AcDbEntity
  8
0
  6
CONTINUOUS
 62
               7
100
AcDbLine
 10
15.589512772406522
 20
-21.039694249088264
 30
0.0
 11
16.074662293914713
 21
-21.039694249088264
 31
0.0
  0
LINE
  5
148
100
AcDbEntity
  8
0
  6
CONTINUOUS
 62
               7
100
AcDbLine
 10
15.589512772406522
 20
-21.524843770596455
 30
0.0
 11
16.074662293914713
 21
-21.524843770596455
 31
0.0
  0
LINE
  5
149
100
AcDbEntity
  8
0
  6
CONTINUOUS
 62
               7
100
AcDbLine
 10
18.054072341668018
 20
-18.575134649088266
 30
0.0
 11
18.539221863176323
 21
-18.575134649088266
 31
0.0
  0
LINE
  5
14A
100
AcDbEntity
  8
0
  6
CONTINUOUS
 62
               7
100
AcDbLine
 10
18.539221863176323
 20
-19.060284170596457
 30
0.0
 11
18.054072341668018
 21
-19.060284170596457
 31
0.0
  0
LINE
  5
14B
100
AcDbEntity
  8
0
  6
CONTINUOUS
 62
               7
100
AcDbLine
 10
18.054072341668018
 20
-18.575134649088266
 30
0.0
 11
18.054072341668018
 21
-19.060284170596457
 31
0.0
  0
LINE
  5
14C
100
AcDbEntity
  8
0
  6
CONTINUOUS
 62
               7
100
AcDbLine
 10
18.539221863176323
 20
-18.575134649088266
 30
0.0
 11
18.539221863176323
 21
-19.060284170596457
 31
0.0
  0
LINE
  5
14D
100
AcDbEntity
  8
0
  6
CONTINUOUS
 62
               7
100
AcDbLine
 10
16.074662293914713
 20
-19.060284170596457
 30
0.0
 11
16.074662293914713
 21
-18.575134649088266
 31
0.0
  0
LINE
  5
14E
100
AcDbEntity
  8
0
  6
CONTINUOUS
 62
               7
100
AcDbLine
 10
15.589512772406522
 20
-18.575134649088266
 30
0.0
 11
15.589512772406522
 21
-19.060284170596457
 31
0.0
  0
LINE
  5
14F
100
AcDbEntity
  8
0
  6
CONTINUOUS
 62
               7
100
AcDbLine
 10
15.589512772406522
 20
-18.575134649088266
 30
0.0
 11
16.074662293914713
 21
-18.575134649088266
 31
0.0
  0
LINE
  5
150
100
AcDbEntity
  8
0
  6
CONTINUOUS
 62
               7
100
AcDbLine
 10
15.589512772406522
 20
-19.060284170596457
 30
0.0
 11
16.074662293914713
 21
-19.060284170596457
 31
0.0
  0
LINE
  5
151
100
AcDbEntity
  8
0
  6
CONTINUOUS
 62
               7
100
AcDbLine
 10
18.054072341668018
 20
-16.110575049088268
 30
0.0
 11
18.539221863176323
 21
-16.110575049088268
 31
0.0
  0
LINE
  5
152
100
AcDbEntity
  8
0
  6
CONTINUOUS
 62
               7
100
AcDbLine
 10
18.539221863176323
 20
-16.59572457059646
 30
0.0
 11
18.054072341668018
 21
-16.59572457059646
 31
0.0
  0
LINE
  5
153
100
AcDbEntity
  8
0
  6
CONTINUOUS
 62
               7
100
AcDbLine
 10
18.054072341668018
 20
-16.110575049088268
 30
0.0
 11
18.054072341668018
 21
-16.59572457059646
 31
0.0
  0
LINE
  5
154
100
AcDbEntity
  8
0
  6
CONTINUOUS
 62
               7
100
AcDbLine
 10
18.539221863176323
 20
-16.110575049088268
 30
0.0
 11
18.539221863176323
 21
-16.59572457059646
 31
0.0
  0
LINE
  5
155
100
AcDbEntity
  8
0
  6
CONTINUOUS
 62
               7
100
AcDbLine
 10
16.074662293914713
 20
-16.59572457059646
 30
0.0
 11
16.074662293914713
 21
-16.110575049088268
 31
0.0
  0
LINE
  5
156
100
AcDbEntity
  8
0
  6
CONTINUOUS
 62
               7
100
AcDbLine
 10
15.589512772406522
 20
-16.110575049088268
 30
0.0
 11
15.589512772406522
 21
-16.59572457059646
 31
0.0
  0
LINE
  5
157
100
AcDbEntity
  8
0
  6
CONTINUOUS
 62
               7
100
AcDbLine
 10
15.589512772406522
 20
-16.110575049088268
 30
0.0
 11
16.074662293914713
 21
-16.110575049088268
 31
0.0
  0
LINE
  5
158
100
AcDbEntity
  8
0
  6
CONTINUOUS
 62
               7
100
AcDbLine
 10
15.589512772406522
 20
-16.59572457059646
 30
0.0
 11
16.074662293914713
 21
-16.59572457059646
 31
0.0
  0
LINE
  5
159
100
AcDbEntity
  8
0
  6
CONTINUOUS
 62
               7
100
AcDbLine
 10
18.054072341668018
 20
-13.646015449088267
 30
0.0
 11
18.539221863176323
 21
-13.646015449088267
 31
0.0
  0
LINE
  5
15A
100
AcDbEntity
  8
0
  6
CONTINUOUS
 62
               7
100
AcDbLine
 10
18.539221863176323
 20
-14.131164970596458
 30
0.0
 11
18.054072341668018
 21
-14.131164970596458
 31
0.0
  0
LINE
  5
15B
100
AcDbEntity
  8
0
  6
CONTINUOUS
 62
               7
100
AcDbLine
 10
18.054072341668018
 20
-13.646015449088267
 30
0.0
 11
18.054072341668018
 21
-14.131164970596458
 31
0.0
  0
LINE
  5
15C
100
AcDbEntity
  8
0
  6
CONTINUOUS
 62
               7
100
AcDbLine
 10
18.539221863176323
 20
-13.646015449088267
 30
0.0
 11
18.539221863176323
 21
-14.131164970596458
 31
0.0
  0
LINE
  5
15D
100
AcDbEntity
  8
0
  6
CONTINUOUS
 62
               7
100
AcDbLine
 10
16.074662293914713
 20
-14.131164970596458
 30
0.0
 11
16.074662293914713
 21
-13.646015449088267
 31
0.0
  0
LINE
  5
15E
100
AcDbEntity
  8
0
  6
CONTINUOUS
 62
               7
100
AcDbLine
 10
15.589512772406522
 20
-13.646015449088267
 30
0.0
 11
15.589512772406522
 21
-14.131164970596458
 31
0.0
  0
LINE
  5
15F
100
AcDbEntity
  8
0
  6
CONTINUOUS
 62
               7
100
AcDbLine
 10
15.589512772406522
 20
-13.646015449088267
 30
0.0
 11
16.074662293914713
 21
-13.646015449088267
 31
0.0
  0
LINE
  5
160
100
AcDbEntity
  8
0
  6
CONTINUOUS
 62
               7
100
AcDbLine
 10
15.589512772406522
 20
-14.131164970596458
 30
0.0
 11
16.074662293914713
 21
-14.131164970596458
 31
0.0
  0
LINE
  5
161
100
AcDbEntity
  8
0
  6
CONTINUOUS
 62
               7
100
AcDbLine
 10
15.589512772406522
 20
-11.666605401334934
 30
0.0
 11
16.074662293914713
 21
-11.666605401334934
 31
0.0
  0
LINE
  5
162
100
AcDbEntity
  8
0
  6
CONTINUOUS
 62
               7
100
AcDbLine
 10
15.589512772406522
 20
-11.181455879826743
 30
0.0
 11
16.074662293914713
 21
-11.181455879826743
 31
0.0
  0
LINE
  5
163
100
AcDbEntity
  8
0
  6
CONTINUOUS
 62
               7
100
AcDbLine
 10
15.589512772406522
 20
-11.181455879826743
 30
0.0
 11
15.589512772406522
 21
-11.666605401334934
 31
0.0
  0
LINE
  5
164
100
AcDbEntity
  8
0
  6
CONTINUOUS
 62
               7
100
AcDbLine
 10
16.074662293914713
 20
-11.666605401334934
 30
0.0
 11
16.074662293914713
 21
-11.181455879826743
 31
0.0
  0
LINE
  5
165
100
AcDbEntity
  8
0
  6
CONTINUOUS
 62
               7
100
AcDbLine
 10
18.539221863176323
 20
-11.181455879826743
 30
0.0
 11
18.539221863176323
 21
-11.666605401334934
 31
0.0
  0
LINE
  5
166
100
AcDbEntity
  8
0
  6
CONTINUOUS
 62
               7
100
AcDbLine
 10
18.054072341668018
 20
-11.181455879826743
 30
0.0
 11
18.054072341668018
 21
-11.666605401334934
 31
0.0
  0
LINE
  5
167
100
AcDbEntity
  8
0
  6
CONTINUOUS
 62
               7
100
AcDbLine
 10
18.539221863176323
 20
-11.666605401334934
 30
0.0
 11
18.054072341668018
 21
-11.666605401334934
 31
0.0
  0
LINE
  5
168
100
AcDbEntity
  8
0
  6
CONTINUOUS
 62
               7
100
AcDbLine
 10
18.054072341668018
 20
-11.181455879826743
 30
0.0
 11
18.539221863176323
 21
-11.181455879826743
 31
0.0
  0
LINE
  5
169
100
AcDbEntity
  8
0
  6
CONTINUOUS
 62
               7
100
AcDbLine
 10
65.195000135600566
 20
-68.549999999999997
 30
0.0
 11
65.195000135600566
 21
-67.25
 31
0.0
  0
LINE
  5
16A
100
AcDbEntity
  8
0
  6
CONTINUOUS
 62
               7
100
AcDbLine
 10
58.895000135600554
 20
-68.549999999999997
 30
0.0
 11
58.895000135600554
 21
-67.25
 31
0.0
  0
ARC
  5
16B
100
AcDbEntity
  8
0
  6
CONTINUOUS
 62
               7
100
AcDbCircle
 10
62.04500013560056
 20
-60.581250000000026
 30
0.0
 40
8.568749999999973
100
AcDbArc
 50
248.43140426487423
 51
291.56859573512463
  0
LINE
  5
16C
100
AcDbEntity
  8
0
  6
CONTINUOUS
 62
               7
100
AcDbLine
 10
65.195000135600566
 20
-68.549999999999997
 30
0.0
 11
58.895000135600554
 21
-68.549999999999997
 31
0.0
  0
LINE
  5
16D
100
AcDbEntity
  8
0
  6
CONTINUOUS
 62
               7
100
AcDbLine
 10
39.79500038146972
 20
-68.549999999999997
 30
0.0
 11
39.79500038146972
 21
-67.25
 31
0.0
  0
LINE
  5
16E
100
AcDbEntity
  8
0
  6
CONTINUOUS
 62
               7
100
AcDbLine
 10
33.495000381469708
 20
-68.549999999999997
 30
0.0
 11
33.495000381469708
 21
-67.25
 31
0.0
  0
ARC
  5
16F
100
AcDbEntity
  8
0
  6
CONTINUOUS
 62
               7
100
AcDbCircle
 10
36.645000381469714
 20
-60.581250000000026
 30
0.0
 40
8.568749999999973
100
AcDbArc
 50
248.43140426487423
 51
291.56859573512463
  0
LINE
  5
170
100
AcDbEntity
  8
0
  6
CONTINUOUS
 62
               7
100
AcDbLine
 10
39.79500038146972
 20
-68.549999999999997
 30
0.0
 11
33.495000381469708
 21
-68.549999999999997
 31
0.0
  0
LINE
  5
171
100
AcDbEntity
  8
0
  6
CONTINUOUS
 62
               7
100
AcDbLine
 10
65.195000135600566
 20
64.050000000000026
 30
0.0
 11
58.895000135600554
 21
64.050000000000026
 31
0.0
  0
ARC
  5
172
100
AcDbEntity
  8
0
  6
CONTINUOUS
 62
               7
100
AcDbCircle
 10
62.04500013560056
 20
56.081250000000026
 30
0.0
 40
8.568749999999973
100
AcDbArc
 50
68.431404264874629
 51
111.56859573512497
  0
LINE
  5
173
100
AcDbEntity
  8
0
  6
CONTINUOUS
 62
               7
100
AcDbLine
 10
58.895000135600554
 20
64.050000000000026
 30
0.0
 11
58.895000135600554
 21
62.750000000000014
 31
0.0
  0
LINE
  5
174
100
AcDbEntity
  8
0
  6
CONTINUOUS
 62
               7
100
AcDbLine
 10
65.195000135600566
 20
64.050000000000026
 30
0.0
 11
65.195000135600566
 21
62.750000000000014
 31
0.0
  0
LINE
  5
175
100
AcDbEntity
  8
0
  6
CONTINUOUS
 62
               7
100
AcDbLine
 10
39.79500038146972
 20
64.050000000000026
 30
0.0
 11
33.495000381469708
 21
64.050000000000026
 31
0.0
  0
ARC
  5
176
100
AcDbEntity
  8
0
  6
CONTINUOUS
 62
               7
100
AcDbCircle
 10
36.645000381469714
 20
56.081250000000026
 30
0.0
 40
8.568749999999973
100
AcDbArc
 50
68.431404264874629
 51
111.56859573512497
  0
LINE
  5
177
100
AcDbEntity
  8
0
  6
CONTINUOUS
 62
               7
100
AcDbLine
 10
33.495000381469708
 20
64.050000000000026
 30
0.0
 11
33.495000381469708
 21
62.750000000000014
 31
0.0
  0
LINE
  5
178
100
AcDbEntity
  8
0
  6
CONTINUOUS
 62
               7
100
AcDbLine
 10
39.79500038146972
 20
64.050000000000026
 30
0.0
 11
39.79500038146972
 21
62.750000000000014
 31
0.0
  0
LINE
  5
179
100
AcDbEntity
  8
0
  6
CENTER
 62
               2
100
AcDbLine
 10
84.74000156806153
 20
51.93798996047606
 30
0.0
 11
84.74000156806153
 21
59.679485780520579
 31
0.0
  0
LINE
  5
17A
100
AcDbEntity
  8
0
  6
CENTER
 62
               2
100
AcDbLine
 10
80.592195033061557
 20
55.550002562452804
 30
0.0
 11
89.092661031541809
 21
55.550002562452804
 31
0.0
  0
CIRCLE
  5
17B
100
AcDbEntity
  8
0
  6
CONTINUOUS
 62
               7
100
AcDbCircle
 10
84.74000156806153
 20
55.550002562452804
 30
0.0
 40
1.6000000709329729
  0
LINE
  5
17C
100
AcDbEntity
  8
0
  6
CONTINUOUS
 62
               7
100
AcDbLine
 10
64.800000684059569
 20
52.350002420586932
 30
0.0
 11
64.800000684059569
 21
52.600002431670262
 31
0.0
  0
LINE
  5
17D
100
AcDbEntity
  8
0
  6
CONTINUOUS
 62
               7
100
AcDbLine
 10
64.800000684059569
 20
52.600002431670262
 30
0.0
 11
59.300000440227564
 21
52.600002431670262
 31
0.0
  0
LINE
  5
17E
100
AcDbEntity
  8
0
  6
CONTINUOUS
 62
               7
100
AcDbLine
 10
57.30000035156138
 20
54.100002498169843
 30
0.0
 11
51.300000085562829
 21
54.100002498169843
 31
0.0
  0
LINE
  5
17F
100
AcDbEntity
  8
0
  6
CONTINUOUS
 62
               7
100
AcDbLine
 10
49.299999996896645
 20
52.600002431670262
 30
0.0
 11
51.300000085562829
 21
54.100002498169843
 31
0.0
  0
LINE
  5
180
100
AcDbEntity
  8
0
  6
CONTINUOUS
 62
               7
100
AcDbLine
 10
41.799999664398456
 20
52.350002420586932
 30
0.0
 11
41.799999664398456
 21
53.150002456053429
 31
0.0
  0
LINE
  5
181
100
AcDbEntity
  8
0
  6
CONTINUOUS
 62
               7
100
AcDbLine
 10
42.799999708731548
 20
52.350002420586932
 30
0.0
 11
42.799999708731548
 21
52.600002431670262
 31
0.0
  0
LINE
  5
182
100
AcDbEntity
  8
0
  6
CONTINUOUS
 62
               7
100
AcDbLine
 10
42.799999708731548
 20
52.600002431670262
 30
0.0
 11
49.299999996896645
 21
52.600002431670262
 31
0.0
  0
LINE
  5
183
100
AcDbEntity
  8
0
  6
CONTINUOUS
 62
               7
100
AcDbLine
 10
42.799999708731548
 20
52.350002420586932
 30
0.0
 11
64.800000684059569
 21
52.350002420586932
 31
0.0
  0
LINE
  5
184
100
AcDbEntity
  8
0
  6
CONTINUOUS
 62
               7
100
AcDbLine
 10
59.300000440227564
 20
52.600002431670262
 30
0.0
 11
57.30000035156138
 21
54.100002498169843
 31
0.0
  0
CIRCLE
  5
185
100
AcDbEntity
  8
0
  6
CONTINUOUS
 62
               7
100
AcDbCircle
 10
84.74000156806153
 20
55.550002562452804
 30
0.0
 40
3.0000001329992818
  0
LINE
  5
186
100
AcDbEntity
  8
0
  6
CENTER
 62
               2
100
AcDbLine
 10
13.999998431938366
 20
51.786195924788913
 30
0.0
 11
13.999998431938366
 21
59.679485780520579
 31
0.0
  0
LINE
  5
187
100
AcDbEntity
  8
0
  6
CONTINUOUS
 62
               7
100
AcDbLine
 10
12.940596384971911
 20
50.386184983524814
 30
0.0
 11
21.188138250610905
 21
50.386184983524814
 31
0.0
  0
CIRCLE
  5
188
100
AcDbEntity
  8
0
  6
CONTINUOUS
 62
               7
100
AcDbCircle
 10
13.999998431938366
 20
55.550002562452804
 30
0.0
 40
1.6000000709329445
  0
CIRCLE
  5
189
100
AcDbEntity
  8
0
  6
CONTINUOUS
 62
               7
100
AcDbCircle
 10
13.999998431938366
 20
55.550002562452804
 30
0.0
 40
3.0000001329992818
  0
LINE
  5
18A
100
AcDbEntity
  8
0
  6
CENTER
 62
               2
100
AcDbLine
 10
10.132687786275824
 20
55.550002562452804
 30
0.0
 11
18.053052329956671
 21
55.550002562452804
 31
0.0
  0
LINE
  5
18B
100
AcDbEntity
  8
0
  6
CONTINUOUS
 62
               7
100
AcDbLine
 10
30.999999185601041
 20
52.050002407286982
 30
0.0
 11
67.000000781592348
 21
52.050002407286982
 31
0.0
  0
LINE
  5
18C
100
AcDbEntity
  8
0
  6
CONTINUOUS
 62
               7
100
AcDbLine
 10
32.999999274267225
 20
51.05000236295389
 30
0.0
 11
65.000000692926164
 21
51.05000236295389
 31
0.0
  0
LINE
  5
18D
100
AcDbEntity
  8
0
  6
CONTINUOUS
 62
               7
100
AcDbLine
 10
10.999998298939204
 20
58.550002695452079
 30
0.0
 11
87.740001701060805
 21
58.550002695452079
 31
0.0
  0
LINE
  5
18E
100
AcDbEntity
  8
0
  6
CONTINUOUS
 62
               7
100
AcDbLine
 10
34.799999354066813
 20
52.350002420586932
 30
0.0
 11
41.799999664398456
 21
52.350002420586932
 31
0.0
  0
LINE
  5
18F
100
AcDbEntity
  8
0
  6
CONTINUOUS
 62
               7
100
AcDbLine
 10
41.799999664398456
 20
53.150002456053429
 30
0.0
 11
34.799999354066813
 21
53.150002456053429
 31
0.0
  0
LINE
  5
190
100
AcDbEntity
  8
0
  6
CONTINUOUS
 62
               7
100
AcDbLine
 10
34.799999354066813
 20
53.150002456053429
 30
0.0
 11
34.799999354066813
 21
52.350002420586932
 31
0.0
  0
LINE
  5
191
100
AcDbEntity
  8
0
  6
CONTINUOUS
 62
               7
100
AcDbLine
 10
61.004652515800103
 20
45.799162130167943
 30
0.0
 11
61.468284536354304
 21
45.54916211908467
 31
0.0
  0
LINE
  5
192
100
AcDbEntity
  8
0
  6
CONTINUOUS
 62
               7
100
AcDbLine
 10
60.916489511891541
 20
45.299162108001397
 30
0.0
 11
61.468284536354304
 21
45.54916211908467
 31
0.0
  0
LINE
  5
193
100
AcDbEntity
  8
0
  6
CONTINUOUS
 62
               7
100
AcDbLine
 10
61.49659453760944
 20
48.58910225385462
 30
0.0
 11
61.004652515800103
 21
45.799162130167943
 31
0.0
  0
LINE
  5
194
100
AcDbEntity
  8
0
  6
CONTINUOUS
 62
               7
100
AcDbLine
 10
60.916489511891541
 20
45.299162108001397
 30
0.0
 11
60.853404509094844
 21
44.941394092140413
 31
0.0
  0
LINE
  5
195
100
AcDbEntity
  8
0
  6
CONTINUOUS
 62
               7
100
AcDbLine
 10
62.004307560117809
 20
48.58910225385462
 30
0.0
 11
62.030764561290766
 21
48.58910225385462
 31
0.0
  0
LINE
  5
196
100
AcDbEntity
  8
0
  6
CONTINUOUS
 62
               7
100
AcDbLine
 10
62.092470564026371
 20
49.089102276021165
 30
0.0
 11
61.345808530924614
 21
44.854570088291283
 31
0.0
  0
LINE
  5
197
100
AcDbEntity
  8
0
  6
CONTINUOUS
 62
               7
100
AcDbLine
 10
61.49659453760944
 20
48.58910225385462
 30
0.0
 11
62.092470564026371
 21
49.089102276021165
 31
0.0
  0
LINE
  5
198
100
AcDbEntity
  8
0
  6
CONTINUOUS
 62
               7
100
AcDbLine
 10
60.414918489655406
 20
42.454613981893715
 30
0.0
 11
60.834468508255327
 21
41.954613959727226
 31
0.0
  0
CIRCLE
  5
199
100
AcDbEntity
  8
0
  6
CONTINUOUS
 62
               7
100
AcDbCircle
 10
61.969013558553229
 20
41.636614945629333
 30
0.0
 40
0.5000000221665469
  0
LINE
  5
19A
100
AcDbEntity
  8
0
  6
CONTINUOUS
 62
               7
100
AcDbLine
 10
61.345808530924614
 20
44.854570088291283
 30
0.0
 11
60.834468508255327
 21
41.954613959727226
 31
0.0
  0
LINE
  5
19B
100
AcDbEntity
  8
0
  6
CONTINUOUS
 62
               7
100
AcDbLine
 10
60.853404509094844
 20
44.941394092140413
 30
0.0
 11
60.414918489655406
 21
42.454613981893715
 31
0.0
  0
LINE
  5
19C
100
AcDbEntity
  8
0
  6
CONTINUOUS
 62
               7
100
AcDbLine
 10
54.505658227679533
 20
48.636388255950934
 30
0.0
 11
55.101535254096575
 21
49.136388278117479
 31
0.0
  0
LINE
  5
19D
100
AcDbEntity
  8
0
  6
CONTINUOUS
 62
               7
100
AcDbLine
 10
51.45937809262864
 20
48.636388255950934
 30
0.0
 11
51.039828074028605
 21
49.136388278117479
 31
0.0
  0
LINE
  5
19E
100
AcDbEntity
  8
0
  6
CONTINUOUS
 62
               7
100
AcDbLine
 10
55.101535254096575
 20
49.136388278117479
 30
0.0
 11
54.354873220994818
 21
44.901856090387597
 31
0.0
  0
LINE
  5
19F
100
AcDbEntity
  8
0
  6
CONTINUOUS
 62
               7
100
AcDbLine
 10
51.049458074455515
 20
49.190997280538468
 30
0.0
 11
50.415642046356538
 21
45.596449121181038
 31
0.0
  0
LINE
  5
1A0
100
AcDbEntity
  8
0
  6
CONTINUOUS
 62
               7
100
AcDbLine
 10
53.925553201961748
 20
45.346449110097709
 30
0.0
 11
53.862469199165048
 21
44.988680094236784
 31
0.0
  0
LINE
  5
1A1
100
AcDbEntity
  8
0
  6
CONTINUOUS
 62
               7
100
AcDbLine
 10
54.505658227679533
 20
48.636388255950934
 30
0.0
 11
54.013717205870307
 21
45.846449132264311
 31
0.0
  0
LINE
  5
1A2
100
AcDbEntity
  8
0
  6
CONTINUOUS
 62
               7
100
AcDbLine
 10
51.45937809262864
 20
48.636388255950934
 30
0.0
 11
50.967437070819301
 21
45.846449132264311
 31
0.0
  0
LINE
  5
1A3
100
AcDbEntity
  8
0
  6
CONTINUOUS
 62
               7
100
AcDbLine
 10
50.879273066910741
 20
45.346449110097709
 30
0.0
 11
53.925553201961748
 21
45.346449110097709
 31
0.0
  0
LINE
  5
1A4
100
AcDbEntity
  8
0
  6
CONTINUOUS
 62
               7
100
AcDbLine
 10
50.967437070819301
 20
45.846449132264311
 30
0.0
 11
54.013717205870307
 21
45.846449132264311
 31
0.0
  0
LINE
  5
1A5
100
AcDbEntity
  8
0
  6
CONTINUOUS
 62
               7
100
AcDbLine
 10
53.925553201961748
 20
45.346449110097709
 30
0.0
 11
54.47734822642451
 21
45.596449121181038
 31
0.0
  0
LINE
  5
1A6
100
AcDbEntity
  8
0
  6
CONTINUOUS
 62
               7
100
AcDbLine
 10
54.013717205870307
 20
45.846449132264311
 30
0.0
 11
54.47734822642451
 21
45.596449121181038
 31
0.0
  0
LINE
  5
1A7
100
AcDbEntity
  8
0
  6
CONTINUOUS
 62
               7
100
AcDbLine
 10
50.415642046356538
 20
45.596449121181038
 30
0.0
 11
50.879273066910741
 21
45.346449110097709
 31
0.0
  0
LINE
  5
1A8
100
AcDbEntity
  8
0
  6
CONTINUOUS
 62
               7
100
AcDbLine
 10
50.415642046356538
 20
45.596449121181038
 30
0.0
 11
50.967437070819301
 21
45.846449132264311
 31
0.0
  0
LINE
  5
1A9
100
AcDbEntity
  8
0
  6
CONTINUOUS
 62
               7
100
AcDbLine
 10
55.013371250188129
 20
48.636388255950934
 30
0.0
 11
55.039828251360973
 21
48.636388255950934
 31
0.0
  0
LINE
  5
1AA
100
AcDbEntity
  8
0
  6
CONTINUOUS
 62
               7
100
AcDbLine
 10
51.45937809262864
 20
48.636388255950934
 30
0.0
 11
54.505658227679533
 21
48.636388255950934
 31
0.0
  0
LINE
  5
1AB
100
AcDbEntity
  8
0
  6
CONTINUOUS
 62
               7
100
AcDbLine
 10
51.039828074028605
 20
49.136388278117479
 30
0.0
 11
55.101535254096575
 21
49.136388278117479
 31
0.0
  0
LINE
  5
1AC
100
AcDbEntity
  8
0
  6
CONTINUOUS
 62
               7
100
AcDbLine
 10
57.406577356286334
 20
45.54916211908467
 30
0.0
 11
57.958372380749097
 21
45.799162130167943
 31
0.0
  0
LINE
  5
1AD
100
AcDbEntity
  8
0
  6
CONTINUOUS
 62
               7
100
AcDbLine
 10
57.406577356286334
 20
45.54916211908467
 30
0.0
 11
57.870209376840535
 21
45.299162108001397
 31
0.0
  0
LINE
  5
1AE
100
AcDbEntity
  8
0
  6
CONTINUOUS
 62
               7
100
AcDbLine
 10
58.45031440255832
 20
48.58910225385462
 30
0.0
 11
57.958372380749097
 21
45.799162130167943
 31
0.0
  0
LINE
  5
1AF
100
AcDbEntity
  8
0
  6
CONTINUOUS
 62
               7
100
AcDbLine
 10
58.040393384385311
 20
49.143711278442154
 30
0.0
 11
57.406577356286334
 21
45.54916211908467
 31
0.0
  0
LINE
  5
1B0
100
AcDbEntity
  8
0
  6
CONTINUOUS
 62
               7
100
AcDbLine
 10
58.45031440255832
 20
48.58910225385462
 30
0.0
 11
58.030764383958399
 21
49.089102276021165
 31
0.0
  0
LINE
  5
1B1
100
AcDbEntity
  8
0
  6
CONTINUOUS
 62
               7
100
AcDbLine
 10
39.738504573006026
 20
49.090155276067847
 30
0.0
 11
38.991842539904155
 21
44.855623088337964
 31
0.0
  0
LINE
  5
1B2
100
AcDbEntity
  8
0
  6
CONTINUOUS
 62
               7
100
AcDbLine
 10
39.142627546588869
 20
48.590155253901301
 30
0.0
 11
38.650685524779647
 21
45.800216130214679
 31
0.0
  0
LINE
  5
1B3
100
AcDbEntity
  8
0
  6
CONTINUOUS
 62
               7
100
AcDbLine
 10
39.142627546588869
 20
48.590155253901301
 30
0.0
 11
39.738504573006026
 21
49.090155276067847
 31
0.0
  0
LINE
  5
1B4
100
AcDbEntity
  8
0
  6
CONTINUOUS
 62
               7
100
AcDbLine
 10
39.650340569097466
 20
48.590155253901301
 30
0.0
 11
39.67679757027031
 21
48.590155253901301
 31
0.0
  0
LINE
  5
1B5
100
AcDbEntity
  8
0
  6
CONTINUOUS
 62
               7
100
AcDbLine
 10
38.650685524779647
 20
45.800216130214679
 30
0.0
 11
39.114317545333847
 21
45.550216119131349
 31
0.0
  0
LINE
  5
1B6
100
AcDbEntity
  8
0
  6
CONTINUOUS
 62
               7
100
AcDbLine
 10
38.562522520871084
 20
45.300216108048076
 30
0.0
 11
39.114317545333847
 21
45.550216119131349
 31
0.0
  0
LINE
  5
1B7
100
AcDbEntity
  8
0
  6
CONTINUOUS
 62
               7
100
AcDbLine
 10
38.562522520871084
 20
45.300216108048076
 30
0.0
 11
38.499438518074385
 21
44.942447092187152
 31
0.0
  0
LINE
  5
1B8
100
AcDbEntity
  8
0
  6
CONTINUOUS
 62
               7
100
AcDbLine
 10
47.020926895858338
 20
48.622035255314657
 30
0.0
 11
47.616803922275381
 21
49.122035277481203
 31
0.0
  0
LINE
  5
1B9
100
AcDbEntity
  8
0
  6
CONTINUOUS
 62
               7
100
AcDbLine
 10
43.974646760807332
 20
48.622035255314657
 30
0.0
 11
43.555096742207297
 21
49.122035277481203
 31
0.0
  0
LINE
  5
1BA
100
AcDbEntity
  8
0
  6
CONTINUOUS
 62
               7
100
AcDbLine
 10
47.616803922275381
 20
49.122035277481203
 30
0.0
 11
46.870140889173513
 21
44.887503089751263
 31
0.0
  0
LINE
  5
1BB
100
AcDbEntity
  8
0
  6
CONTINUOUS
 62
               7
100
AcDbLine
 10
43.564725742634209
 20
49.176644279902135
 30
0.0
 11
42.930909714535233
 21
45.582096120544705
 31
0.0
  0
LINE
  5
1BC
100
AcDbEntity
  8
0
  6
CONTINUOUS
 62
               7
100
AcDbLine
 10
46.440821870140439
 20
45.332096109461432
 30
0.0
 11
46.37773786734374
 21
44.974328093600505
 31
0.0
  0
LINE
  5
1BD
100
AcDbEntity
  8
0
  6
CONTINUOUS
 62
               7
100
AcDbLine
 10
47.020926895858338
 20
48.622035255314657
 30
0.0
 11
46.528984874048888
 21
45.832096131628035
 31
0.0
  0
LINE
  5
1BE
100
AcDbEntity
  8
0
  6
CONTINUOUS
 62
               7
100
AcDbLine
 10
43.974646760807332
 20
48.622035255314657
 30
0.0
 11
43.482704738997995
 21
45.832096131628035
 31
0.0
  0
LINE
  5
1BF
100
AcDbEntity
  8
0
  6
CONTINUOUS
 62
               7
100
AcDbLine
 10
43.394541735089433
 20
45.332096109461432
 30
0.0
 11
46.440821870140439
 21
45.332096109461432
 31
0.0
  0
LINE
  5
1C0
100
AcDbEntity
  8
0
  6
CONTINUOUS
 62
               7
100
AcDbLine
 10
43.482704738997995
 20
45.832096131628035
 30
0.0
 11
46.528984874048888
 21
45.832096131628035
 31
0.0
  0
LINE
  5
1C1
100
AcDbEntity
  8
0
  6
CONTINUOUS
 62
               7
100
AcDbLine
 10
46.440821870140439
 20
45.332096109461432
 30
0.0
 11
46.992616894603202
 21
45.582096120544705
 31
0.0
  0
LINE
  5
1C2
100
AcDbEntity
  8
0
  6
CONTINUOUS
 62
               7
100
AcDbLine
 10
46.528984874048888
 20
45.832096131628035
 30
0.0
 11
46.992616894603202
 21
45.582096120544705
 31
0.0
  0
LINE
  5
1C3
100
AcDbEntity
  8
0
  6
CONTINUOUS
 62
               7
100
AcDbLine
 10
42.930909714535233
 20
45.582096120544705
 30
0.0
 11
43.394541735089433
 21
45.332096109461432
 31
0.0
  0
LINE
  5
1C4
100
AcDbEntity
  8
0
  6
CONTINUOUS
 62
               7
100
AcDbLine
 10
42.930909714535233
 20
45.582096120544705
 30
0.0
 11
43.482704738997995
 21
45.832096131628035
 31
0.0
  0
LINE
  5
1C5
100
AcDbEntity
  8
0
  6
CONTINUOUS
 62
               7
100
AcDbLine
 10
47.528639918366707
 20
48.622035255314657
 30
0.0
 11
47.555096919539665
 21
48.622035255314657
 31
0.0
  0
LINE
  5
1C6
100
AcDbEntity
  8
0
  6
CONTINUOUS
 62
               7
100
AcDbLine
 10
43.974646760807332
 20
48.622035255314657
 30
0.0
 11
47.020926895858338
 21
48.622035255314657
 31
0.0
  0
LINE
  5
1C7
100
AcDbEntity
  8
0
  6
CONTINUOUS
 62
               7
100
AcDbLine
 10
43.555096742207297
 20
49.122035277481203
 30
0.0
 11
47.616803922275381
 21
49.122035277481203
 31
0.0
  0
CIRCLE
  5
1C8
100
AcDbEntity
  8
0
  6
CONTINUOUS
 62
               7
100
AcDbCircle
 10
54.978077248623322
 20
41.683900947725704
 30
0.0
 40
0.5000000221665469
  0
LINE
  5
1C9
100
AcDbEntity
  8
0
  6
CONTINUOUS
 62
               7
100
AcDbLine
 10
50.289539040765931
 20
42.001900961823594
 30
0.0
 11
50.274230040087218
 21
41.915075957974352
 31
0.0
  0
LINE
  5
1CA
100
AcDbEntity
  8
0
  6
CONTINUOUS
 62
               7
100
AcDbLine
 10
50.37770304467449
 20
42.501900983990083
 30
0.0
 11
53.423983179725496
 21
42.501900983990083
 31
0.0
  0
LINE
  5
1CB
100
AcDbEntity
  8
0
  6
CONTINUOUS
 62
               7
100
AcDbLine
 10
53.423983179725496
 20
42.501900983990083
 30
0.0
 11
53.84353219832542
 21
42.001900961823594
 31
0.0
  0
LINE
  5
1CC
100
AcDbEntity
  8
0
  6
CONTINUOUS
 62
               7
100
AcDbLine
 10
50.37770304467449
 20
42.501900983990083
 30
0.0
 11
49.77392701790734
 21
42.001900961823594
 31
0.0
  0
LINE
  5
1CD
100
AcDbEntity
  8
0
  6
CONTINUOUS
 62
               7
100
AcDbLine
 10
49.77392701790734
 20
42.001900961823594
 30
0.0
 11
53.84353219832542
 21
42.001900961823594
 31
0.0
  0
LINE
  5
1CE
100
AcDbEntity
  8
0
  6
CONTINUOUS
 62
               7
100
AcDbLine
 10
57.280475350695838
 20
41.954613959727226
 30
0.0
 11
57.265165350017128
 21
41.867789955878038
 31
0.0
  0
LINE
  5
1CF
100
AcDbEntity
  8
0
  6
CONTINUOUS
 62
               7
100
AcDbLine
 10
57.368638354604286
 20
42.454613981893715
 30
0.0
 11
56.764862327837022
 21
41.954613959727226
 31
0.0
  0
CIRCLE
  5
1D0
100
AcDbEntity
  8
0
  6
CONTINUOUS
 62
               7
100
AcDbCircle
 10
40.574170610053557
 20
41.685192947782923
 30
0.0
 40
0.5000000221665469
  0
LINE
  5
1D1
100
AcDbEntity
  8
0
  6
CONTINUOUS
 62
               7
100
AcDbLine
 10
38.060951498634836
 20
42.455666981940396
 30
0.0
 11
38.480501517234757
 21
41.955666959773851
 31
0.0
  0
LINE
  5
1D2
100
AcDbEntity
  8
0
  6
CONTINUOUS
 62
               7
100
AcDbLine
 10
42.804807708944622
 20
41.987547961187261
 30
0.0
 11
42.789497708265912
 21
41.90072395733813
 31
0.0
  0
LINE
  5
1D3
100
AcDbEntity
  8
0
  6
CONTINUOUS
 62
               7
100
AcDbLine
 10
42.892970712853185
 20
42.487547983353807
 30
0.0
 11
45.939250847904304
 21
42.487547983353807
 31
0.0
  0
LINE
  5
1D4
100
AcDbEntity
  8
0
  6
CONTINUOUS
 62
               7
100
AcDbLine
 10
45.939250847904304
 20
42.487547983353807
 30
0.0
 11
46.358800866504225
 21
41.987547961187261
 31
0.0
  0
LINE
  5
1D5
100
AcDbEntity
  8
0
  6
CONTINUOUS
 62
               7
100
AcDbLine
 10
42.892970712853185
 20
42.487547983353807
 30
0.0
 11
42.289194686086034
 21
41.987547961187261
 31
0.0
  0
LINE
  5
1D6
100
AcDbEntity
  8
0
  6
CONTINUOUS
 62
               7
100
AcDbLine
 10
42.289194686086034
 20
41.987547961187261
 30
0.0
 11
46.358800866504225
 21
41.987547961187261
 31
0.0
  0
CIRCLE
  5
1D7
100
AcDbEntity
  8
0
  6
CONTINUOUS
 62
               7
100
AcDbCircle
 10
48.179789947234326
 20
41.53698694121249
 30
0.0
 40
0.5000000221665469
  0
LINE
  5
1D8
100
AcDbEntity
  8
0
  6
CONTINUOUS
 62
               7
100
AcDbLine
 10
38.991842539904155
 20
44.855623088337964
 30
0.0
 11
38.480501517234757
 21
41.955666959773851
 31
0.0
  0
LINE
  5
1D9
100
AcDbEntity
  8
0
  6
CONTINUOUS
 62
               7
100
AcDbLine
 10
38.499438518074385
 20
44.942447092187152
 30
0.0
 11
38.060951498634836
 21
42.455666981940396
 31
0.0
  0
LINE
  5
1DA
100
AcDbEntity
  8
0
  6
CONTINUOUS
 62
               7
100
AcDbLine
 10
43.394541735089433
 20
45.332096109461432
 30
0.0
 11
42.892970712853185
 21
42.487547983353807
 31
0.0
  0
LINE
  5
1DB
100
AcDbEntity
  8
0
  6
CONTINUOUS
 62
               7
100
AcDbLine
 10
46.37773786734374
 20
44.974328093600505
 30
0.0
 11
45.939250847904304
 21
42.487547983353807
 31
0.0
  0
LINE
  5
1DC
100
AcDbEntity
  8
0
  6
CONTINUOUS
 62
               7
100
AcDbLine
 10
46.870140889173513
 20
44.887503089751263
 30
0.0
 11
46.358800866504225
 21
41.987547961187261
 31
0.0
  0
LINE
  5
1DD
100
AcDbEntity
  8
0
  6
CONTINUOUS
 62
               7
100
AcDbLine
 10
42.930909714535233
 20
45.582096120544705
 30
0.0
 11
42.297094686436139
 21
41.987547961187261
 31
0.0
  0
LINE
  5
1DE
100
AcDbEntity
  8
0
  6
CONTINUOUS
 62
               7
100
AcDbLine
 10
50.879273066910741
 20
45.346449110097709
 30
0.0
 11
50.37770304467449
 21
42.501900983990083
 31
0.0
  0
LINE
  5
1DF
100
AcDbEntity
  8
0
  6
CONTINUOUS
 62
               7
100
AcDbLine
 10
53.862469199165048
 20
44.988680094236784
 30
0.0
 11
53.423983179725496
 21
42.501900983990083
 31
0.0
  0
LINE
  5
1E0
100
AcDbEntity
  8
0
  6
CONTINUOUS
 62
               7
100
AcDbLine
 10
54.354873220994818
 20
44.901856090387597
 30
0.0
 11
53.84353219832542
 21
42.001900961823594
 31
0.0
  0
LINE
  5
1E1
100
AcDbEntity
  8
0
  6
CONTINUOUS
 62
               7
100
AcDbLine
 10
50.415642046356538
 20
45.596449121181038
 30
0.0
 11
49.781826018257561
 21
42.001900961823594
 31
0.0
  0
LINE
  5
1E2
100
AcDbEntity
  8
0
  6
CONTINUOUS
 62
               7
100
AcDbLine
 10
57.870209376840535
 20
45.299162108001397
 30
0.0
 11
57.368638354604286
 21
42.454613981893715
 31
0.0
  0
LINE
  5
1E3
100
AcDbEntity
  8
0
  6
CONTINUOUS
 62
               7
100
AcDbLine
 10
57.406577356286334
 20
45.54916211908467
 30
0.0
 11
56.772761328187244
 21
41.954613959727226
 31
0.0
  0
LINE
  5
1E4
100
AcDbEntity
  8
0
  6
CONTINUOUS
 62
               7
100
AcDbLine
 10
57.368638354604286
 20
42.454613981893715
 30
0.0
 11
60.414918489655406
 21
42.454613981893715
 31
0.0
  0
LINE
  5
1E5
100
AcDbEntity
  8
0
  6
CONTINUOUS
 62
               7
100
AcDbLine
 10
58.45031440255832
 20
48.58910225385462
 30
0.0
 11
61.49659453760944
 21
48.58910225385462
 31
0.0
  0
LINE
  5
1E6
100
AcDbEntity
  8
0
  6
CONTINUOUS
 62
               7
100
AcDbLine
 10
57.958372380749097
 20
45.799162130167943
 30
0.0
 11
61.004652515800103
 21
45.799162130167943
 31
0.0
  0
LINE
  5
1E7
100
AcDbEntity
  8
0
  6
CONTINUOUS
 62
               7
100
AcDbLine
 10
57.870209376840535
 20
45.299162108001397
 30
0.0
 11
60.916489511891541
 21
45.299162108001397
 31
0.0
  0
LINE
  5
1E8
100
AcDbEntity
  8
0
  6
CONTINUOUS
 62
               7
100
AcDbLine
 10
56.764862327837022
 20
41.954613959727226
 30
0.0
 11
60.834468508255327
 21
41.954613959727226
 31
0.0
  0
LINE
  5
1E9
100
AcDbEntity
  8
0
  6
CONTINUOUS
 62
               7
100
AcDbLine
 10
58.030764383958399
 20
49.089102276021165
 30
0.0
 11
62.092470564026371
 21
49.089102276021165
 31
0.0
  0
LINE
  5
1EA
100
AcDbEntity
  8
0
  6
CONTINUOUS
 62
               7
100
AcDbLine
 10
39.599999566865677
 20
23.200001172610314
 30
0.0
 11
43.599999744198044
 21
23.200001172610314
 31
0.0
  0
LINE
  5
1EB
100
AcDbEntity
  8
0
  6
CONTINUOUS
 62
               7
100
AcDbLine
 10
42.749999706514814
 20
23.200001172610314
 30
0.0
 11
42.749999706514814
 21
23.70000119477686
 31
0.0
  0
LINE
  5
1EC
100
AcDbEntity
  8
0
  6
CONTINUOUS
 62
               7
100
AcDbLine
 10
42.749999706514814
 20
23.70000119477686
 30
0.0
 11
41.749999662181722
 21
23.70000119477686
 31
0.0
  0
LINE
  5
1ED
100
AcDbEntity
  8
0
  6
CONTINUOUS
 62
               7
100
AcDbLine
 10
41.749999662181722
 20
23.70000119477686
 30
0.0
 11
41.749999662181722
 21
23.200001172610314
 31
0.0
  0
LINE
  5
1EE
100
AcDbEntity
  8
0
  6
CONTINUOUS
 62
               7
100
AcDbLine
 10
40.449999604548793
 20
23.70000119477686
 30
0.0
 11
40.449999604548793
 21
23.200001172610314
 31
0.0
  0
LINE
  5
1EF
100
AcDbEntity
  8
0
  6
CONTINUOUS
 62
               7
100
AcDbLine
 10
41.449999648881771
 20
23.200001172610314
 30
0.0
 11
41.449999648881771
 21
23.70000119477686
 31
0.0
  0
LINE
  5
1F0
100
AcDbEntity
  8
0
  6
CONTINUOUS
 62
               7
100
AcDbLine
 10
41.449999648881771
 20
23.70000119477686
 30
0.0
 11
40.449999604548793
 21
23.70000119477686
 31
0.0
  0
LINE
  5
1F1
100
AcDbEntity
  8
0
  6
CENTER
 62
               2
100
AcDbLine
 10
87.769702650537596
 20
28.700001372109227
 30
0.0
 11
75.640964612833045
 21
28.700001372109227
 31
0.0
  0
LINE
  5
1F2
100
AcDbEntity
  8
0
  6
CONTINUOUS
 62
               7
100
AcDbLine
 10
83.015237339757391
 20
-0.7350307306200818
 30
0.0
 11
83.015237339757391
 21
-2.6077078836416661
 31
0.0
  0
LINE
  5
1F3
100
AcDbEntity
  8
0
  6
CONTINUOUS
 62
               7
100
AcDbLine
 10
63.900000670759738
 20
17.450000873361944
 30
0.0
 11
64.100000679626334
 21
17.450000873361944
 31
0.0
  0
LINE
  5
1F4
100
AcDbEntity
  8
0
  6
CONTINUOUS
 62
               7
100
AcDbLine
 10
64.40000069292617
 20
18.050000899961788
 30
0.0
 11
63.900000670759738
 21
17.450000873361944
 31
0.0
  0
LINE
  5
1F5
100
AcDbEntity
  8
0
  6
CONTINUOUS
 62
               7
100
AcDbLine
 10
64.40000069292617
 20
18.050000899961788
 30
0.0
 11
64.90000071509283
 21
17.450000873361944
 31
0.0
  0
LINE
  5
1F6
100
AcDbEntity
  8
0
  6
CONTINUOUS
 62
               7
100
AcDbLine
 10
64.700000706226234
 20
17.450000873361944
 30
0.0
 11
64.90000071509283
 21
17.450000873361944
 31
0.0
  0
LINE
  5
1F7
100
AcDbEntity
  8
0
  6
CONTINUOUS
 62
               7
100
AcDbLine
 10
67.340000823265569
 20
20.000000986411351
 30
0.0
 11
66.540000787799073
 21
20.000000986411351
 31
0.0
  0
LINE
  5
1F8
100
AcDbEntity
  8
0
  6
CONTINUOUS
 62
               7
100
AcDbLine
 10
62.260000598053495
 20
20.000000986411351
 30
0.0
 11
62.260000598053495
 21
19.850000979761376
 31
0.0
  0
LINE
  5
1F9
100
AcDbEntity
  8
0
  6
CONTINUOUS
 62
               7
100
AcDbLine
 10
61.460000562586885
 20
20.000000986411351
 30
0.0
 11
61.460000562586885
 21
19.850000979761376
 31
0.0
  0
LINE
  5
1FA
100
AcDbEntity
  8
0
  6
CONTINUOUS
 62
               7
100
AcDbLine
 10
64.800000710659475
 20
20.000000986411351
 30
0.0
 11
64.800000710659475
 21
19.850000979761376
 31
0.0
  0
LINE
  5
1FB
100
AcDbEntity
  8
0
  6
CONTINUOUS
 62
               7
100
AcDbLine
 10
64.000000675192979
 20
20.000000986411351
 30
0.0
 11
64.000000675192979
 21
19.850000979761376
 31
0.0
  0
LINE
  5
1FC
100
AcDbEntity
  8
0
  6
CONTINUOUS
 62
               7
100
AcDbLine
 10
67.340000823265569
 20
20.000000986411351
 30
0.0
 11
67.340000823265569
 21
19.850000979761376
 31
0.0
  0
LINE
  5
1FD
100
AcDbEntity
  8
0
  6
CONTINUOUS
 62
               7
100
AcDbLine
 10
66.540000787799073
 20
20.000000986411351
 30
0.0
 11
66.540000787799073
 21
19.850000979761376
 31
0.0
  0
LINE
  5
1FE
100
AcDbEntity
  8
0
  6
CONTINUOUS
 62
               7
100
AcDbLine
 10
64.800000710659475
 20
20.000000986411351
 30
0.0
 11
64.000000675192979
 21
20.000000986411351
 31
0.0
  0
LINE
  5
1FF
100
AcDbEntity
  8
0
  6
CONTINUOUS
 62
               7
100
AcDbLine
 10
62.260000598053495
 20
20.000000986411351
 30
0.0
 11
61.460000562586885
 21
20.000000986411351
 31
0.0
  0
LINE
  5
200
100
AcDbEntity
  8
0
  6
CONTINUOUS
 62
               7
100
AcDbLine
 10
64.100000679626334
 20
14.650000749229264
 30
0.0
 11
64.700000706226234
 21
14.650000749229264
 31
0.0
  0
LINE
  5
201
100
AcDbEntity
  8
0
  6
CONTINUOUS
 62
               7
100
AcDbLine
 10
61.460000562586885
 20
12.500000653913105
 30
0.0
 11
62.260000598053495
 21
12.500000653913105
 31
0.0
  0
LINE
  5
202
100
AcDbEntity
  8
0
  6
CONTINUOUS
 62
               7
100
AcDbLine
 10
62.260000598053495
 20
12.65000066056308
 30
0.0
 11
62.260000598053495
 21
12.500000653913105
 31
0.0
  0
LINE
  5
203
100
AcDbEntity
  8
0
  6
CONTINUOUS
 62
               7
100
AcDbLine
 10
61.460000562586885
 20
12.65000066056308
 30
0.0
 11
61.460000562586885
 21
12.500000653913105
 31
0.0
  0
LINE
  5
204
100
AcDbEntity
  8
0
  6
CONTINUOUS
 62
               7
100
AcDbLine
 10
64.000000675192979
 20
12.65000066056308
 30
0.0
 11
64.000000675192979
 21
12.500000653913105
 31
0.0
  0
LINE
  5
205
100
AcDbEntity
  8
0
  6
CONTINUOUS
 62
               7
100
AcDbLine
 10
64.800000710659475
 20
12.65000066056308
 30
0.0
 11
64.800000710659475
 21
12.500000653913105
 31
0.0
  0
LINE
  5
206
100
AcDbEntity
  8
0
  6
CONTINUOUS
 62
               7
100
AcDbLine
 10
66.540000787799073
 20
12.65000066056308
 30
0.0
 11
66.540000787799073
 21
12.500000653913105
 31
0.0
  0
LINE
  5
207
100
AcDbEntity
  8
0
  6
CONTINUOUS
 62
               7
100
AcDbLine
 10
67.340000823265569
 20
12.65000066056308
 30
0.0
 11
67.340000823265569
 21
12.500000653913105
 31
0.0
  0
LINE
  5
208
100
AcDbEntity
  8
0
  6
CONTINUOUS
 62
               7
100
AcDbLine
 10
64.000000675192979
 20
12.500000653913105
 30
0.0
 11
64.800000710659475
 21
12.500000653913105
 31
0.0
  0
LINE
  5
209
100
AcDbEntity
  8
0
  6
CONTINUOUS
 62
               7
100
AcDbLine
 10
66.540000787799073
 20
12.500000653913105
 30
0.0
 11
67.340000823265569
 21
12.500000653913105
 31
0.0
  0
CIRCLE
  5
20A
100
AcDbEntity
  8
0
  6
CONTINUOUS
 62
               7
100
AcDbCircle
 10
64.40000069292617
 20
16.250000820162256
 30
0.0
 40
1.8000000797995803
  0
CIRCLE
  5
20B
100
AcDbEntity
  8
0
  6
CONTINUOUS
 62
               7
100
AcDbCircle
 10
64.40000069292617
 20
16.250000820162256
 30
0.0
 40
2.2000000975327954
  0
LINE
  5
20C
100
AcDbEntity
  8
0
  6
CONTINUOUS
 62
               7
100
AcDbLine
 10
64.100000679626334
 20
17.450000873361944
 30
0.0
 11
64.100000679626334
 21
14.650000749229264
 31
0.0
  0
LINE
  5
20D
100
AcDbEntity
  8
0
  6
CONTINUOUS
 62
               7
100
AcDbLine
 10
64.700000706226234
 20
17.450000873361944
 30
0.0
 11
64.700000706226234
 21
14.650000749229264
 31
0.0
  0
LINE
  5
20E
100
AcDbEntity
  8
0
  6
CONTINUOUS
 62
               7
100
AcDbLine
 10
43.599999744198044
 20
17.700000928778366
 30
0.0
 11
39.599999566865677
 21
17.700000928778366
 31
0.0
  0
LINE
  5
20F
100
AcDbEntity
  8
0
  6
CONTINUOUS
 62
               7
100
AcDbLine
 10
40.449999604548793
 20
22.200001128277222
 30
0.0
 11
41.449999648881771
 21
22.200001128277222
 31
0.0
  0
LINE
  5
210
100
AcDbEntity
  8
0
  6
CONTINUOUS
 62
               7
100
AcDbLine
 10
42.749999706514814
 20
18.700000973111401
 30
0.0
 11
41.749999662181722
 21
18.700000973111401
 31
0.0
  0
LINE
  5
211
100
AcDbEntity
  8
0
  6
CONTINUOUS
 62
               7
100
AcDbLine
 10
40.449999604548793
 20
18.700000973111401
 30
0.0
 11
40.449999604548793
 21
22.200001128277222
 31
0.0
  0
LINE
  5
212
100
AcDbEntity
  8
0
  6
CONTINUOUS
 62
               7
100
AcDbLine
 10
42.749999706514814
 20
22.200001128277222
 30
0.0
 11
42.749999706514814
 21
18.700000973111401
 31
0.0
  0
LINE
  5
213
100
AcDbEntity
  8
0
  6
CONTINUOUS
 62
               7
100
AcDbLine
 10
41.749999662181722
 20
18.700000973111401
 30
0.0
 11
41.749999662181722
 21
22.200001128277222
 31
0.0
  0
LINE
  5
214
100
AcDbEntity
  8
0
  6
CONTINUOUS
 62
               7
100
AcDbLine
 10
41.449999648881771
 20
18.700000973111401
 30
0.0
 11
41.449999648881771
 21
22.200001128277222
 31
0.0
  0
LINE
  5
215
100
AcDbEntity
  8
0
  6
CONTINUOUS
 62
               7
100
AcDbLine
 10
41.449999648881771
 20
17.700000928778366
 30
0.0
 11
41.449999648881771
 21
17.200000906611763
 31
0.0
  0
LINE
  5
216
100
AcDbEntity
  8
0
  6
CONTINUOUS
 62
               7
100
AcDbLine
 10
40.449999604548793
 20
17.200000906611763
 30
0.0
 11
40.449999604548793
 21
17.700000928778366
 31
0.0
  0
LINE
  5
217
100
AcDbEntity
  8
0
  6
CONTINUOUS
 62
               7
100
AcDbLine
 10
41.749999662181722
 20
17.200000906611763
 30
0.0
 11
41.749999662181722
 21
17.700000928778366
 31
0.0
  0
LINE
  5
218
100
AcDbEntity
  8
0
  6
CONTINUOUS
 62
               7
100
AcDbLine
 10
42.749999706514814
 20
17.700000928778366
 30
0.0
 11
42.749999706514814
 21
17.200000906611763
 31
0.0
  0
LINE
  5
219
100
AcDbEntity
  8
0
  6
CONTINUOUS
 62
               7
100
AcDbLine
 10
41.449999648881771
 20
17.200000906611763
 30
0.0
 11
40.449999604548793
 21
17.200000906611763
 31
0.0
  0
LINE
  5
21A
100
AcDbEntity
  8
0
  6
CONTINUOUS
 62
               7
100
AcDbLine
 10
42.749999706514814
 20
17.200000906611763
 30
0.0
 11
41.749999662181722
 21
17.200000906611763
 31
0.0
  0
LINE
  5
21B
100
AcDbEntity
  8
0
  6
CONTINUOUS
 62
               7
100
AcDbLine
 10
41.749999662181722
 20
22.200001128277222
 30
0.0
 11
42.749999706514814
 21
22.200001128277222
 31
0.0
  0
LINE
  5
21C
100
AcDbEntity
  8
0
  6
CONTINUOUS
 62
               7
100
AcDbLine
 10
41.449999648881771
 20
18.700000973111401
 30
0.0
 11
40.449999604548793
 21
18.700000973111401
 31
0.0
  0
LINE
  5
21D
100
AcDbEntity
  8
0
  6
CONTINUOUS
 62
               7
100
AcDbLine
 10
40.449999604548793
 20
21.450001095027403
 30
0.0
 11
41.449999648881771
 21
21.450001095027403
 31
0.0
  0
LINE
  5
21E
100
AcDbEntity
  8
0
  6
CONTINUOUS
 62
               7
100
AcDbLine
 10
41.749999662181722
 20
21.450001095027403
 30
0.0
 11
42.749999706514814
 21
21.450001095027403
 31
0.0
  0
LINE
  5
21F
100
AcDbEntity
  8
0
  6
CONTINUOUS
 62
               7
100
AcDbLine
 10
79.910280402105087
 20
-2.6077078836416661
 30
0.0
 11
79.910280402105087
 21
-0.7350307306200818
 31
0.0
  0
LINE
  5
220
100
AcDbEntity
  8
0
  6
CONTINUOUS
 62
               7
100
AcDbLine
 10
77.581562698865866
 20
-0.7350307306200818
 30
0.0
 11
85.82910456450486
 21
-0.7350307306200818
 31
0.0
  0
LINE
  5
221
100
AcDbEntity
  8
0
  6
CONTINUOUS
 62
               7
100
AcDbLine
 10
79.619190689200167
 20
-2.6077078836416661
 30
0.0
 11
83.306327052662311
 21
-2.6077078836416661
 31
0.0
  0
LINE
  5
222
100
AcDbEntity
  8
0
  6
CONTINUOUS
 62
               7
100
AcDbLine
 10
43.599999744198044
 20
23.200001172610314
 30
0.0
 11
43.599999744198044
 21
17.700000928778366
 31
0.0
  0
LINE
  5
223
100
AcDbEntity
  8
0
  6
CONTINUOUS
 62
               7
100
AcDbLine
 10
39.599999566865677
 20
17.700000928778366
 30
0.0
 11
39.599999566865677
 21
23.200001172610314
 31
0.0
  0
CIRCLE
  5
224
100
AcDbEntity
  8
0
  6
CONTINUOUS
 62
               7
100
AcDbCircle
 10
84.74000156806153
 20
-60.050002562452818
 30
0.0
 40
1.6000000709329729
  0
LINE
  5
225
100
AcDbEntity
  8
0
  6
CENTER
 62
               2
100
AcDbLine
 10
84.74000156806153
 20
-63.985405302353712
 30
0.0
 11
84.74000156806153
 21
-55.893031109506026
 31
0.0
  0
LINE
  5
226
100
AcDbEntity
  8
0
  6
CENTER
 62
               2
100
AcDbLine
 10
80.767553955274849
 20
-60.050002562452818
 30
0.0
 11
88.6287174568983
 21
-60.050002562452818
 31
0.0
  0
CIRCLE
  5
227
100
AcDbEntity
  8
0
  6
CONTINUOUS
 62
               7
100
AcDbCircle
 10
84.74000156806153
 20
-60.050002562452818
 30
0.0
 40
3.0000001329992818
  0
LINE
  5
228
100
AcDbEntity
  8
0
  6
CONTINUOUS
 62
               7
100
AcDbLine
 10
35.686426393364854
 20
49.144764278488836
 30
0.0
 11
35.052611365265875
 21
45.550216119131349
 31
0.0
  0
LINE
  5
229
100
AcDbEntity
  8
0
  6
CONTINUOUS
 62
               7
100
AcDbLine
 10
36.096347411537863
 20
48.590155253901301
 30
0.0
 11
35.604406389728638
 21
45.800216130214679
 31
0.0
  0
LINE
  5
22A
100
AcDbEntity
  8
0
  6
CONTINUOUS
 62
               7
100
AcDbLine
 10
36.096347411537863
 20
48.590155253901301
 30
0.0
 11
35.676797392937942
 21
49.090155276067847
 31
0.0
  0
LINE
  5
22B
100
AcDbEntity
  8
0
  6
CONTINUOUS
 62
               7
100
AcDbLine
 10
35.052611365265875
 20
45.550216119131349
 30
0.0
 11
35.604406389728638
 21
45.800216130214679
 31
0.0
  0
LINE
  5
22C
100
AcDbEntity
  8
0
  6
CONTINUOUS
 62
               7
100
AcDbLine
 10
35.052611365265875
 20
45.550216119131349
 30
0.0
 11
35.516242385820078
 21
45.300216108048076
 31
0.0
  0
LINE
  5
22D
100
AcDbEntity
  8
0
  6
CONTINUOUS
 62
               7
100
AcDbLine
 10
19.150510260276519
 20
45.728749577046315
 30
0.0
 11
21.188138250610905
 21
45.728749577046315
 31
0.0
  0
LINE
  5
22E
100
AcDbEntity
  8
0
  6
CONTINUOUS
 62
               7
100
AcDbLine
 10
19.150510260276519
 20
44.952510342633232
 30
0.0
 11
21.188138250610905
 21
44.952510342633232
 31
0.0
  0
LINE
  5
22F
100
AcDbEntity
  8
0
  6
CONTINUOUS
 62
               7
100
AcDbLine
 10
14.00792533228983
 20
43.351516921656241
 30
0.0
 11
15.463373896814346
 21
43.351516921656241
 31
0.0
  0
LINE
  5
230
100
AcDbEntity
  8
0
  6
CONTINUOUS
 62
               7
100
AcDbLine
 10
19.150510260276519
 20
43.351516921656241
 30
0.0
 11
20.120809303292901
 21
43.351516921656241
 31
0.0
  0
LINE
  5
231
100
AcDbEntity
  8
0
  6
CONTINUOUS
 62
               7
100
AcDbLine
 10
19.975264446840441
 20
44.952510342633232
 30
0.0
 11
19.975264446840441
 21
43.351516921656241
 31
0.0
  0
LINE
  5
232
100
AcDbEntity
  8
0
  6
CONTINUOUS
 62
               7
100
AcDbLine
 10
14.638619710250452
 20
44.952510342633232
 30
0.0
 11
14.638619710250452
 21
43.351516921656241
 31
0.0
  0
LINE
  5
233
100
AcDbEntity
  8
0
  6
CONTINUOUS
 62
               7
100
AcDbLine
 10
19.150510260276519
 20
46.990138332967561
 30
0.0
 11
15.463373896814346
 21
46.990138332967561
 31
0.0
  0
LINE
  5
234
100
AcDbEntity
  8
0
  6
CONTINUOUS
 62
               7
100
AcDbLine
 10
19.150510260276519
 20
43.788151491013622
 30
0.0
 11
15.463373896814346
 21
43.788151491013622
 31
0.0
  0
LINE
  5
235
100
AcDbEntity
  8
0
  6
CONTINUOUS
 62
               7
100
AcDbLine
 10
19.150510260276519
 20
44.75845053402999
 30
0.0
 11
15.463373896814346
 21
44.75845053402999
 31
0.0
  0
LINE
  5
236
100
AcDbEntity
  8
0
  6
CONTINUOUS
 62
               7
100
AcDbLine
 10
19.150510260276519
 20
45.728749577046315
 30
0.0
 11
15.463373896814346
 21
45.728749577046315
 31
0.0
  0
LINE
  5
237
100
AcDbEntity
  8
0
  6
CONTINUOUS
 62
               7
100
AcDbLine
 10
15.463373896814346
 20
48.513507830503286
 30
0.0
 11
19.150510260276519
 21
48.513507830503286
 31
0.0
  0
LINE
  5
238
100
AcDbEntity
  8
0
  6
CONTINUOUS
 62
               7
100
AcDbLine
 10
35.014672363583941
 20
42.455666981940396
 30
0.0
 11
34.410896336816563
 21
41.955666959773851
 31
0.0
  0
LINE
  5
239
100
AcDbEntity
  8
0
  6
CONTINUOUS
 62
               7
100
AcDbLine
 10
34.926508359675267
 20
41.955666959773851
 30
0.0
 11
34.911199358996669
 21
41.868842955924663
 31
0.0
  0
LINE
  5
23A
100
AcDbEntity
  8
0
  6
CONTINUOUS
 62
               7
100
AcDbLine
 10
15.463373896814346
 20
40.877254361964503
 30
0.0
 11
19.150510260276519
 21
40.877254361964503
 31
0.0
  0
LINE
  5
23B
100
AcDbEntity
  8
0
  6
CONTINUOUS
 62
               7
100
AcDbLine
 10
19.150510260276519
 20
41.847553404980914
 30
0.0
 11
15.463373896814346
 21
41.847553404980914
 31
0.0
  0
LINE
  5
23C
100
AcDbEntity
  8
0
  6
CONTINUOUS
 62
               7
100
AcDbLine
 10
19.150510260276519
 20
42.817852447997183
 30
0.0
 11
15.463373896814346
 21
42.817852447997183
 31
0.0
  0
LINE
  5
23D
100
AcDbEntity
  8
0
  6
CONTINUOUS
 62
               7
100
AcDbLine
 10
19.150510260276519
 20
48.513507830503286
 30
0.0
 11
19.150510260276519
 21
40.877254361964503
 31
0.0
  0
LINE
  5
23E
100
AcDbEntity
  8
0
  6
CONTINUOUS
 62
               7
100
AcDbLine
 10
15.463373896814346
 20
40.877254361964503
 30
0.0
 11
15.463373896814346
 21
48.513507830503286
 31
0.0
  0
LINE
  5
23F
100
AcDbEntity
  8
0
  6
CONTINUOUS
 62
               7
100
AcDbLine
 10
35.052611365265875
 20
45.550216119131349
 30
0.0
 11
34.418795337166785
 21
41.955666959773851
 31
0.0
  0
LINE
  5
240
100
AcDbEntity
  8
0
  6
CONTINUOUS
 62
               7
100
AcDbLine
 10
35.516242385820078
 20
45.300216108048076
 30
0.0
 11
35.014672363583941
 21
42.455666981940396
 31
0.0
  0
LINE
  5
241
100
AcDbEntity
  8
0
  6
CONTINUOUS
 62
               7
100
AcDbLine
 10
12.940596384971911
 20
45.728749577046315
 30
0.0
 11
15.463373896814346
 21
45.728749577046315
 31
0.0
  0
LINE
  5
242
100
AcDbEntity
  8
0
  6
CONTINUOUS
 62
               7
100
AcDbLine
 10
12.940596384971911
 20
44.952510342633232
 30
0.0
 11
15.463373896814346
 21
44.952510342633232
 31
0.0
  0
LINE
  5
243
100
AcDbEntity
  8
0
  6
CONTINUOUS
 62
               7
100
AcDbLine
 10
19.247540164578112
 20
30.689114410292746
 30
0.0
 11
21.188138250610905
 21
30.689114410292746
 31
0.0
  0
LINE
  5
244
100
AcDbEntity
  8
0
  6
CONTINUOUS
 62
               7
100
AcDbLine
 10
21.188138250610905
 20
33.260406874286133
 30
0.0
 11
21.188138250610905
 21
33.648526491492674
 31
0.0
  0
LINE
  5
245
100
AcDbEntity
  8
0
  6
CONTINUOUS
 62
               7
100
AcDbLine
 10
19.247540164578112
 20
26.72303065615003
 30
0.0
 11
21.188138250610905
 21
26.72303065615003
 31
0.0
  0
LINE
  5
246
100
AcDbEntity
  8
0
  6
CONTINUOUS
 62
               7
100
AcDbLine
 10
19.247540164578112
 20
26.72303065615003
 30
0.0
 11
19.247540164578112
 21
28.700001372109227
 31
0.0
  0
LINE
  5
247
100
AcDbEntity
  8
0
  6
CONTINUOUS
 62
               7
100
AcDbLine
 10
21.188138250610905
 20
28.700001372109227
 30
0.0
 11
21.188138250610905
 21
33.260406874286133
 31
0.0
  0
LINE
  5
248
100
AcDbEntity
  8
0
  6
CONTINUOUS
 62
               7
100
AcDbLine
 10
19.247540164578112
 20
28.700001372109227
 30
0.0
 11
19.247540164578112
 21
30.689114410292746
 31
0.0
  0
LINE
  5
249
100
AcDbEntity
  8
0
  6
CENTER
 62
               2
100
AcDbLine
 10
23.128736336643641
 20
28.700001372109227
 30
0.0
 11
10.999998298939204
 21
28.700001372109227
 31
0.0
  0
LINE
  5
24A
100
AcDbEntity
  8
0
  6
CONTINUOUS
 62
               7
100
AcDbLine
 10
20.120809303292901
 20
43.351516921656241
 30
0.0
 11
20.120809303292901
 21
30.689114410292746
 31
0.0
  0
LINE
  5
24B
100
AcDbEntity
  8
0
  6
CONTINUOUS
 62
               7
100
AcDbLine
 10
14.00792533228983
 20
28.700001372109227
 30
0.0
 11
14.00792533228983
 21
43.351516921656241
 31
0.0
  0
LINE
  5
24C
100
AcDbEntity
  8
0
  6
CONTINUOUS
 62
               7
100
AcDbLine
 10
19.150510260276519
 20
11.671253167172182
 30
0.0
 11
21.188138250610905
 21
11.671253167172182
 31
0.0
  0
LINE
  5
24D
100
AcDbEntity
  8
0
  6
CONTINUOUS
 62
               7
100
AcDbLine
 10
19.150510260276519
 20
12.447492401585293
 30
0.0
 11
21.188138250610905
 21
12.447492401585293
 31
0.0
  0
LINE
  5
24E
100
AcDbEntity
  8
0
  6
CONTINUOUS
 62
               7
100
AcDbLine
 10
14.00792533228983
 20
14.048485822562284
 30
0.0
 11
15.463373896814346
 21
14.048485822562284
 31
0.0
  0
LINE
  5
24F
100
AcDbEntity
  8
0
  6
CONTINUOUS
 62
               7
100
AcDbLine
 10
19.150510260276519
 20
14.048485822562284
 30
0.0
 11
20.120809303292901
 21
14.048485822562284
 31
0.0
  0
LINE
  5
250
100
AcDbEntity
  8
0
  6
CONTINUOUS
 62
               7
100
AcDbLine
 10
14.638619710250452
 20
12.447492401585293
 30
0.0
 11
14.638619710250452
 21
14.048485822562284
 31
0.0
  0
LINE
  5
251
100
AcDbEntity
  8
0
  6
CONTINUOUS
 62
               7
100
AcDbLine
 10
19.975264446840441
 20
14.048485822562284
 30
0.0
 11
19.975264446840441
 21
12.447492401585293
 31
0.0
  0
LINE
  5
252
100
AcDbEntity
  8
0
  6
CONTINUOUS
 62
               7
100
AcDbLine
 10
15.463373896814346
 20
14.582150296221243
 30
0.0
 11
19.150510260276519
 21
14.582150296221243
 31
0.0
  0
LINE
  5
253
100
AcDbEntity
  8
0
  6
CONTINUOUS
 62
               7
100
AcDbLine
 10
15.463373896814346
 20
13.611851253204875
 30
0.0
 11
19.150510260276519
 21
13.611851253204875
 31
0.0
  0
LINE
  5
254
100
AcDbEntity
  8
0
  6
CONTINUOUS
 62
               7
100
AcDbLine
 10
15.463373896814346
 20
12.641552210188536
 30
0.0
 11
19.150510260276519
 21
12.641552210188536
 31
0.0
  0
LINE
  5
255
100
AcDbEntity
  8
0
  6
CONTINUOUS
 62
               7
100
AcDbLine
 10
15.463373896814346
 20
11.671253167172182
 30
0.0
 11
19.150510260276519
 21
11.671253167172182
 31
0.0
  0
LINE
  5
256
100
AcDbEntity
  8
0
  6
CONTINUOUS
 62
               7
100
AcDbLine
 10
15.463373896814346
 20
16.522748382253965
 30
0.0
 11
19.150510260276519
 21
16.522748382253965
 31
0.0
  0
LINE
  5
257
100
AcDbEntity
  8
0
  6
CONTINUOUS
 62
               7
100
AcDbLine
 10
15.463373896814346
 20
15.552449339237597
 30
0.0
 11
19.150510260276519
 21
15.552449339237597
 31
0.0
  0
LINE
  5
258
100
AcDbEntity
  8
0
  6
CONTINUOUS
 62
               7
100
AcDbLine
 10
14.00792533228983
 20
14.048485822562284
 30
0.0
 11
14.00792533228983
 21
23.751476252725837
 31
0.0
  0
LINE
  5
259
100
AcDbEntity
  8
0
  6
CONTINUOUS
 62
               7
100
AcDbLine
 10
12.940596384971911
 20
11.671253167172182
 30
0.0
 11
15.463373896814346
 21
11.671253167172182
 31
0.0
  0
LINE
  5
25A
100
AcDbEntity
  8
0
  6
CONTINUOUS
 62
               7
100
AcDbLine
 10
12.940596384971911
 20
12.447492401585293
 30
0.0
 11
15.463373896814346
 21
12.447492401585293
 31
0.0
  0
LINE
  5
25B
100
AcDbEntity
  8
0
  6
CONTINUOUS
 62
               7
100
AcDbLine
 10
15.754463609719267
 20
7.0138177606936551
 30
0.0
 11
15.754463609719267
 21
8.886494913715282
 31
0.0
  0
LINE
  5
25C
100
AcDbEntity
  8
0
  6
CONTINUOUS
 62
               7
100
AcDbLine
 10
18.859420547371627
 20
8.886494913715282
 30
0.0
 11
18.859420547371627
 21
7.0138177606936551
 31
0.0
  0
LINE
  5
25D
100
AcDbEntity
  8
0
  6
CONTINUOUS
 62
               7
100
AcDbLine
 10
19.150510260276519
 20
8.886494913715282
 30
0.0
 11
15.463373896814346
 21
8.886494913715282
 31
0.0
  0
LINE
  5
25E
100
AcDbEntity
  8
0
  6
CONTINUOUS
 62
               7
100
AcDbLine
 10
15.463373896814346
 20
10.409864411250894
 30
0.0
 11
19.150510260276519
 21
10.409864411250894
 31
0.0
  0
LINE
  5
25F
100
AcDbEntity
  8
0
  6
CONTINUOUS
 62
               7
100
AcDbLine
 10
19.150510260276519
 20
-1.7598521721379257
 30
0.0
 11
15.463373896814346
 21
-1.7598521721379257
 31
0.0
  0
LINE
  5
260
100
AcDbEntity
  8
0
  6
CONTINUOUS
 62
               7
100
AcDbLine
 10
19.150510260276519
 20
-3.0212409280592141
 30
0.0
 11
15.463373896814346
 21
-3.0212409280592141
 31
0.0
  0
LINE
  5
261
100
AcDbEntity
  8
0
  6
CONTINUOUS
 62
               7
100
AcDbLine
 10
19.150510260276519
 20
-3.0212409280592141
 30
0.0
 11
21.188138250610905
 21
-3.0212409280592141
 31
0.0
  0
LINE
  5
262
100
AcDbEntity
  8
0
  6
CONTINUOUS
 62
               7
100
AcDbLine
 10
15.463373896814346
 20
-0.2364826746022004
 30
0.0
 11
19.150510260276519
 21
-0.2364826746022004
 31
0.0
  0
LINE
  5
263
100
AcDbEntity
  8
0
  6
CONTINUOUS
 62
               7
100
AcDbLine
 10
15.754463609719267
 20
-0.2364826746022004
 30
0.0
 11
15.754463609719267
 21
1.6361944784192985
 31
0.0
  0
LINE
  5
264
100
AcDbEntity
  8
0
  6
CONTINUOUS
 62
               7
100
AcDbLine
 10
18.859420547371627
 20
1.6361944784192985
 30
0.0
 11
18.859420547371627
 21
-0.2364826746022004
 31
0.0
  0
LINE
  5
265
100
AcDbEntity
  8
0
  6
CONTINUOUS
 62
               7
100
AcDbLine
 10
21.188138250610905
 20
7.0138177606936551
 30
0.0
 11
12.940596384971911
 21
7.0138177606936551
 31
0.0
  0
LINE
  5
266
100
AcDbEntity
  8
0
  6
CONTINUOUS
 62
               7
100
AcDbLine
 10
12.940596384971911
 20
-3.0212409280592141
 30
0.0
 11
15.463373896814346
 21
-3.0212409280592141
 31
0.0
  0
LINE
  5
267
100
AcDbEntity
  8
0
  6
CONTINUOUS
 62
               7
100
AcDbLine
 10
12.940596384971911
 20
1.6361944784192985
 30
0.0
 11
21.188138250610905
 21
1.6361944784192985
 31
0.0
  0
LINE
  5
268
100
AcDbEntity
  8
0
  6
CONTINUOUS
 62
               7
100
AcDbLine
 10
12.940596384971911
 20
7.0138177606936551
 30
0.0
 11
12.940596384971911
 21
23.751476252725837
 31
0.0
  0
LINE
  5
269
100
AcDbEntity
  8
0
  6
CONTINUOUS
 62
               7
100
AcDbLine
 10
19.150510260276519
 20
16.522748382253965
 30
0.0
 11
19.150510260276519
 21
8.886494913715282
 31
0.0
  0
LINE
  5
26A
100
AcDbEntity
  8
0
  6
CONTINUOUS
 62
               7
100
AcDbLine
 10
15.463373896814346
 20
8.886494913715282
 30
0.0
 11
15.463373896814346
 21
16.522748382253965
 31
0.0
  0
LINE
  5
26B
100
AcDbEntity
  8
0
  6
CONTINUOUS
 62
               7
100
AcDbLine
 10
21.188138250610905
 20
23.751476252725837
 30
0.0
 11
21.188138250610905
 21
7.0138177606936551
 31
0.0
  0
LINE
  5
26C
100
AcDbEntity
  8
0
  6
CONTINUOUS
 62
               7
100
AcDbLine
 10
20.120809303292901
 20
26.710888333925709
 30
0.0
 11
20.120809303292901
 21
14.048485822562284
 31
0.0
  0
LINE
  5
26D
100
AcDbEntity
  8
0
  6
CONTINUOUS
 62
               7
100
AcDbLine
 10
12.940596384971911
 20
23.751476252725837
 30
0.0
 11
12.940596384971911
 21
28.700001372109227
 31
0.0
  0
LINE
  5
26E
100
AcDbEntity
  8
0
  6
CONTINUOUS
 62
               7
100
AcDbLine
 10
14.00792533228983
 20
28.700001372109227
 30
0.0
 11
14.00792533228983
 21
23.751476252725837
 31
0.0
  0
LINE
  5
26F
100
AcDbEntity
  8
0
  6
CONTINUOUS
 62
               7
100
AcDbLine
 10
21.188138250610905
 20
23.751476252725837
 30
0.0
 11
21.188138250610905
 21
28.700001372109227
 31
0.0
  0
LINE
  5
270
100
AcDbEntity
  8
0
  6
CONTINUOUS
 62
               7
100
AcDbLine
 10
19.150510260276519
 20
-4.9618390140919217
 30
0.0
 11
15.463373896814346
 21
-4.9618390140919217
 31
0.0
  0
LINE
  5
271
100
AcDbEntity
  8
0
  6
CONTINUOUS
 62
               7
100
AcDbLine
 10
19.150510260276519
 20
-3.9915399710755537
 30
0.0
 11
15.463373896814346
 21
-3.9915399710755537
 31
0.0
  0
LINE
  5
272
100
AcDbEntity
  8
0
  6
CONTINUOUS
 62
               7
100
AcDbLine
 10
15.463373896814346
 20
-7.872736143140969
 30
0.0
 11
19.150510260276519
 21
-7.872736143140969
 31
0.0
  0
LINE
  5
273
100
AcDbEntity
  8
0
  6
CONTINUOUS
 62
               7
100
AcDbLine
 10
19.150510260276519
 20
-6.9024371001246294
 30
0.0
 11
15.463373896814346
 21
-6.9024371001246294
 31
0.0
  0
LINE
  5
274
100
AcDbEntity
  8
0
  6
CONTINUOUS
 62
               7
100
AcDbLine
 10
19.150510260276519
 20
-5.9321380571082756
 30
0.0
 11
15.463373896814346
 21
-5.9321380571082756
 31
0.0
  0
LINE
  5
275
100
AcDbEntity
  8
0
  6
CONTINUOUS
 62
               7
100
AcDbLine
 10
14.00792533228983
 20
-5.3984735834492454
 30
0.0
 11
15.463373896814346
 21
-5.3984735834492454
 31
0.0
  0
LINE
  5
276
100
AcDbEntity
  8
0
  6
CONTINUOUS
 62
               7
100
AcDbLine
 10
14.638619710250452
 20
-3.7974801624722545
 30
0.0
 11
14.638619710250452
 21
-5.3984735834492454
 31
0.0
  0
LINE
  5
277
100
AcDbEntity
  8
0
  6
CONTINUOUS
 62
               7
100
AcDbLine
 10
19.150510260276519
 20
-3.7974801624722545
 30
0.0
 11
21.188138250610905
 21
-3.7974801624722545
 31
0.0
  0
LINE
  5
278
100
AcDbEntity
  8
0
  6
CONTINUOUS
 62
               7
100
AcDbLine
 10
19.150510260276519
 20
-5.3984735834492454
 30
0.0
 11
20.120809303292901
 21
-5.3984735834492454
 31
0.0
  0
LINE
  5
279
100
AcDbEntity
  8
0
  6
CONTINUOUS
 62
               7
100
AcDbLine
 10
19.975264446840441
 20
-3.7974801624722545
 30
0.0
 11
19.975264446840441
 21
-5.3984735834492454
 31
0.0
  0
LINE
  5
27A
100
AcDbEntity
  8
0
  6
CONTINUOUS
 62
               7
100
AcDbLine
 10
21.188138250610905
 20
-15.489583630819354
 30
0.0
 11
21.188138250610905
 21
-15.101464013612798
 31
0.0
  0
LINE
  5
27B
100
AcDbEntity
  8
0
  6
CONTINUOUS
 62
               7
100
AcDbLine
 10
12.940596384971911
 20
-3.7974801624722545
 30
0.0
 11
15.463373896814346
 21
-3.7974801624722545
 31
0.0
  0
LINE
  5
27C
100
AcDbEntity
  8
0
  6
CONTINUOUS
 62
               7
100
AcDbLine
 10
19.247540164578112
 20
-22.026959848955428
 30
0.0
 11
19.247540164578112
 21
-20.049989132996274
 31
0.0
  0
LINE
  5
27D
100
AcDbEntity
  8
0
  6
CONTINUOUS
 62
               7
100
AcDbLine
 10
19.247540164578112
 20
-22.026959848955428
 30
0.0
 11
21.188138250610905
 21
-22.026959848955428
 31
0.0
  0
LINE
  5
27E
100
AcDbEntity
  8
0
  6
CONTINUOUS
 62
               7
100
AcDbLine
 10
19.247540164578112
 20
-20.049989132996274
 30
0.0
 11
19.247540164578112
 21
-18.060876094812713
 31
0.0
  0
LINE
  5
27F
100
AcDbEntity
  8
0
  6
CONTINUOUS
 62
               7
100
AcDbLine
 10
19.247540164578112
 20
-18.060876094812713
 30
0.0
 11
21.188138250610905
 21
-18.060876094812713
 31
0.0
  0
LINE
  5
280
100
AcDbEntity
  8
0
  6
CONTINUOUS
 62
               7
100
AcDbLine
 10
21.188138250610905
 20
-24.99851425237965
 30
0.0
 11
21.188138250610905
 21
-20.049989132996274
 31
0.0
  0
LINE
  5
281
100
AcDbEntity
  8
0
  6
CONTINUOUS
 62
               7
100
AcDbLine
 10
14.00792533228983
 20
-20.049989132996274
 30
0.0
 11
14.00792533228983
 21
-24.99851425237965
 31
0.0
  0
LINE
  5
282
100
AcDbEntity
  8
0
  6
CONTINUOUS
 62
               7
100
AcDbLine
 10
12.940596384971911
 20
-24.99851425237965
 30
0.0
 11
12.940596384971911
 21
-20.049989132996274
 31
0.0
  0
LINE
  5
283
100
AcDbEntity
  8
0
  6
CENTER
 62
               2
100
AcDbLine
 10
11.841024044443714
 20
-19.95000078691244
 30
0.0
 11
22.49734041244173
 21
-19.95000078691244
 31
0.0
  0
LINE
  5
284
100
AcDbEntity
  8
0
  6
CONTINUOUS
 62
               7
100
AcDbLine
 10
20.120809303292901
 20
-5.3984735834492454
 30
0.0
 11
20.120809303292901
 21
-18.060876094812713
 31
0.0
  0
LINE
  5
285
100
AcDbEntity
  8
0
  6
CONTINUOUS
 62
               7
100
AcDbLine
 10
14.00792533228983
 20
-20.049989132996274
 30
0.0
 11
14.00792533228983
 21
-5.3984735834492454
 31
0.0
  0
LINE
  5
286
100
AcDbEntity
  8
0
  6
CONTINUOUS
 62
               7
100
AcDbLine
 10
21.188138250610905
 20
-20.049989132996274
 30
0.0
 11
21.188138250610905
 21
-15.489583630819354
 31
0.0
  0
LINE
  5
287
100
AcDbEntity
  8
0
  6
CONTINUOUS
 62
               7
100
AcDbLine
 10
15.463373896814346
 20
-35.138139251900583
 30
0.0
 11
19.150510260276519
 21
-35.138139251900583
 31
0.0
  0
LINE
  5
288
100
AcDbEntity
  8
0
  6
CONTINUOUS
 62
               7
100
AcDbLine
 10
15.463373896814346
 20
-36.108438294916951
 30
0.0
 11
19.150510260276519
 21
-36.108438294916951
 31
0.0
  0
LINE
  5
289
100
AcDbEntity
  8
0
  6
CONTINUOUS
 62
               7
100
AcDbLine
 10
15.463373896814346
 20
-34.167840208884229
 30
0.0
 11
19.150510260276519
 21
-34.167840208884229
 31
0.0
  0
LINE
  5
28A
100
AcDbEntity
  8
0
  6
CONTINUOUS
 62
               7
100
AcDbLine
 10
15.463373896814346
 20
-32.227242122851536
 30
0.0
 11
19.150510260276519
 21
-32.227242122851536
 31
0.0
  0
LINE
  5
28B
100
AcDbEntity
  8
0
  6
CONTINUOUS
 62
               7
100
AcDbLine
 10
15.463373896814346
 20
-33.197541165867875
 30
0.0
 11
19.150510260276519
 21
-33.197541165867875
 31
0.0
  0
LINE
  5
28C
100
AcDbEntity
  8
0
  6
CONTINUOUS
 62
               7
100
AcDbLine
 10
14.00792533228983
 20
-34.701504682543259
 30
0.0
 11
15.463373896814346
 21
-34.701504682543259
 31
0.0
  0
LINE
  5
28D
100
AcDbEntity
  8
0
  6
CONTINUOUS
 62
               7
100
AcDbLine
 10
19.150510260276519
 20
-34.701504682543259
 30
0.0
 11
20.120809303292901
 21
-34.701504682543259
 31
0.0
  0
LINE
  5
28E
100
AcDbEntity
  8
0
  6
CONTINUOUS
 62
               7
100
AcDbLine
 10
18.859420547371627
 20
-39.863495591390247
 30
0.0
 11
18.859420547371627
 21
-41.736172744411832
 31
0.0
  0
LINE
  5
28F
100
AcDbEntity
  8
0
  6
CONTINUOUS
 62
               7
100
AcDbLine
 10
15.754463609719267
 20
-41.736172744411832
 30
0.0
 11
15.754463609719267
 21
-39.863495591390247
 31
0.0
  0
LINE
  5
290
100
AcDbEntity
  8
0
  6
CONTINUOUS
 62
               7
100
AcDbLine
 10
15.463373896814346
 20
-37.078737337933305
 30
0.0
 11
19.150510260276519
 21
-37.078737337933305
 31
0.0
  0
LINE
  5
291
100
AcDbEntity
  8
0
  6
CONTINUOUS
 62
               7
100
AcDbLine
 10
19.150510260276519
 20
-39.863495591390247
 30
0.0
 11
15.463373896814346
 21
-39.863495591390247
 31
0.0
  0
LINE
  5
292
100
AcDbEntity
  8
0
  6
CONTINUOUS
 62
               7
100
AcDbLine
 10
15.463373896814346
 20
-38.340126093854586
 30
0.0
 11
19.150510260276519
 21
-38.340126093854586
 31
0.0
  0
LINE
  5
293
100
AcDbEntity
  8
0
  6
CONTINUOUS
 62
               7
100
AcDbLine
 10
19.150510260276519
 20
-37.078737337933305
 30
0.0
 11
21.188138250610905
 21
-37.078737337933305
 31
0.0
  0
LINE
  5
294
100
AcDbEntity
  8
0
  6
CONTINUOUS
 62
               7
100
AcDbLine
 10
19.150510260276519
 20
-36.302498103520193
 30
0.0
 11
21.188138250610905
 21
-36.302498103520193
 31
0.0
  0
LINE
  5
295
100
AcDbEntity
  8
0
  6
CONTINUOUS
 62
               7
100
AcDbLine
 10
19.975264446840441
 20
-34.701504682543259
 30
0.0
 11
19.975264446840441
 21
-36.302498103520193
 31
0.0
  0
LINE
  5
296
100
AcDbEntity
  8
0
  6
CONTINUOUS
 62
               7
100
AcDbLine
 10
14.638619710250452
 20
-36.302498103520193
 30
0.0
 11
14.638619710250452
 21
-34.701504682543259
 31
0.0
  0
LINE
  5
297
100
AcDbEntity
  8
0
  6
CONTINUOUS
 62
               7
100
AcDbLine
 10
19.150510260276519
 20
-32.227242122851536
 30
0.0
 11
19.150510260276519
 21
-39.863495591390247
 31
0.0
  0
LINE
  5
298
100
AcDbEntity
  8
0
  6
CONTINUOUS
 62
               7
100
AcDbLine
 10
15.463373896814346
 20
-39.863495591390247
 30
0.0
 11
15.463373896814346
 21
-32.227242122851536
 31
0.0
  0
LINE
  5
299
100
AcDbEntity
  8
0
  6
CONTINUOUS
 62
               7
100
AcDbLine
 10
21.188138250610905
 20
-41.736172744411832
 30
0.0
 11
12.940596384971911
 21
-41.736172744411832
 31
0.0
  0
LINE
  5
29A
100
AcDbEntity
  8
0
  6
CONTINUOUS
 62
               7
100
AcDbLine
 10
12.940596384971911
 20
-37.078737337933305
 30
0.0
 11
15.463373896814346
 21
-37.078737337933305
 31
0.0
  0
LINE
  5
29B
100
AcDbEntity
  8
0
  6
CONTINUOUS
 62
               7
100
AcDbLine
 10
12.940596384971911
 20
-36.302498103520193
 30
0.0
 11
15.463373896814346
 21
-36.302498103520193
 31
0.0
  0
LINE
  5
29C
100
AcDbEntity
  8
0
  6
CONTINUOUS
 62
               7
100
AcDbLine
 10
21.519998765323294
 20
-49.730002104935295
 30
0.0
 11
21.519998765323294
 21
-46.130001945336176
 31
0.0
  0
LINE
  5
29D
100
AcDbEntity
  8
0
  6
CONTINUOUS
 62
               7
100
AcDbLine
 10
19.019998654490564
 20
-49.730002104935295
 30
0.0
 11
19.019998654490564
 21
-46.130001945336176
 31
0.0
  0
CIRCLE
  5
29E
100
AcDbEntity
  8
0
  6
CONTINUOUS
 62
               7
100
AcDbCircle
 10
19.019998654490564
 20
-47.930002025135735
 30
0.0
 40
1.7500000775829143
  0
CIRCLE
  5
29F
100
AcDbEntity
  8
0
  6
CONTINUOUS
 62
               7
100
AcDbCircle
 10
23.519998853989478
 20
-47.930002025135735
 30
0.0
 40
1.0000000443330939
  0
LINE
  5
2A0
100
AcDbEntity
  8
0
  6
CONTINUOUS
 62
               7
100
AcDbLine
 10
21.519998765323294
 20
-46.130001945336176
 30
0.0
 11
25.519998942655661
 21
-46.130001945336176
 31
0.0
  0
LINE
  5
2A1
100
AcDbEntity
  8
0
  6
CONTINUOUS
 62
               7
100
AcDbLine
 10
25.519998942655661
 20
-49.730002104935295
 30
0.0
 11
21.519998765323294
 21
-49.730002104935295
 31
0.0
  0
LINE
  5
2A2
100
AcDbEntity
  8
0
  6
CONTINUOUS
 62
               7
100
AcDbLine
 10
21.519998765323294
 20
-54.810002330147427
 30
0.0
 11
21.519998765323294
 21
-51.210002170548279
 31
0.0
  0
LINE
  5
2A3
100
AcDbEntity
  8
0
  6
CONTINUOUS
 62
               7
100
AcDbLine
 10
19.019998654490564
 20
-54.810002330147427
 30
0.0
 11
19.019998654490564
 21
-51.210002170548279
 31
0.0
  0
CIRCLE
  5
2A4
100
AcDbEntity
  8
0
  6
CONTINUOUS
 62
               7
100
AcDbCircle
 10
19.019998654490564
 20
-53.010002250347839
 30
0.0
 40
1.7500000775829143
  0
CIRCLE
  5
2A5
100
AcDbEntity
  8
0
  6
CONTINUOUS
 62
               7
100
AcDbCircle
 10
23.519998853989478
 20
-53.010002250347839
 30
0.0
 40
1.0000000443330939
  0
LINE
  5
2A6
100
AcDbEntity
  8
0
  6
CONTINUOUS
 62
               7
100
AcDbLine
 10
21.519998765323294
 20
-51.210002170548279
 30
0.0
 11
25.519998942655661
 21
-51.210002170548279
 31
0.0
  0
LINE
  5
2A7
100
AcDbEntity
  8
0
  6
CONTINUOUS
 62
               7
100
AcDbLine
 10
25.519998942655661
 20
-54.810002330147427
 30
0.0
 11
21.519998765323294
 21
-54.810002330147427
 31
0.0
  0
LINE
  5
2A8
100
AcDbEntity
  8
0
  6
CONTINUOUS
 62
               7
100
AcDbLine
 10
25.519998942655661
 20
-55.550002362953904
 30
0.0
 11
25.519998942655661
 21
-45.390001912529698
 31
0.0
  0
LINE
  5
2A9
100
AcDbEntity
  8
0
  6
CONTINUOUS
 62
               7
100
AcDbLine
 10
14.519998454991651
 20
-45.390001912529698
 30
0.0
 11
14.519998454991651
 21
-55.550002362953904
 31
0.0
  0
LINE
  5
2AA
100
AcDbEntity
  8
0
  6
CONTINUOUS
 62
               7
100
AcDbLine
 10
14.019998432825105
 20
-45.390001912529698
 30
0.0
 11
14.019998432825105
 21
-55.550002362953904
 31
0.0
  0
LINE
  5
2AB
100
AcDbEntity
  8
0
  6
CONTINUOUS
 62
               7
100
AcDbLine
 10
13.019998388492013
 20
-45.390001912529698
 30
0.0
 11
13.019998388492013
 21
-55.550002362953904
 31
0.0
  0
LINE
  5
2AC
100
AcDbEntity
  8
0
  6
CONTINUOUS
 62
               7
100
AcDbLine
 10
13.31999840179185
 20
-45.390001912529698
 30
0.0
 11
13.31999840179185
 21
-55.550002362953904
 31
0.0
  0
LINE
  5
2AD
100
AcDbEntity
  8
0
  6
CONTINUOUS
 62
               7
100
AcDbLine
 10
13.019998388492013
 20
-55.550002362953904
 30
0.0
 11
25.519998942655661
 21
-55.550002362953904
 31
0.0
  0
LINE
  5
2AE
100
AcDbEntity
  8
0
  6
CONTINUOUS
 62
               7
100
AcDbLine
 10
13.019998388492013
 20
-50.470002137741801
 30
0.0
 11
25.519998942655661
 21
-50.470002137741801
 31
0.0
  0
LINE
  5
2AF
100
AcDbEntity
  8
0
  6
CONTINUOUS
 62
               7
100
AcDbLine
 10
25.519998942655661
 20
-45.390001912529698
 30
0.0
 11
13.019998388492013
 21
-45.390001912529698
 31
0.0
  0
LINE
  5
2B0
100
AcDbEntity
  8
0
  6
CONTINUOUS
 62
               7
100
AcDbLine
 10
12.940596384971911
 20
-41.736172744411832
 30
0.0
 11
12.940596384971911
 21
-24.99851425237965
 31
0.0
  0
LINE
  5
2B1
100
AcDbEntity
  8
0
  6
CONTINUOUS
 62
               7
100
AcDbLine
 10
21.188138250610905
 20
-24.99851425237965
 30
0.0
 11
21.188138250610905
 21
-41.736172744411832
 31
0.0
  0
LINE
  5
2B2
100
AcDbEntity
  8
0
  6
CONTINUOUS
 62
               7
100
AcDbLine
 10
20.120809303292901
 20
-22.039102171179735
 30
0.0
 11
20.120809303292901
 21
-34.701504682543259
 31
0.0
  0
LINE
  5
2B3
100
AcDbEntity
  8
0
  6
CONTINUOUS
 62
               7
100
AcDbLine
 10
14.00792533228983
 20
-34.701504682543259
 30
0.0
 11
14.00792533228983
 21
-24.99851425237965
 31
0.0
  0
LINE
  5
2B4
100
AcDbEntity
  8
0
  6
CONTINUOUS
 62
               7
100
AcDbLine
 10
12.940596384971911
 20
-20.049989132996274
 30
0.0
 11
12.940596384971911
 21
1.6361944784192985
 31
0.0
  0
LINE
  5
2B5
100
AcDbEntity
  8
0
  6
CONTINUOUS
 62
               7
100
AcDbLine
 10
21.188138250610905
 20
1.6361944784192985
 30
0.0
 11
21.188138250610905
 21
-15.101464013612798
 31
0.0
  0
LINE
  5
2B6
100
AcDbEntity
  8
0
  6
CENTER
 62
               2
100
AcDbLine
 10
17.06436731779138
 20
2.6478078681001307
 30
0.0
 11
17.06436731779138
 21
-43.039322061807383
 31
0.0
  0
LINE
  5
2B7
100
AcDbEntity
  8
0
  6
CONTINUOUS
 62
               7
100
AcDbLine
 10
19.150510260276519
 20
-0.2364826746022004
 30
0.0
 11
19.150510260276519
 21
-7.872736143140969
 31
0.0
  0
LINE
  5
2B8
100
AcDbEntity
  8
0
  6
CONTINUOUS
 62
               7
100
AcDbLine
 10
15.463373896814346
 20
-7.872736143140969
 30
0.0
 11
15.463373896814346
 21
-0.2364826746022004
 31
0.0
  0
LINE
  5
2B9
100
AcDbEntity
  8
0
  6
CENTER
 62
               2
100
AcDbLine
 10
13.999998431938366
 20
-63.985405302353712
 30
0.0
 11
13.999998431938366
 21
-55.893031109506026
 31
0.0
  0
CIRCLE
  5
2BA
100
AcDbEntity
  8
0
  6
CONTINUOUS
 62
               7
100
AcDbCircle
 10
13.999998431938366
 20
-60.050002562452818
 30
0.0
 40
1.6000000709329445
  0
CIRCLE
  5
2BB
100
AcDbEntity
  8
0
  6
CONTINUOUS
 62
               7
100
AcDbCircle
 10
13.999998431938366
 20
-60.050002562452818
 30
0.0
 40
3.0000001329992818
  0
LINE
  5
2BC
100
AcDbEntity
  8
0
  6
CENTER
 62
               2
100
AcDbLine
 10
10.132687786275824
 20
-60.050002562452818
 30
0.0
 11
17.87824594228718
 21
-60.050002562452818
 31
0.0
  0
LINE
  5
2BD
100
AcDbEntity
  8
0
  6
CONTINUOUS
 62
               7
100
AcDbLine
 10
67.000000781592348
 20
39.050001830956774
 30
0.0
 11
30.999999185601041
 21
39.050001830956774
 31
0.0
  0
LINE
  5
2BE
100
AcDbEntity
  8
0
  6
CONTINUOUS
 62
               7
100
AcDbLine
 10
65.000000692926164
 20
40.050001875289865
 30
0.0
 11
32.999999274267225
 21
40.050001875289865
 31
0.0
  0
LINE
  5
2BF
100
AcDbEntity
  8
0
  6
CENTER
 62
               2
100
AcDbLine
 10
7.3699981380100326
 20
-2.25
 30
0.0
 11
91.370001861989863
 21
-2.25
 31
0.0
  0
LINE
  5
2C0
100
AcDbEntity
  8
0
  6
CONTINUOUS
 62
               7
100
AcDbLine
 10
10.999998298939204
 20
-63.050002695452093
 30
0.0
 11
87.740001701060805
 21
-63.050002695452093
 31
0.0
  0
LINE
  5
2C1
100
AcDbEntity
  8
0
  6
CONTINUOUS
 62
               7
100
AcDbLine
 10
35.676797392937942
 20
49.090155276067847
 30
0.0
 11
39.738504573006026
 21
49.090155276067847
 31
0.0
  0
LINE
  5
2C2
100
AcDbEntity
  8
0
  6
CONTINUOUS
 62
               7
100
AcDbLine
 10
34.410896336816563
 20
41.955666959773851
 30
0.0
 11
38.480501517234757
 21
41.955666959773851
 31
0.0
  0
LINE
  5
2C3
100
AcDbEntity
  8
0
  6
CONTINUOUS
 62
               7
100
AcDbLine
 10
36.096347411537863
 20
48.590155253901301
 30
0.0
 11
39.142627546588869
 21
48.590155253901301
 31
0.0
  0
LINE
  5
2C4
100
AcDbEntity
  8
0
  6
CONTINUOUS
 62
               7
100
AcDbLine
 10
35.014672363583941
 20
42.455666981940396
 30
0.0
 11
38.060951498634836
 21
42.455666981940396
 31
0.0
  0
LINE
  5
2C5
100
AcDbEntity
  8
0
  6
CONTINUOUS
 62
               7
100
AcDbLine
 10
35.604406389728638
 20
45.800216130214679
 30
0.0
 11
38.650685524779647
 21
45.800216130214679
 31
0.0
  0
LINE
  5
2C6
100
AcDbEntity
  8
0
  6
CONTINUOUS
 62
               7
100
AcDbLine
 10
35.516242385820078
 20
45.300216108048076
 30
0.0
 11
38.562522520871084
 21
45.300216108048076
 31
0.0
  0
LINE
  5
2C7
100
AcDbEntity
  8
0
  6
CONTINUOUS
 62
               7
100
AcDbLine
 10
30.999999185601041
 20
39.050001830956774
 30
0.0
 11
30.999999185601041
 21
52.050002407286982
 31
0.0
  0
LINE
  5
2C8
100
AcDbEntity
  8
0
  6
CONTINUOUS
 62
               7
100
AcDbLine
 10
67.000000781592348
 20
52.050002407286982
 30
0.0
 11
67.000000781592348
 21
39.050001830956774
 31
0.0
  0
LINE
  5
2C9
100
AcDbEntity
  8
0
  6
CONTINUOUS
 62
               7
100
AcDbLine
 10
32.999999274267225
 20
40.050001875289865
 30
0.0
 11
32.999999274267225
 21
51.05000236295389
 31
0.0
  0
LINE
  5
2CA
100
AcDbEntity
  8
0
  6
CONTINUOUS
 62
               7
100
AcDbLine
 10
65.000000692926164
 20
51.05000236295389
 30
0.0
 11
65.000000692926164
 21
40.050001875289865
 31
0.0
  0
LINE
  5
2CB
100
AcDbEntity
  8
0
  6
CONTINUOUS
 62
               7
100
AcDbLine
 10
21.188138250610905
 20
50.386184983524814
 30
0.0
 11
21.188138250610905
 21
33.648526491492674
 31
0.0
  0
LINE
  5
2CC
100
AcDbEntity
  8
0
  6
CENTER
 62
               2
100
AcDbLine
 10
17.06436731779138
 20
50.386184983524814
 30
0.0
 11
17.06436731779138
 21
5.7240331891519816
 31
0.0
  0
LINE
  5
2CD
100
AcDbEntity
  8
0
  6
CONTINUOUS
 62
               7
100
AcDbLine
 10
18.859420547371627
 20
50.386184983524814
 30
0.0
 11
18.859420547371627
 21
48.513507830503286
 31
0.0
  0
LINE
  5
2CE
100
AcDbEntity
  8
0
  6
CONTINUOUS
 62
               7
100
AcDbLine
 10
15.754463609719267
 20
48.513507830503286
 30
0.0
 11
15.754463609719267
 21
50.386184983524814
 31
0.0
  0
LINE
  5
2CF
100
AcDbEntity
  8
0
  6
CONTINUOUS
 62
               7
100
AcDbLine
 10
12.940596384971911
 20
28.700001372109227
 30
0.0
 11
12.940596384971911
 21
50.386184983524814
 31
0.0
  0
LINE
  5
2D0
100
AcDbEntity
  8
0
  6
CONTINUOUS
 62
               7
100
AcDbLine
 10
87.740001701060805
 20
-63.050002695452093
 30
0.0
 11
87.740001701060805
 21
58.550002695452079
 31
0.0
  0
LINE
  5
2D1
100
AcDbEntity
  8
0
  6
CONTINUOUS
 62
               7
100
AcDbLine
 10
10.999998298939204
 20
58.550002695452079
 30
0.0
 11
10.999998298939204
 21
-63.050002695452093
 31
0.0
  0
LINE
  5
2D2
100
AcDbEntity
  8
0
  6
CONTINUOUS
 62
               7
100
AcDbLine
 10
10.0
 20
60.750000000000014
 30
0.0
 11
88.740000000000009
 21
60.750000000000014
 31
0.0
  0
LINE
  5
2D3
100
AcDbEntity
  8
0
  6
CONTINUOUS
 62
               7
100
AcDbLine
 10
10.0
 20
-65.25
 30
0.0
 11
88.740000000000009
 21
-65.25
 31
0.0
  0
LINE
  5
2D4
100
AcDbEntity
  8
0
  6
CONTINUOUS
 62
               7
100
AcDbLine
 10
88.740000000000009
 20
60.750000000000014
 30
0.0
 11
88.740000000000009
 21
-65.25
 31
0.0
  0
LINE
  5
2D5
100
AcDbEntity
  8
0
  6
CONTINUOUS
 62
               7
100
AcDbLine
 10
10.0
 20
60.750000000000014
 30
0.0
 11
10.0
 21
-65.25
 31
0.0
  0
LINE
  5
2D6
100
AcDbEntity
  8
0
  6
CONTINUOUS
 62
               7
100
AcDbLine
 10
10.0
 20
44.750000000000014
 30
0.0
 11
10.999998298939204
 21
44.750000000000014
 31
0.0
  0
LINE
  5
2D7
100
AcDbEntity
  8
0
  6
CONTINUOUS
 62
               7
100
AcDbLine
 10
16.0
 20
60.750000000000014
 30
0.0
 11
16.0
 21
58.550002695452079
 31
0.0
  0
LINE
  5
2D8
100
AcDbEntity
  8
0
  6
CONTINUOUS
 62
               7
100
AcDbLine
 10
82.740000000000009
 20
60.750000000000014
 30
0.0
 11
82.740000000000009
 21
58.550002695452079
 31
0.0
  0
LINE
  5
2D9
100
AcDbEntity
  8
0
  6
CONTINUOUS
 62
               7
100
AcDbLine
 10
87.740001701060805
 20
44.750000000000014
 30
0.0
 11
88.740000000000009
 21
44.750000000000014
 31
0.0
  0
LINE
  5
2DA
100
AcDbEntity
  8
0
  6
CONTINUOUS
 62
               7
100
AcDbLine
 10
82.740000000000009
 20
-65.25
 30
0.0
 11
82.740000000000009
 21
-63.050002695452065
 31
0.0
  0
LINE
  5
2DB
100
AcDbEntity
  8
0
  6
CONTINUOUS
 62
               7
100
AcDbLine
 10
87.740001701060805
 20
-49.25
 30
0.0
 11
88.740000000000009
 21
-49.25
 31
0.0
  0
LINE
  5
2DC
100
AcDbEntity
  8
0
  6
CONTINUOUS
 62
               7
100
AcDbLine
 10
16.0
 20
-65.25
 30
0.0
 11
16.0
 21
-63.050002695452065
 31
0.0
  0
LINE
  5
2DD
100
AcDbEntity
  8
0
  6
CONTINUOUS
 62
               7
100
AcDbLine
 10
10.0
 20
-49.25
 30
0.0
 11
10.999998298939204
 21
-49.25
 31
0.0
  0
LINE
  5
2DF
100
AcDbEntity
  8
0
  6
PHANTOM
 62
               2
100
AcDbLine
 10
98.740000000000009
 20
-17.5
 30
0.0
 11
88.740000000000009
 21
-17.5
 31
0.0
  0
LINE
  5
2E0
100
AcDbEntity
  8
0
  6
PHANTOM
 62
               2
100
AcDbLine
 10
0.0
 20
-17.5
 30
0.0
 11
0.0
 21
17.5
 31
0.0
  0
LINE
  5
2E1
100
AcDbEntity
  8
0
  6
PHANTOM
 62
               2
100
AcDbLine
 10
98.740000000000009
 20
17.5
 30
0.0
 11
98.740000000000009
 21
-17.5
 31
0.0
  0
LINE
  5
2E2
100
AcDbEntity
  8
0
  6
PHANTOM
 62
               2
100
AcDbLine
 10
88.740000000000009
 20
17.5
 30
0.0
 11
98.740000000000009
 21
17.5
 31
0.0
  0
LINE
  5
2E3
100
AcDbEntity
  8
0
  6
PHANTOM
 62
               2
100
AcDbLine
 10
10.0
 20
-17.5
 30
0.0
 11
0.0
 21
-17.5
 31
0.0
  0
LINE
  5
2E4
100
AcDbEntity
  8
0
  6
PHANTOM
 62
               2
100
AcDbLine
 10
88.740000000000009
 20
12.5
 30
0.0
 11
98.740000000000009
 21
12.5
 31
0.0
  0
LINE
  5
2E5
100
AcDbEntity
  8
0
  6
PHANTOM
 62
               2
100
AcDbLine
 10
10.0
 20
12.5
 30
0.0
 11
0.0
 21
12.5
 31
0.0
  0
LINE
  5
2E6
100
AcDbEntity
  8
0
  6
PHANTOM
 62
               2
100
AcDbLine
 10
98.740000000000009
 20
-12.5
 30
0.0
 11
88.740000000000009
 21
-12.5
 31
0.0
  0
LINE
  5
2E7
100
AcDbEntity
  8
0
  6
PHANTOM
 62
               2
100
AcDbLine
 10
0.0
 20
17.5
 30
0.0
 11
10.0
 21
17.5
 31
0.0
  0
LINE
  5
2E8
100
AcDbEntity
  8
0
  6
PHANTOM
 62
               2
100
AcDbLine
 10
0.0
 20
-12.5
 30
0.0
 11
10.0
 21
-12.5
 31
0.0
  0
LINE
  5
2E9
100
AcDbEntity
  8
0
  6
PHANTOM
 62
               2
100
AcDbLine
 10
-3.9948079973462711
 20
0.0
 30
0.0
 11
101.42634118747793
 21
0.0
 31
0.0
  0
CIRCLE
  5
2EA
100
AcDbEntity
  8
0
  6
CONTINUOUS
 62
               7
100
AcDbCircle
 10
64.370000000000005
 20
16.25
 30
0.0
 40
4.0
  0
LINE
  5
2EB
100
AcDbEntity
  8
0
  6
CONTINUOUS
 62
               7
100
AcDbLine
 10
61.370000000000005
 20
23.75
 30
0.0
 11
39.370000000000005
 21
23.75
 31
0.0
  0
LINE
  5
2EC
100
AcDbEntity
  8
0
  6
CONTINUOUS
 62
               7
100
AcDbLine
 10
61.370000000000005
 20
31.75
 30
0.0
 11
39.370000000000005
 21
31.75
 31
0.0
  0
ARC
  5
2ED
100
AcDbEntity
  8
0
  6
CONTINUOUS
 62
               7
100
AcDbCircle
 10
39.370000000000005
 20
27.75
 30
0.0
 40
4.0
100
AcDbArc
 50
89.999999999999815
 51
269.99999999999937
  0
ARC
  5
2EE
100
AcDbEntity
  8
0
  6
CONTINUOUS
 62
               7
100
AcDbCircle
 10
61.370000000000005
 20
27.75
 30
0.0
 40
4.0
100
AcDbArc
 50
269.99999999999937
 51
89.999999999999801
  0
LINE
  5
2EF
100
AcDbEntity
  8
0
  6
CONTINUOUS
 62
               7
100
AcDbLine
 10
9.3700000000000045
 20
-57.25
 30
0.0
 11
9.3700000000000045
 21
-67.25
 31
0.0
  0
LINE
  5
2F0
100
AcDbEntity
  8
0
  6
CONTINUOUS
 62
               7
100
AcDbLine
 10
27.370000000000005
 20
-43.75
 30
0.0
 11
27.370000000000005
 21
-57.25
 31
0.0
  0
LINE
  5
2F1
100
AcDbEntity
  8
0
  6
CONTINUOUS
 62
               7
100
AcDbLine
 10
22.370000000000005
 20
50.750000000000014
 30
0.0
 11
22.370000000000005
 21
-43.75
 31
0.0
  0
LINE
  5
2F2
100
AcDbEntity
  8
0
  6
CONTINUOUS
 62
               7
100
AcDbLine
 10
9.3699999952466442
 20
-57.25
 30
0.0
 11
27.370000000000005
 21
-57.25
 31
0.0
  0
LINE
  5
2F3
100
AcDbEntity
  8
0
  6
CONTINUOUS
 62
               7
100
AcDbLine
 10
22.370000000000005
 20
-43.75
 30
0.0
 11
27.370000000000005
 21
-43.75
 31
0.0
  0
LINE
  5
2F4
100
AcDbEntity
  8
0
  6
CONTINUOUS
 62
               7
100
AcDbLine
 10
9.3699999952466442
 20
50.750000000000014
 30
0.0
 11
22.370000000000005
 21
50.750000000000014
 31
0.0
  0
LINE
  5
2F5
100
AcDbEntity
  8
0
  6
CONTINUOUS
 62
               7
100
AcDbLine
 10
89.370000000000005
 20
-40.25
 30
0.0
 11
89.370000000000005
 21
-67.25
 31
0.0
  0
LINE
  5
2F6
100
AcDbEntity
  8
0
  6
CONTINUOUS
 62
               7
100
AcDbLine
 10
76.370000000000005
 20
-40.25
 30
0.0
 11
89.369999995246644
 21
-40.25
 31
0.0
  0
LINE
  5
2F7
100
AcDbEntity
  8
0
  6
CONTINUOUS
 62
               7
100
AcDbLine
 10
76.370000000000005
 20
48.250000000000014
 30
0.0
 11
89.369999995246644
 21
48.250000000000014
 31
0.0
  0
LINE
  5
2F8
100
AcDbEntity
  8
0
  6
CONTINUOUS
 62
               7
100
AcDbLine
 10
76.370000000000005
 20
48.250000000000014
 30
0.0
 11
76.370000000000005
 21
-40.25
 31
0.0
  0
LINE
  5
2F9
100
AcDbEntity
  8
0
  6
CONTINUOUS
 62
               7
100
AcDbLine
 10
9.3699999952466442
 20
-67.25
 30
0.0
 11
89.369999995246644
 21
-67.25
 31
0.0
  0
LINE
  5
2FA
100
AcDbEntity
  8
0
  6
CONTINUOUS
 62
               7
100
AcDbLine
 10
9.3699999952466442
 20
62.750000000000014
 30
0.0
 11
89.369999995246644
 21
62.750000000000014
 31
0.0
  0
LINE
  5
2FB
100
AcDbEntity
  8
0
  6
CONTINUOUS
 62
               7
100
AcDbLine
 10
9.3700000000000045
 20
62.749999978384736
 30
0.0
 11
9.3700000000000045
 21
50.750000000000014
 31
0.0
  0
LINE
  5
2FC
100
AcDbEntity
  8
0
  6
CONTINUOUS
 62
               7
100
AcDbLine
 10
89.370000000000005
 20
62.749999978384736
 30
0.0
 11
89.370000000000005
 21
48.250000000000014
 31
0.0
  0
LINE
  5
2FD
100
AcDbEntity
  8
0
  6
CONTINUOUS
 62
               7
100
AcDbLine
 10
85.82910456450486
 20
42.478247782941509
 30
0.0
 11
83.306327052662311
 21
42.478247782941509
 31
0.0
  0
LINE
  5
2FE
100
AcDbEntity
  8
0
  6
CONTINUOUS
 62
               7
100
AcDbLine
 10
85.82910456450486
 20
43.254487017354592
 30
0.0
 11
83.306327052662311
 21
43.254487017354592
 31
0.0
  0
LINE
  5
2FF
100
AcDbEntity
  8
0
  6
CONTINUOUS
 62
               7
100
AcDbLine
 10
77.581562698865866
 20
47.911922423833133
 30
0.0
 11
85.82910456450486
 21
47.911922423833133
 31
0.0
  0
LINE
  5
300
100
AcDbEntity
  8
0
  6
CONTINUOUS
 62
               7
100
AcDbLine
 10
85.82910456450486
 20
14.921754961277017
 30
0.0
 11
83.306327052662311
 21
14.921754961277017
 31
0.0
  0
LINE
  5
301
100
AcDbEntity
  8
0
  6
CONTINUOUS
 62
               7
100
AcDbLine
 10
85.82910456450486
 20
14.145515726863906
 30
0.0
 11
83.306327052662311
 21
14.145515726863906
 31
0.0
  0
LINE
  5
302
100
AcDbEntity
  8
0
  6
CONTINUOUS
 62
               7
100
AcDbLine
 10
85.82910456450486
 20
9.4880803203853787
 30
0.0
 11
77.581562698865866
 21
9.4880803203853787
 31
0.0
  0
LINE
  5
303
100
AcDbEntity
  8
0
  6
CENTER
 62
               2
100
AcDbLine
 10
81.705333631685306
 20
7.8304308036092465
 30
0.0
 11
81.705333631685306
 21
49.157865500812491
 31
0.0
  0
LINE
  5
304
100
AcDbEntity
  8
0
  6
CONTINUOUS
 62
               7
100
AcDbLine
 10
78.648891646183813
 20
16.522748382253965
 30
0.0
 11
78.648891646183813
 21
26.613858429624059
 31
0.0
  0
LINE
  5
305
100
AcDbEntity
  8
0
  6
CONTINUOUS
 62
               7
100
AcDbLine
 10
84.761775617186828
 20
40.877254361964503
 30
0.0
 11
84.761775617186828
 21
16.522748382253965
 31
0.0
  0
LINE
  5
306
100
AcDbEntity
  8
0
  6
CONTINUOUS
 62
               7
100
AcDbLine
 10
77.581562698865866
 20
9.4880803203853787
 30
0.0
 11
77.581562698865866
 21
47.911922423833133
 31
0.0
  0
LINE
  5
307
100
AcDbEntity
  8
0
  6
CONTINUOUS
 62
               7
100
AcDbLine
 10
83.306327052662311
 20
11.360757473406949
 30
0.0
 11
79.619190689200167
 21
11.360757473406949
 31
0.0
  0
LINE
  5
308
100
AcDbEntity
  8
0
  6
CONTINUOUS
 62
               7
100
AcDbLine
 10
83.306327052662311
 20
18.997010941945732
 30
0.0
 11
79.619190689200167
 21
18.997010941945732
 31
0.0
  0
LINE
  5
309
100
AcDbEntity
  8
0
  6
CONTINUOUS
 62
               7
100
AcDbLine
 10
79.619190689200167
 20
12.884126970942617
 30
0.0
 11
83.306327052662311
 21
12.884126970942617
 31
0.0
  0
LINE
  5
30A
100
AcDbEntity
  8
0
  6
CONTINUOUS
 62
               7
100
AcDbLine
 10
79.619190689200167
 20
18.026711898929321
 30
0.0
 11
83.306327052662311
 21
18.026711898929321
 31
0.0
  0
LINE
  5
30B
100
AcDbEntity
  8
0
  6
CONTINUOUS
 62
               7
100
AcDbLine
 10
79.619190689200167
 20
17.056412855912967
 30
0.0
 11
83.306327052662311
 21
17.056412855912967
 31
0.0
  0
LINE
  5
30C
100
AcDbEntity
  8
0
  6
CONTINUOUS
 62
               7
100
AcDbLine
 10
79.619190689200167
 20
16.086113812896627
 30
0.0
 11
83.306327052662311
 21
16.086113812896627
 31
0.0
  0
LINE
  5
30D
100
AcDbEntity
  8
0
  6
CONTINUOUS
 62
               7
100
AcDbLine
 10
79.619190689200167
 20
15.115814769880217
 30
0.0
 11
83.306327052662311
 21
15.115814769880217
 31
0.0
  0
LINE
  5
30E
100
AcDbEntity
  8
0
  6
CONTINUOUS
 62
               7
100
AcDbLine
 10
79.619190689200167
 20
14.145515726863906
 30
0.0
 11
83.306327052662311
 21
14.145515726863906
 31
0.0
  0
LINE
  5
30F
100
AcDbEntity
  8
0
  6
CONTINUOUS
 62
               7
100
AcDbLine
 10
79.910280402105087
 20
9.4880803203853787
 30
0.0
 11
79.910280402105087
 21
11.360757473406949
 31
0.0
  0
LINE
  5
310
100
AcDbEntity
  8
0
  6
CONTINUOUS
 62
               7
100
AcDbLine
 10
79.619190689200167
 20
11.360757473406949
 30
0.0
 11
79.619190689200167
 21
18.997010941945732
 31
0.0
  0
LINE
  5
311
100
AcDbEntity
  8
0
  6
CONTINUOUS
 62
               7
100
AcDbLine
 10
79.619190689200167
 20
16.522748382253965
 30
0.0
 11
78.648891646183813
 21
16.522748382253965
 31
0.0
  0
LINE
  5
312
100
AcDbEntity
  8
0
  6
CONTINUOUS
 62
               7
100
AcDbLine
 10
78.794436502636245
 20
14.921754961277017
 30
0.0
 11
78.794436502636245
 21
16.522748382253965
 31
0.0
  0
LINE
  5
313
100
AcDbEntity
  8
0
  6
CONTINUOUS
 62
               7
100
AcDbLine
 10
79.619190689200167
 20
14.145515726863906
 30
0.0
 11
77.581562698865866
 21
14.145515726863906
 31
0.0
  0
LINE
  5
314
100
AcDbEntity
  8
0
  6
CONTINUOUS
 62
               7
100
AcDbLine
 10
79.619190689200167
 20
14.921754961277017
 30
0.0
 11
77.581562698865866
 21
14.921754961277017
 31
0.0
  0
LINE
  5
315
100
AcDbEntity
  8
0
  6
CONTINUOUS
 62
               7
100
AcDbLine
 10
83.015237339757391
 20
11.360757473406949
 30
0.0
 11
83.015237339757391
 21
9.4880803203853787
 31
0.0
  0
LINE
  5
316
100
AcDbEntity
  8
0
  6
CONTINUOUS
 62
               7
100
AcDbLine
 10
83.306327052662311
 20
18.997010941945732
 30
0.0
 11
83.306327052662311
 21
11.360757473406949
 31
0.0
  0
LINE
  5
317
100
AcDbEntity
  8
0
  6
CONTINUOUS
 62
               7
100
AcDbLine
 10
84.761775617186828
 20
16.522748382253965
 30
0.0
 11
83.306327052662311
 21
16.522748382253965
 31
0.0
  0
LINE
  5
318
100
AcDbEntity
  8
0
  6
CONTINUOUS
 62
               7
100
AcDbLine
 10
84.131081239226233
 20
14.921754961277017
 30
0.0
 11
84.131081239226233
 21
16.522748382253965
 31
0.0
  0
LINE
  5
319
100
AcDbEntity
  8
0
  6
CONTINUOUS
 62
               7
100
AcDbLine
 10
83.306327052662311
 20
38.402991802272822
 30
0.0
 11
79.619190689200167
 21
38.402991802272822
 31
0.0
  0
LINE
  5
31A
100
AcDbEntity
  8
0
  6
CONTINUOUS
 62
               7
100
AcDbLine
 10
83.306327052662311
 20
39.373290845289176
 30
0.0
 11
79.619190689200167
 21
39.373290845289176
 31
0.0
  0
LINE
  5
31B
100
AcDbEntity
  8
0
  6
CONTINUOUS
 62
               7
100
AcDbLine
 10
79.619190689200167
 20
46.039245270811548
 30
0.0
 11
83.306327052662311
 21
46.039245270811548
 31
0.0
  0
LINE
  5
31C
100
AcDbEntity
  8
0
  6
CONTINUOUS
 62
               7
100
AcDbLine
 10
83.306327052662311
 20
44.515875773275894
 30
0.0
 11
79.619190689200167
 21
44.515875773275894
 31
0.0
  0
LINE
  5
31D
100
AcDbEntity
  8
0
  6
CONTINUOUS
 62
               7
100
AcDbLine
 10
83.306327052662311
 20
40.34358988830553
 30
0.0
 11
79.619190689200167
 21
40.34358988830553
 31
0.0
  0
LINE
  5
31E
100
AcDbEntity
  8
0
  6
CONTINUOUS
 62
               7
100
AcDbLine
 10
83.306327052662311
 20
41.313888931321912
 30
0.0
 11
79.619190689200167
 21
41.313888931321912
 31
0.0
  0
LINE
  5
31F
100
AcDbEntity
  8
0
  6
CONTINUOUS
 62
               7
100
AcDbLine
 10
83.306327052662311
 20
42.284187974338238
 30
0.0
 11
79.619190689200167
 21
42.284187974338238
 31
0.0
  0
LINE
  5
320
100
AcDbEntity
  8
0
  6
CONTINUOUS
 62
               7
100
AcDbLine
 10
83.306327052662311
 20
43.254487017354592
 30
0.0
 11
79.619190689200167
 21
43.254487017354592
 31
0.0
  0
LINE
  5
321
100
AcDbEntity
  8
0
  6
CONTINUOUS
 62
               7
100
AcDbLine
 10
78.648891646183813
 20
30.786144314594452
 30
0.0
 11
78.648891646183813
 21
40.877254361964503
 31
0.0
  0
LINE
  5
322
100
AcDbEntity
  8
0
  6
CONTINUOUS
 62
               7
100
AcDbLine
 10
79.52216078489846
 20
26.613858429624059
 30
0.0
 11
79.52216078489846
 21
30.786144314594452
 31
0.0
  0
LINE
  5
323
100
AcDbEntity
  8
0
  6
CONTINUOUS
 62
               7
100
AcDbLine
 10
79.52216078489846
 20
26.613858429624059
 30
0.0
 11
77.581562698865866
 21
26.613858429624059
 31
0.0
  0
LINE
  5
324
100
AcDbEntity
  8
0
  6
CONTINUOUS
 62
               7
100
AcDbLine
 10
79.52216078489846
 20
30.786144314594452
 30
0.0
 11
77.581562698865866
 21
30.786144314594452
 31
0.0
  0
LINE
  5
325
100
AcDbEntity
  8
0
  6
CONTINUOUS
 62
               7
100
AcDbLine
 10
79.619190689200167
 20
38.402991802272822
 30
0.0
 11
79.619190689200167
 21
46.039245270811548
 31
0.0
  0
LINE
  5
326
100
AcDbEntity
  8
0
  6
CONTINUOUS
 62
               7
100
AcDbLine
 10
79.619190689200167
 20
40.877254361964503
 30
0.0
 11
78.648891646183813
 21
40.877254361964503
 31
0.0
  0
LINE
  5
327
100
AcDbEntity
  8
0
  6
CONTINUOUS
 62
               7
100
AcDbLine
 10
78.794436502636245
 20
40.877254361964503
 30
0.0
 11
78.794436502636245
 21
42.478247782941509
 31
0.0
  0
LINE
  5
328
100
AcDbEntity
  8
0
  6
CONTINUOUS
 62
               7
100
AcDbLine
 10
79.619190689200167
 20
43.254487017354592
 30
0.0
 11
77.581562698865866
 21
43.254487017354592
 31
0.0
  0
LINE
  5
329
100
AcDbEntity
  8
0
  6
CONTINUOUS
 62
               7
100
AcDbLine
 10
79.619190689200167
 20
42.478247782941509
 30
0.0
 11
77.581562698865866
 21
42.478247782941509
 31
0.0
  0
LINE
  5
32A
100
AcDbEntity
  8
0
  6
CONTINUOUS
 62
               7
100
AcDbLine
 10
79.910280402105087
 20
46.039245270811548
 30
0.0
 11
79.910280402105087
 21
47.911922423833133
 31
0.0
  0
LINE
  5
32B
100
AcDbEntity
  8
0
  6
CONTINUOUS
 62
               7
100
AcDbLine
 10
83.306327052662311
 20
46.039245270811548
 30
0.0
 11
83.306327052662311
 21
38.402991802272822
 31
0.0
  0
LINE
  5
32C
100
AcDbEntity
  8
0
  6
CONTINUOUS
 62
               7
100
AcDbLine
 10
84.761775617186828
 20
40.877254361964503
 30
0.0
 11
83.306327052662311
 21
40.877254361964503
 31
0.0
  0
LINE
  5
32D
100
AcDbEntity
  8
0
  6
CONTINUOUS
 62
               7
100
AcDbLine
 10
84.131081239226233
 20
42.478247782941509
 30
0.0
 11
84.131081239226233
 21
40.877254361964503
 31
0.0
  0
LINE
  5
32E
100
AcDbEntity
  8
0
  6
CONTINUOUS
 62
               7
100
AcDbLine
 10
83.015237339757391
 20
47.911922423833133
 30
0.0
 11
83.015237339757391
 21
46.039245270811548
 31
0.0
  0
LINE
  5
32F
100
AcDbEntity
  8
0
  6
CONTINUOUS
 62
               7
100
AcDbLine
 10
77.581562698865866
 20
-39.158872834067807
 30
0.0
 11
77.581562698865866
 21
-0.7350307306200818
 31
0.0
  0
LINE
  5
330
100
AcDbEntity
  8
0
  6
CONTINUOUS
 62
               7
100
AcDbLine
 10
85.82910456450486
 20
-0.7350307306200818
 30
0.0
 11
85.82910456450486
 21
-39.158872834067807
 31
0.0
  0
LINE
  5
331
100
AcDbEntity
  8
0
  6
CENTER
 62
               2
100
AcDbLine
 10
81.705333631685306
 20
-40.53029422370539
 30
0.0
 11
81.705333631685306
 21
0.4752767549376387
 31
0.0
  0
LINE
  5
332
100
AcDbEntity
  8
0
  6
CONTINUOUS
 62
               7
100
AcDbLine
 10
79.619190689200167
 20
-10.243961352180335
 30
0.0
 11
79.619190689200167
 21
-2.6077078836416661
 31
0.0
  0
LINE
  5
333
100
AcDbEntity
  8
0
  6
CONTINUOUS
 62
               7
100
AcDbLine
 10
83.306327052662311
 20
-2.6077078836416661
 30
0.0
 11
83.306327052662311
 21
-10.243961352180335
 31
0.0
  0
LINE
  5
334
100
AcDbEntity
  8
0
  6
CONTINUOUS
 62
               7
100
AcDbLine
 10
78.648891646183813
 20
-32.124204772199207
 30
0.0
 11
78.648891646183813
 21
-22.033094724829098
 31
0.0
  0
LINE
  5
335
100
AcDbEntity
  8
0
  6
CONTINUOUS
 62
               7
100
AcDbLine
 10
84.761775617186828
 20
-7.7696987924886542
 30
0.0
 11
84.761775617186828
 21
-32.124204772199207
 31
0.0
  0
LINE
  5
336
100
AcDbEntity
  8
0
  6
CONTINUOUS
 62
               7
100
AcDbLine
 10
79.619190689200167
 20
-37.286195681046195
 30
0.0
 11
79.619190689200167
 21
-29.649942212507469
 31
0.0
  0
LINE
  5
337
100
AcDbEntity
  8
0
  6
CONTINUOUS
 62
               7
100
AcDbLine
 10
83.306327052662311
 20
-29.649942212507469
 30
0.0
 11
83.306327052662311
 21
-37.286195681046195
 31
0.0
  0
LINE
  5
338
100
AcDbEntity
  8
0
  6
CONTINUOUS
 62
               7
100
AcDbLine
 10
79.619190689200167
 20
-30.620241255523837
 30
0.0
 11
83.306327052662311
 21
-30.620241255523837
 31
0.0
  0
LINE
  5
339
100
AcDbEntity
  8
0
  6
CONTINUOUS
 62
               7
100
AcDbLine
 10
79.619190689200167
 20
-35.762826183510526
 30
0.0
 11
83.306327052662311
 21
-35.762826183510526
 31
0.0
  0
LINE
  5
33A
100
AcDbEntity
  8
0
  6
CONTINUOUS
 62
               7
100
AcDbLine
 10
79.619190689200167
 20
-31.590540298540191
 30
0.0
 11
83.306327052662311
 21
-31.590540298540191
 31
0.0
  0
LINE
  5
33B
100
AcDbEntity
  8
0
  6
CONTINUOUS
 62
               7
100
AcDbLine
 10
79.619190689200167
 20
-32.560839341556601
 30
0.0
 11
83.306327052662311
 21
-32.560839341556601
 31
0.0
  0
LINE
  5
33C
100
AcDbEntity
  8
0
  6
CONTINUOUS
 62
               7
100
AcDbLine
 10
79.619190689200167
 20
-33.531138384572941
 30
0.0
 11
83.306327052662311
 21
-33.531138384572941
 31
0.0
  0
LINE
  5
33D
100
AcDbEntity
  8
0
  6
CONTINUOUS
 62
               7
100
AcDbLine
 10
79.619190689200167
 20
-34.501437427589309
 30
0.0
 11
83.306327052662311
 21
-34.501437427589309
 31
0.0
  0
LINE
  5
33E
100
AcDbEntity
  8
0
  6
CONTINUOUS
 62
               7
100
AcDbLine
 10
83.306327052662311
 20
-37.286195681046195
 30
0.0
 11
79.619190689200167
 21
-37.286195681046195
 31
0.0
  0
LINE
  5
33F
100
AcDbEntity
  8
0
  6
CONTINUOUS
 62
               7
100
AcDbLine
 10
85.82910456450486
 20
-39.158872834067807
 30
0.0
 11
77.581562698865866
 21
-39.158872834067807
 31
0.0
  0
LINE
  5
340
100
AcDbEntity
  8
0
  6
CONTINUOUS
 62
               7
100
AcDbLine
 10
79.910280402105087
 20
-39.158872834067807
 30
0.0
 11
79.910280402105087
 21
-37.286195681046195
 31
0.0
  0
LINE
  5
341
100
AcDbEntity
  8
0
  6
CONTINUOUS
 62
               7
100
AcDbLine
 10
79.619190689200167
 20
-34.501437427589309
 30
0.0
 11
77.581562698865866
 21
-34.501437427589309
 31
0.0
  0
LINE
  5
342
100
AcDbEntity
  8
0
  6
CONTINUOUS
 62
               7
100
AcDbLine
 10
79.619190689200167
 20
-33.725198193176197
 30
0.0
 11
77.581562698865866
 21
-33.725198193176197
 31
0.0
  0
LINE
  5
343
100
AcDbEntity
  8
0
  6
CONTINUOUS
 62
               7
100
AcDbLine
 10
79.619190689200167
 20
-32.124204772199207
 30
0.0
 11
78.648891646183813
 21
-32.124204772199207
 31
0.0
  0
LINE
  5
344
100
AcDbEntity
  8
0
  6
CONTINUOUS
 62
               7
100
AcDbLine
 10
78.794436502636245
 20
-33.725198193176197
 30
0.0
 11
78.794436502636245
 21
-32.124204772199207
 31
0.0
  0
LINE
  5
345
100
AcDbEntity
  8
0
  6
CONTINUOUS
 62
               7
100
AcDbLine
 10
83.015237339757391
 20
-37.286195681046195
 30
0.0
 11
83.015237339757391
 21
-39.158872834067807
 31
0.0
  0
LINE
  5
346
100
AcDbEntity
  8
0
  6
CONTINUOUS
 62
               7
100
AcDbLine
 10
84.761775617186828
 20
-32.124204772199207
 30
0.0
 11
83.306327052662311
 21
-32.124204772199207
 31
0.0
  0
LINE
  5
347
100
AcDbEntity
  8
0
  6
CONTINUOUS
 62
               7
100
AcDbLine
 10
84.131081239226233
 20
-33.725198193176197
 30
0.0
 11
84.131081239226233
 21
-32.124204772199207
 31
0.0
  0
LINE
  5
348
100
AcDbEntity
  8
0
  6
CONTINUOUS
 62
               7
100
AcDbLine
 10
85.82910456450486
 20
-34.501437427589309
 30
0.0
 11
83.306327052662311
 21
-34.501437427589309
 31
0.0
  0
LINE
  5
349
100
AcDbEntity
  8
0
  6
CONTINUOUS
 62
               7
100
AcDbLine
 10
85.82910456450486
 20
-33.725198193176197
 30
0.0
 11
83.306327052662311
 21
-33.725198193176197
 31
0.0
  0
LINE
  5
34A
100
AcDbEntity
  8
0
  6
CONTINUOUS
 62
               7
100
AcDbLine
 10
83.306327052662311
 20
-4.1310773811773345
 30
0.0
 11
79.619190689200167
 21
-4.1310773811773345
 31
0.0
  0
LINE
  5
34B
100
AcDbEntity
  8
0
  6
CONTINUOUS
 62
               7
100
AcDbLine
 10
83.306327052662311
 20
-8.3033632661476702
 30
0.0
 11
79.619190689200167
 21
-8.3033632661476702
 31
0.0
  0
LINE
  5
34C
100
AcDbEntity
  8
0
  6
CONTINUOUS
 62
               7
100
AcDbLine
 10
83.306327052662311
 20
-7.3330642231313163
 30
0.0
 11
79.619190689200167
 21
-7.3330642231313163
 31
0.0
  0
LINE
  5
34D
100
AcDbEntity
  8
0
  6
CONTINUOUS
 62
               7
100
AcDbLine
 10
83.306327052662311
 20
-6.3627651801149767
 30
0.0
 11
79.619190689200167
 21
-6.3627651801149767
 31
0.0
  0
LINE
  5
34E
100
AcDbEntity
  8
0
  6
CONTINUOUS
 62
               7
100
AcDbLine
 10
83.306327052662311
 20
-5.3924661370985518
 30
0.0
 11
79.619190689200167
 21
-5.3924661370985518
 31
0.0
  0
LINE
  5
34F
100
AcDbEntity
  8
0
  6
CONTINUOUS
 62
               7
100
AcDbLine
 10
83.306327052662311
 20
-10.243961352180335
 30
0.0
 11
79.619190689200167
 21
-10.243961352180335
 31
0.0
  0
LINE
  5
350
100
AcDbEntity
  8
0
  6
CONTINUOUS
 62
               7
100
AcDbLine
 10
83.306327052662311
 20
-9.2736623091639672
 30
0.0
 11
79.619190689200167
 21
-9.2736623091639672
 31
0.0
  0
LINE
  5
351
100
AcDbEntity
  8
0
  6
CONTINUOUS
 62
               7
100
AcDbLine
 10
83.306327052662311
 20
-29.649942212507469
 30
0.0
 11
79.619190689200167
 21
-29.649942212507469
 31
0.0
  0
LINE
  5
352
100
AcDbEntity
  8
0
  6
CONTINUOUS
 62
               7
100
AcDbLine
 10
78.648891646183813
 20
-17.860808839858763
 30
0.0
 11
78.648891646183813
 21
-7.7696987924886542
 31
0.0
  0
POLYLINE
  5
353
100
AcDbEntity
  8
0
  6
CONTINUOUS
 62
               7
100
AcDb2dPolyline
 66
               1
 10
0.0
 20
0.0
 30
0.0
 70
               1
  0
VERTEX
  5
4E2
100
AcDbEntity
  8
0
  6
CONTINUOUS
 62
               7
100
AcDbVertex
100
AcDb2dVertex
 10
80.230479086300505
 20
-23.40121637548215
 30
0.0
  0
VERTEX
  5
4E3
100
AcDbEntity
  8
0
  6
CONTINUOUS
 62
               7
100
AcDbVertex
100
AcDb2dVertex
 10
80.715628607808696
 20
-23.40121637548215
 30
0.0
  0
VERTEX
  5
4E4
100
AcDbEntity
  8
0
  6
CONTINUOUS
 62
               7
100
AcDbVertex
100
AcDb2dVertex
 10
80.715628607808696
 20
-23.886365896990341
 30
0.0
  0
VERTEX
  5
4E5
100
AcDbEntity
  8
0
  6
CONTINUOUS
 62
               7
100
AcDbVertex
100
AcDb2dVertex
 10
80.230479086300505
 20
-23.886365896990341
 30
0.0
  0
SEQEND
  5
4E6
100
AcDbEntity
  8
0
  6
CONTINUOUS
 62
               7
  0
POLYLINE
  5
354
100
AcDbEntity
  8
0
  6
CONTINUOUS
 62
               7
100
AcDb2dPolyline
 66
               1
 10
0.0
 20
0.0
 30
0.0
 70
               1
  0
VERTEX
  5
4E7
100
AcDbEntity
  8
0
  6
CONTINUOUS
 62
               7
100
AcDbVertex
100
AcDb2dVertex
 10
80.230479086300505
 20
-25.865775944743731
 30
0.0
  0
VERTEX
  5
4E8
100
AcDbEntity
  8
0
  6
CONTINUOUS
 62
               7
100
AcDbVertex
100
AcDb2dVertex
 10
80.715628607808696
 20
-25.865775944743731
 30
0.0
  0
VERTEX
  5
4E9
100
AcDbEntity
  8
0
  6
CONTINUOUS
 62
               7
100
AcDbVertex
100
AcDb2dVertex
 10
80.715628607808696
 20
-26.350925466251923
 30
0.0
  0
VERTEX
  5
4EA
100
AcDbEntity
  8
0
  6
CONTINUOUS
 62
               7
100
AcDbVertex
100
AcDb2dVertex
 10
80.230479086300505
 20
-26.350925466251923
 30
0.0
  0
SEQEND
  5
4EB
100
AcDbEntity
  8
0
  6
CONTINUOUS
 62
               7
  0
POLYLINE
  5
355
100
AcDbEntity
  8
0
  6
CONTINUOUS
 62
               7
100
AcDb2dPolyline
 66
               1
 10
0.0
 20
0.0
 30
0.0
 70
               1
  0
VERTEX
  5
4EC
100
AcDbEntity
  8
0
  6
CONTINUOUS
 62
               7
100
AcDbVertex
100
AcDb2dVertex
 10
80.230479086300505
 20
-28.33033551400527
 30
0.0
  0
VERTEX
  5
4ED
100
AcDbEntity
  8
0
  6
CONTINUOUS
 62
               7
100
AcDbVertex
100
AcDb2dVertex
 10
80.715628607808696
 20
-28.33033551400527
 30
0.0
  0
VERTEX
  5
4EE
100
AcDbEntity
  8
0
  6
CONTINUOUS
 62
               7
100
AcDbVertex
100
AcDb2dVertex
 10
80.715628607808696
 20
-28.815485035513433
 30
0.0
  0
VERTEX
  5
4EF
100
AcDbEntity
  8
0
  6
CONTINUOUS
 62
               7
100
AcDbVertex
100
AcDb2dVertex
 10
80.230479086300505
 20
-28.815485035513433
 30
0.0
  0
SEQEND
  5
4F0
100
AcDbEntity
  8
0
  6
CONTINUOUS
 62
               7
  0
LINE
  5
356
100
AcDbEntity
  8
0
  6
CONTINUOUS
 62
               7
100
AcDbLine
 10
79.52216078489846
 20
-17.860808839858763
 30
0.0
 11
77.581562698865866
 21
-17.860808839858763
 31
0.0
  0
LINE
  5
357
100
AcDbEntity
  8
0
  6
CONTINUOUS
 62
               7
100
AcDbLine
 10
79.52216078489846
 20
-22.033094724829098
 30
0.0
 11
77.581562698865866
 21
-22.033094724829098
 31
0.0
  0
POLYLINE
  5
358
100
AcDbEntity
  8
0
  6
CONTINUOUS
 62
               7
100
AcDb2dPolyline
 66
               1
 10
0.0
 20
0.0
 30
0.0
 70
               1
  0
VERTEX
  5
4F1
100
AcDbEntity
  8
0
  6
CONTINUOUS
 62
               7
100
AcDbVertex
100
AcDb2dVertex
 10
80.230479086300505
 20
-18.472097236959101
 30
0.0
  0
VERTEX
  5
4F2
100
AcDbEntity
  8
0
  6
CONTINUOUS
 62
               7
100
AcDbVertex
100
AcDb2dVertex
 10
80.715628607808696
 20
-18.472097236959101
 30
0.0
  0
VERTEX
  5
4F3
100
AcDbEntity
  8
0
  6
CONTINUOUS
 62
               7
100
AcDbVertex
100
AcDb2dVertex
 10
80.715628607808696
 20
-18.957246758467278
 30
0.0
  0
VERTEX
  5
4F4
100
AcDbEntity
  8
0
  6
CONTINUOUS
 62
               7
100
AcDbVertex
100
AcDb2dVertex
 10
80.230479086300505
 20
-18.957246758467278
 30
0.0
  0
SEQEND
  5
4F5
100
AcDbEntity
  8
0
  6
CONTINUOUS
 62
               7
  0
POLYLINE
  5
359
100
AcDbEntity
  8
0
  6
CONTINUOUS
 62
               7
100
AcDb2dPolyline
 66
               1
 10
0.0
 20
0.0
 30
0.0
 70
               1
  0
VERTEX
  5
4F6
100
AcDbEntity
  8
0
  6
CONTINUOUS
 62
               7
100
AcDbVertex
100
AcDb2dVertex
 10
80.230479086300505
 20
-20.936656806220583
 30
0.0
  0
VERTEX
  5
4F7
100
AcDbEntity
  8
0
  6
CONTINUOUS
 62
               7
100
AcDbVertex
100
AcDb2dVertex
 10
80.715628607808696
 20
-20.936656806220583
 30
0.0
  0
VERTEX
  5
4F8
100
AcDbEntity
  8
0
  6
CONTINUOUS
 62
               7
100
AcDbVertex
100
AcDb2dVertex
 10
80.715628607808696
 20
-21.421806327728817
 30
0.0
  0
VERTEX
  5
4F9
100
AcDbEntity
  8
0
  6
CONTINUOUS
 62
               7
100
AcDbVertex
100
AcDb2dVertex
 10
80.230479086300505
 20
-21.421806327728817
 30
0.0
  0
SEQEND
  5
4FA
100
AcDbEntity
  8
0
  6
CONTINUOUS
 62
               7
  0
LINE
  5
35A
100
AcDbEntity
  8
0
  6
CONTINUOUS
 62
               7
100
AcDbLine
 10
79.52216078489846
 20
-22.033094724829098
 30
0.0
 11
79.52216078489846
 21
-17.860808839858763
 31
0.0
  0
POLYLINE
  5
35B
100
AcDbEntity
  8
0
  6
CONTINUOUS
 62
               7
100
AcDb2dPolyline
 66
               1
 10
0.0
 20
0.0
 30
0.0
 70
               1
  0
VERTEX
  5
4FB
100
AcDbEntity
  8
0
  6
CONTINUOUS
 62
               7
100
AcDbVertex
100
AcDb2dVertex
 10
80.230479086300505
 20
-13.542978098435995
 30
0.0
  0
VERTEX
  5
4FC
100
AcDbEntity
  8
0
  6
CONTINUOUS
 62
               7
100
AcDbVertex
100
AcDb2dVertex
 10
80.715628607808696
 20
-13.542978098435995
 30
0.0
  0
VERTEX
  5
4FD
100
AcDbEntity
  8
0
  6
CONTINUOUS
 62
               7
100
AcDbVertex
100
AcDb2dVertex
 10
80.715628607808696
 20
-14.028127619944129
 30
0.0
  0
VERTEX
  5
4FE
100
AcDbEntity
  8
0
  6
CONTINUOUS
 62
               7
100
AcDbVertex
100
AcDb2dVertex
 10
80.230479086300505
 20
-14.028127619944129
 30
0.0
  0
SEQEND
  5
4FF
100
AcDbEntity
  8
0
  6
CONTINUOUS
 62
               7
  0
POLYLINE
  5
35C
100
AcDbEntity
  8
0
  6
CONTINUOUS
 62
               7
100
AcDb2dPolyline
 66
               1
 10
0.0
 20
0.0
 30
0.0
 70
               1
  0
VERTEX
  5
500
100
AcDbEntity
  8
0
  6
CONTINUOUS
 62
               7
100
AcDbVertex
100
AcDb2dVertex
 10
80.230479086300505
 20
-16.00753766769752
 30
0.0
  0
VERTEX
  5
501
100
AcDbEntity
  8
0
  6
CONTINUOUS
 62
               7
100
AcDbVertex
100
AcDb2dVertex
 10
80.715628607808696
 20
-16.00753766769752
 30
0.0
  0
VERTEX
  5
502
100
AcDbEntity
  8
0
  6
CONTINUOUS
 62
               7
100
AcDbVertex
100
AcDb2dVertex
 10
80.715628607808696
 20
-16.492687189205711
 30
0.0
  0
VERTEX
  5
503
100
AcDbEntity
  8
0
  6
CONTINUOUS
 62
               7
100
AcDbVertex
100
AcDb2dVertex
 10
80.230479086300505
 20
-16.492687189205711
 30
0.0
  0
SEQEND
  5
504
100
AcDbEntity
  8
0
  6
CONTINUOUS
 62
               7
  0
POLYLINE
  5
35D
100
AcDbEntity
  8
0
  6
CONTINUOUS
 62
               7
100
AcDb2dPolyline
 66
               1
 10
0.0
 20
0.0
 30
0.0
 70
               1
  0
VERTEX
  5
505
100
AcDbEntity
  8
0
  6
CONTINUOUS
 62
               7
100
AcDbVertex
100
AcDb2dVertex
 10
80.230479086300505
 20
-11.078418529174428
 30
0.0
  0
VERTEX
  5
506
100
AcDbEntity
  8
0
  6
CONTINUOUS
 62
               7
100
AcDbVertex
100
AcDb2dVertex
 10
80.715628607808696
 20
-11.078418529174428
 30
0.0
  0
VERTEX
  5
507
100
AcDbEntity
  8
0
  6
CONTINUOUS
 62
               7
100
AcDbVertex
100
AcDb2dVertex
 10
80.715628607808696
 20
-11.563568050682647
 30
0.0
  0
VERTEX
  5
508
100
AcDbEntity
  8
0
  6
CONTINUOUS
 62
               7
100
AcDbVertex
100
AcDb2dVertex
 10
80.230479086300505
 20
-11.563568050682647
 30
0.0
  0
SEQEND
  5
509
100
AcDbEntity
  8
0
  6
CONTINUOUS
 62
               7
  0
LINE
  5
35E
100
AcDbEntity
  8
0
  6
CONTINUOUS
 62
               7
100
AcDbLine
 10
79.619190689200167
 20
-5.3924661370985518
 30
0.0
 11
77.581562698865866
 21
-5.3924661370985518
 31
0.0
  0
LINE
  5
35F
100
AcDbEntity
  8
0
  6
CONTINUOUS
 62
               7
100
AcDbLine
 10
79.619190689200167
 20
-6.1687053715116633
 30
0.0
 11
77.581562698865866
 21
-6.1687053715116633
 31
0.0
  0
LINE
  5
360
100
AcDbEntity
  8
0
  6
CONTINUOUS
 62
               7
100
AcDbLine
 10
79.619190689200167
 20
-7.7696987924886542
 30
0.0
 11
78.648891646183813
 21
-7.7696987924886542
 31
0.0
  0
LINE
  5
361
100
AcDbEntity
  8
0
  6
CONTINUOUS
 62
               7
100
AcDbLine
 10
78.794436502636245
 20
-7.7696987924886542
 30
0.0
 11
78.794436502636245
 21
-6.1687053715116633
 31
0.0
  0
POLYLINE
  5
362
100
AcDbEntity
  8
0
  6
CONTINUOUS
 62
               7
100
AcDb2dPolyline
 66
               1
 10
0.0
 20
0.0
 30
0.0
 70
               1
  0
VERTEX
  5
50A
100
AcDbEntity
  8
0
  6
CONTINUOUS
 62
               7
100
AcDbVertex
100
AcDb2dVertex
 10
82.695038655562087
 20
-23.40121637548215
 30
0.0
  0
VERTEX
  5
50B
100
AcDbEntity
  8
0
  6
CONTINUOUS
 62
               7
100
AcDbVertex
100
AcDb2dVertex
 10
83.180188177070164
 20
-23.40121637548215
 30
0.0
  0
VERTEX
  5
50C
100
AcDbEntity
  8
0
  6
CONTINUOUS
 62
               7
100
AcDbVertex
100
AcDb2dVertex
 10
83.180188177070164
 20
-23.886365896990341
 30
0.0
  0
VERTEX
  5
50D
100
AcDbEntity
  8
0
  6
CONTINUOUS
 62
               7
100
AcDbVertex
100
AcDb2dVertex
 10
82.695038655562087
 20
-23.886365896990341
 30
0.0
  0
SEQEND
  5
50E
100
AcDbEntity
  8
0
  6
CONTINUOUS
 62
               7
  0
POLYLINE
  5
363
100
AcDbEntity
  8
0
  6
CONTINUOUS
 62
               7
100
AcDb2dPolyline
 66
               1
 10
0.0
 20
0.0
 30
0.0
 70
               1
  0
VERTEX
  5
50F
100
AcDbEntity
  8
0
  6
CONTINUOUS
 62
               7
100
AcDbVertex
100
AcDb2dVertex
 10
82.695038655562087
 20
-25.865775944743731
 30
0.0
  0
VERTEX
  5
510
100
AcDbEntity
  8
0
  6
CONTINUOUS
 62
               7
100
AcDbVertex
100
AcDb2dVertex
 10
83.180188177070164
 20
-25.865775944743731
 30
0.0
  0
VERTEX
  5
511
100
AcDbEntity
  8
0
  6
CONTINUOUS
 62
               7
100
AcDbVertex
100
AcDb2dVertex
 10
83.180188177070164
 20
-26.350925466251923
 30
0.0
  0
VERTEX
  5
512
100
AcDbEntity
  8
0
  6
CONTINUOUS
 62
               7
100
AcDbVertex
100
AcDb2dVertex
 10
82.695038655562087
 20
-26.350925466251923
 30
0.0
  0
SEQEND
  5
513
100
AcDbEntity
  8
0
  6
CONTINUOUS
 62
               7
  0
POLYLINE
  5
364
100
AcDbEntity
  8
0
  6
CONTINUOUS
 62
               7
100
AcDb2dPolyline
 66
               1
 10
0.0
 20
0.0
 30
0.0
 70
               1
  0
VERTEX
  5
514
100
AcDbEntity
  8
0
  6
CONTINUOUS
 62
               7
100
AcDbVertex
100
AcDb2dVertex
 10
82.695038655562087
 20
-28.33033551400527
 30
0.0
  0
VERTEX
  5
515
100
AcDbEntity
  8
0
  6
CONTINUOUS
 62
               7
100
AcDbVertex
100
AcDb2dVertex
 10
83.180188177070164
 20
-28.33033551400527
 30
0.0
  0
VERTEX
  5
516
100
AcDbEntity
  8
0
  6
CONTINUOUS
 62
               7
100
AcDbVertex
100
AcDb2dVertex
 10
83.180188177070164
 20
-28.815485035513433
 30
0.0
  0
VERTEX
  5
517
100
AcDbEntity
  8
0
  6
CONTINUOUS
 62
               7
100
AcDbVertex
100
AcDb2dVertex
 10
82.695038655562087
 20
-28.815485035513433
 30
0.0
  0
SEQEND
  5
518
100
AcDbEntity
  8
0
  6
CONTINUOUS
 62
               7
  0
POLYLINE
  5
365
100
AcDbEntity
  8
0
  6
CONTINUOUS
 62
               7
100
AcDb2dPolyline
 66
               1
 10
0.0
 20
0.0
 30
0.0
 70
               1
  0
VERTEX
  5
519
100
AcDbEntity
  8
0
  6
CONTINUOUS
 62
               7
100
AcDbVertex
100
AcDb2dVertex
 10
82.695038655562087
 20
-18.472097236959101
 30
0.0
  0
VERTEX
  5
51A
100
AcDbEntity
  8
0
  6
CONTINUOUS
 62
               7
100
AcDbVertex
100
AcDb2dVertex
 10
83.180188177070164
 20
-18.472097236959101
 30
0.0
  0
VERTEX
  5
51B
100
AcDbEntity
  8
0
  6
CONTINUOUS
 62
               7
100
AcDbVertex
100
AcDb2dVertex
 10
83.180188177070164
 20
-18.957246758467278
 30
0.0
  0
VERTEX
  5
51C
100
AcDbEntity
  8
0
  6
CONTINUOUS
 62
               7
100
AcDbVertex
100
AcDb2dVertex
 10
82.695038655562087
 20
-18.957246758467278
 30
0.0
  0
SEQEND
  5
51D
100
AcDbEntity
  8
0
  6
CONTINUOUS
 62
               7
  0
POLYLINE
  5
366
100
AcDbEntity
  8
0
  6
CONTINUOUS
 62
               7
100
AcDb2dPolyline
 66
               1
 10
0.0
 20
0.0
 30
0.0
 70
               1
  0
VERTEX
  5
51E
100
AcDbEntity
  8
0
  6
CONTINUOUS
 62
               7
100
AcDbVertex
100
AcDb2dVertex
 10
82.695038655562087
 20
-20.936656806220583
 30
0.0
  0
VERTEX
  5
51F
100
AcDbEntity
  8
0
  6
CONTINUOUS
 62
               7
100
AcDbVertex
100
AcDb2dVertex
 10
83.180188177070164
 20
-20.936656806220583
 30
0.0
  0
VERTEX
  5
520
100
AcDbEntity
  8
0
  6
CONTINUOUS
 62
               7
100
AcDbVertex
100
AcDb2dVertex
 10
83.180188177070164
 20
-21.421806327728817
 30
0.0
  0
VERTEX
  5
521
100
AcDbEntity
  8
0
  6
CONTINUOUS
 62
               7
100
AcDbVertex
100
AcDb2dVertex
 10
82.695038655562087
 20
-21.421806327728817
 30
0.0
  0
SEQEND
  5
522
100
AcDbEntity
  8
0
  6
CONTINUOUS
 62
               7
  0
POLYLINE
  5
367
100
AcDbEntity
  8
0
  6
CONTINUOUS
 62
               7
100
AcDb2dPolyline
 66
               1
 10
0.0
 20
0.0
 30
0.0
 70
               1
  0
VERTEX
  5
523
100
AcDbEntity
  8
0
  6
CONTINUOUS
 62
               7
100
AcDbVertex
100
AcDb2dVertex
 10
82.695038655562087
 20
-13.542978098435995
 30
0.0
  0
VERTEX
  5
524
100
AcDbEntity
  8
0
  6
CONTINUOUS
 62
               7
100
AcDbVertex
100
AcDb2dVertex
 10
83.180188177070164
 20
-13.542978098435995
 30
0.0
  0
VERTEX
  5
525
100
AcDbEntity
  8
0
  6
CONTINUOUS
 62
               7
100
AcDbVertex
100
AcDb2dVertex
 10
83.180188177070164
 20
-14.028127619944129
 30
0.0
  0
VERTEX
  5
526
100
AcDbEntity
  8
0
  6
CONTINUOUS
 62
               7
100
AcDbVertex
100
AcDb2dVertex
 10
82.695038655562087
 20
-14.028127619944129
 30
0.0
  0
SEQEND
  5
527
100
AcDbEntity
  8
0
  6
CONTINUOUS
 62
               7
  0
POLYLINE
  5
368
100
AcDbEntity
  8
0
  6
CONTINUOUS
 62
               7
100
AcDb2dPolyline
 66
               1
 10
0.0
 20
0.0
 30
0.0
 70
               1
  0
VERTEX
  5
528
100
AcDbEntity
  8
0
  6
CONTINUOUS
 62
               7
100
AcDbVertex
100
AcDb2dVertex
 10
82.695038655562087
 20
-16.00753766769752
 30
0.0
  0
VERTEX
  5
529
100
AcDbEntity
  8
0
  6
CONTINUOUS
 62
               7
100
AcDbVertex
100
AcDb2dVertex
 10
83.180188177070164
 20
-16.00753766769752
 30
0.0
  0
VERTEX
  5
52A
100
AcDbEntity
  8
0
  6
CONTINUOUS
 62
               7
100
AcDbVertex
100
AcDb2dVertex
 10
83.180188177070164
 20
-16.492687189205711
 30
0.0
  0
VERTEX
  5
52B
100
AcDbEntity
  8
0
  6
CONTINUOUS
 62
               7
100
AcDbVertex
100
AcDb2dVertex
 10
82.695038655562087
 20
-16.492687189205711
 30
0.0
  0
SEQEND
  5
52C
100
AcDbEntity
  8
0
  6
CONTINUOUS
 62
               7
  0
POLYLINE
  5
369
100
AcDbEntity
  8
0
  6
CONTINUOUS
 62
               7
100
AcDb2dPolyline
 66
               1
 10
0.0
 20
0.0
 30
0.0
 70
               1
  0
VERTEX
  5
52D
100
AcDbEntity
  8
0
  6
CONTINUOUS
 62
               7
100
AcDbVertex
100
AcDb2dVertex
 10
82.695038655562087
 20
-11.078418529174428
 30
0.0
  0
VERTEX
  5
52E
100
AcDbEntity
  8
0
  6
CONTINUOUS
 62
               7
100
AcDbVertex
100
AcDb2dVertex
 10
83.180188177070164
 20
-11.078418529174428
 30
0.0
  0
VERTEX
  5
52F
100
AcDbEntity
  8
0
  6
CONTINUOUS
 62
               7
100
AcDbVertex
100
AcDb2dVertex
 10
83.180188177070164
 20
-11.563568050682647
 30
0.0
  0
VERTEX
  5
530
100
AcDbEntity
  8
0
  6
CONTINUOUS
 62
               7
100
AcDbVertex
100
AcDb2dVertex
 10
82.695038655562087
 20
-11.563568050682647
 30
0.0
  0
SEQEND
  5
531
100
AcDbEntity
  8
0
  6
CONTINUOUS
 62
               7
  0
LINE
  5
36A
100
AcDbEntity
  8
0
  6
CONTINUOUS
 62
               7
100
AcDbLine
 10
84.761775617186828
 20
-7.7696987924886542
 30
0.0
 11
83.306327052662311
 21
-7.7696987924886542
 31
0.0
  0
LINE
  5
36B
100
AcDbEntity
  8
0
  6
CONTINUOUS
 62
               7
100
AcDbLine
 10
84.131081239226233
 20
-6.1687053715116633
 30
0.0
 11
84.131081239226233
 21
-7.7696987924886542
 31
0.0
  0
LINE
  5
36C
100
AcDbEntity
  8
0
  6
CONTINUOUS
 62
               7
100
AcDbLine
 10
85.82910456450486
 20
-5.3924661370985518
 30
0.0
 11
83.306327052662311
 21
-5.3924661370985518
 31
0.0
  0
LINE
  5
36D
100
AcDbEntity
  8
0
  6
CONTINUOUS
 62
               7
100
AcDbLine
 10
85.82910456450486
 20
-6.1687053715116633
 30
0.0
 11
83.306327052662311
 21
-6.1687053715116633
 31
0.0
  0
LINE
  5
36E
100
AcDbEntity
  8
0
  6
CONTINUOUS
 62
               7
100
AcDbLine
 10
85.82910456450486
 20
9.4880803203853787
 30
0.0
 11
85.82910456450486
 21
47.911922423833133
 31
0.0
  0
LINE
  5
36F
100
AcDbEntity
  8
0
  6
CENTER
 62
               2
100
AcDbLine
 10
76.737401369999986
 20
-19.94695178234393
 30
0.0
 11
88.740000000000009
 21
-19.94695178234393
 31
0.0
  0
ENDBLK
  5
370
100
AcDbEntity
  8
0
100
AcDbBlockEnd
  0
BLOCK
  5
371
100
AcDbEntity
  8
0
100
AcDbBlockBegin
  2
NCT-MV-CUB8-2
 70
               0
 10
0.0
 20
0.0
 30
0.0
  3
NCT-MV-CUB8-2
  1

  0
LINE
  5
372
100
AcDbEntity
  8
0
  6
CENTER
 62
               2
100
AcDbLine
 10
4.7801420305790145
 20
0.0
 30
0.0
 11
-3.7973272251552146
 21
0.0
 31
0.0
  0
LINE
  5
373
100
AcDbEntity
  8
0
  6
CONTINUOUS
 62
               7
100
AcDbLine
 10
27.599998811873093
 20
-49.300001997205854
 30
0.0
 11
27.599998811873093
 21
-50.80000206370552
 31
0.0
  0
LINE
  5
374
100
AcDbEntity
  8
0
  6
CONTINUOUS
 62
               7
100
AcDbLine
 10
28.599998856206184
 20
-49.300001997205854
 30
0.0
 11
28.599998856206184
 21
-50.80000206370552
 31
0.0
  0
LINE
  5
375
100
AcDbEntity
  8
0
  6
CONTINUOUS
 62
               7
100
AcDbLine
 10
33.599999077871644
 20
-53.550002185621523
 30
0.0
 11
33.599999077871644
 21
-56.550002318620798
 31
0.0
  0
LINE
  5
376
100
AcDbEntity
  8
0
  6
CONTINUOUS
 62
               7
100
AcDbLine
 10
30.599998944872368
 20
-53.550002185621523
 30
0.0
 11
30.599998944872368
 21
-56.550002318620798
 31
0.0
  0
LINE
  5
377
100
AcDbEntity
  8
0
  6
CONTINUOUS
 62
               7
100
AcDbLine
 10
31.29999897590551
 20
-54.250002216654693
 30
0.0
 11
31.29999897590551
 21
-55.850002287587628
 31
0.0
  0
LINE
  5
378
100
AcDbEntity
  8
0
  6
CONTINUOUS
 62
               7
100
AcDbLine
 10
32.899999046838502
 20
-54.250002216654693
 30
0.0
 11
32.899999046838502
 21
-55.850002287587628
 31
0.0
  0
LINE
  5
379
100
AcDbEntity
  8
0
  6
CONTINUOUS
 62
               7
100
AcDbLine
 10
33.599999077871644
 20
-48.550001963956035
 30
0.0
 11
33.599999077871644
 21
-51.550002096955339
 31
0.0
  0
LINE
  5
37A
100
AcDbEntity
  8
0
  6
CONTINUOUS
 62
               7
100
AcDbLine
 10
30.599998944872368
 20
-51.550002096955339
 30
0.0
 11
30.599998944872368
 21
-48.550001963956035
 31
0.0
  0
LINE
  5
37B
100
AcDbEntity
  8
0
  6
CONTINUOUS
 62
               7
100
AcDbLine
 10
31.29999897590551
 20
-49.250001994989205
 30
0.0
 11
31.29999897590551
 21
-50.850002065922169
 31
0.0
  0
LINE
  5
37C
100
AcDbEntity
  8
0
  6
CONTINUOUS
 62
               7
100
AcDbLine
 10
32.899999046838502
 20
-49.250001994989205
 30
0.0
 11
32.899999046838502
 21
-50.850002065922169
 31
0.0
  0
LINE
  5
37D
100
AcDbEntity
  8
0
  6
CONTINUOUS
 62
               7
100
AcDbLine
 10
32.899999046838502
 20
-54.250002216654693
 30
0.0
 11
31.29999897590551
 21
-54.250002216654693
 31
0.0
  0
LINE
  5
37E
100
AcDbEntity
  8
0
  6
CONTINUOUS
 62
               7
100
AcDbLine
 10
31.29999897590551
 20
-55.850002287587628
 30
0.0
 11
32.899999046838502
 21
-55.850002287587628
 31
0.0
  0
LINE
  5
37F
100
AcDbEntity
  8
0
  6
CONTINUOUS
 62
               7
100
AcDbLine
 10
33.599999077871644
 20
-56.550002318620798
 30
0.0
 11
30.599998944872368
 21
-56.550002318620798
 31
0.0
  0
LINE
  5
380
100
AcDbEntity
  8
0
  6
CONTINUOUS
 62
               7
100
AcDbLine
 10
30.599998944872368
 20
-53.550002185621523
 30
0.0
 11
33.599999077871644
 21
-53.550002185621523
 31
0.0
  0
LINE
  5
381
100
AcDbEntity
  8
0
  6
CONTINUOUS
 62
               7
100
AcDbLine
 10
32.899999046838502
 20
-49.250001994989205
 30
0.0
 11
31.29999897590551
 21
-49.250001994989205
 31
0.0
  0
LINE
  5
382
100
AcDbEntity
  8
0
  6
CONTINUOUS
 62
               7
100
AcDbLine
 10
31.29999897590551
 20
-50.850002065922169
 30
0.0
 11
32.899999046838502
 21
-50.850002065922169
 31
0.0
  0
LINE
  5
383
100
AcDbEntity
  8
0
  6
CONTINUOUS
 62
               7
100
AcDbLine
 10
33.599999077871644
 20
-51.550002096955339
 30
0.0
 11
30.599998944872368
 21
-51.550002096955339
 31
0.0
  0
LINE
  5
384
100
AcDbEntity
  8
0
  6
CONTINUOUS
 62
               7
100
AcDbLine
 10
30.599998944872368
 20
-48.550001963956035
 30
0.0
 11
33.599999077871644
 21
-48.550001963956035
 31
0.0
  0
LINE
  5
385
100
AcDbEntity
  8
0
  6
CONTINUOUS
 62
               7
100
AcDbLine
 10
27.599998811873093
 20
-50.80000206370552
 30
0.0
 11
28.599998856206184
 21
-50.80000206370552
 31
0.0
  0
LINE
  5
386
100
AcDbEntity
  8
0
  6
CONTINUOUS
 62
               7
100
AcDbLine
 10
28.599998856206184
 20
-49.300001997205854
 30
0.0
 11
27.599998811873093
 21
-49.300001997205854
 31
0.0
  0
LINE
  5
387
100
AcDbEntity
  8
0
  6
CONTINUOUS
 62
               7
100
AcDbLine
 10
22.249998789706552
 20
-70.549999999999983
 30
0.0
 11
15.949998789706569
 21
-70.549999999999983
 31
0.0
  0
LINE
  5
388
100
AcDbEntity
  8
0
  6
CONTINUOUS
 62
               7
100
AcDbLine
 10
15.949998789706569
 20
-70.549999999999983
 30
0.0
 11
15.949998789706569
 21
-69.249999999999986
 31
0.0
  0
LINE
  5
389
100
AcDbEntity
  8
0
  6
CONTINUOUS
 62
               7
100
AcDbLine
 10
22.249998789706552
 20
-70.549999999999983
 30
0.0
 11
22.249998789706552
 21
-69.249999999999986
 31
0.0
  0
ARC
  5
38A
100
AcDbEntity
  8
0
  6
CONTINUOUS
 62
               7
100
AcDbCircle
 10
19.099998789706547
 20
-62.581250000000011
 30
0.0
 40
8.568749999999973
100
AcDbArc
 50
248.43140426487423
 51
291.56859573512463
  0
ARC
  5
38B
100
AcDbEntity
  8
0
  6
CONTINUOUS
 62
               7
100
AcDbCircle
 10
19.099998789706547
 20
54.081250000000026
 30
0.0
 40
8.568749999999973
100
AcDbArc
 50
68.431404264874629
 51
111.56859573512497
  0
LINE
  5
38C
100
AcDbEntity
  8
0
  6
CONTINUOUS
 62
               7
100
AcDbLine
 10
22.249998789706552
 20
62.050000000000026
 30
0.0
 11
15.949998789706569
 21
62.050000000000026
 31
0.0
  0
LINE
  5
38D
100
AcDbEntity
  8
0
  6
CONTINUOUS
 62
               7
100
AcDbLine
 10
15.949998789706569
 20
62.050000000000026
 30
0.0
 11
15.949998789706569
 21
60.750000000000014
 31
0.0
  0
LINE
  5
38E
100
AcDbEntity
  8
0
  6
CONTINUOUS
 62
               7
100
AcDbLine
 10
22.249998789706552
 20
62.050000000000026
 30
0.0
 11
22.249998789706552
 21
60.750000000000014
 31
0.0
  0
LINE
  5
38F
100
AcDbEntity
  8
0
  6
CONTINUOUS
 62
               7
100
AcDbLine
 10
28.599998789706547
 20
48.950002358520649
 30
0.0
 11
34.499999117771495
 21
48.950002358520649
 31
0.0
  0
LINE
  5
390
100
AcDbEntity
  8
0
  6
CONTINUOUS
 62
               7
100
AcDbLine
 10
53.3999999556669
 20
47.050002274287706
 30
0.0
 11
54.399999999999991
 21
46.050002229954615
 31
0.0
  0
LINE
  5
391
100
AcDbEntity
  8
0
  6
CONTINUOUS
 62
               7
100
AcDbLine
 10
47.499999694101703
 20
41.750002039322297
 30
0.0
 11
41.999999450269698
 21
41.750002039322297
 31
0.0
  0
LINE
  5
392
100
AcDbEntity
  8
0
  6
CONTINUOUS
 62
               7
100
AcDbLine
 10
44.899999578835619
 20
43.950002136855133
 30
0.0
 11
46.899999667501802
 21
43.950002136855133
 31
0.0
  0
LINE
  5
393
100
AcDbEntity
  8
0
  6
CONTINUOUS
 62
               7
100
AcDbLine
 10
46.899999667501802
 20
43.950002136855133
 30
0.0
 11
53.3999999556669
 21
47.050002274287706
 31
0.0
  0
LINE
  5
394
100
AcDbEntity
  8
0
  6
CONTINUOUS
 62
               7
100
AcDbLine
 10
48.499999738434795
 20
40.550001986122609
 30
0.0
 11
47.499999694101703
 21
40.550001986122609
 31
0.0
  0
LINE
  5
395
100
AcDbEntity
  8
0
  6
CONTINUOUS
 62
               7
100
AcDbLine
 10
54.399999999999991
 20
46.050002229954615
 30
0.0
 11
48.499999738434795
 21
40.550001986122609
 31
0.0
  0
LINE
  5
396
100
AcDbEntity
  8
0
  6
CONTINUOUS
 62
               7
100
AcDbLine
 10
47.499999694101703
 20
40.550001986122609
 30
0.0
 11
47.499999694101703
 21
41.750002039322297
 31
0.0
  0
LINE
  5
397
100
AcDbEntity
  8
0
  6
CONTINUOUS
 62
               7
100
AcDbLine
 10
47.499999694101703
 20
11.550000700462888
 30
0.0
 11
41.999999450269698
 21
11.550000700462888
 31
0.0
  0
LINE
  5
398
100
AcDbEntity
  8
0
  6
CONTINUOUS
 62
               7
100
AcDbLine
 10
44.899999578835619
 20
9.350000602930109
 30
0.0
 11
46.899999667501802
 21
9.350000602930109
 31
0.0
  0
LINE
  5
399
100
AcDbEntity
  8
0
  6
CONTINUOUS
 62
               7
100
AcDbLine
 10
48.499999738434795
 20
12.750000753662633
 30
0.0
 11
47.499999694101703
 21
12.750000753662633
 31
0.0
  0
LINE
  5
39A
100
AcDbEntity
  8
0
  6
CONTINUOUS
 62
               7
100
AcDbLine
 10
47.499999694101703
 20
12.750000753662633
 30
0.0
 11
47.499999694101703
 21
11.550000700462888
 31
0.0
  0
LINE
  5
39B
100
AcDbEntity
  8
0
  6
CONTINUOUS
 62
               7
100
AcDbLine
 10
53.3999999556669
 20
6.2500004654975356
 30
0.0
 11
54.399999999999991
 21
7.2500005098306275
 31
0.0
  0
LINE
  5
39C
100
AcDbEntity
  8
0
  6
CONTINUOUS
 62
               7
100
AcDbLine
 10
53.3999999556669
 20
-1.5499998803006605
 30
0.0
 11
54.399999999999991
 21
-2.5499999246336955
 31
0.0
  0
LINE
  5
39D
100
AcDbEntity
  8
0
  6
CONTINUOUS
 62
               7
100
AcDbLine
 10
44.899999578835619
 20
-4.6500000177332339
 30
0.0
 11
46.899999667501802
 21
-4.6500000177332339
 31
0.0
  0
LINE
  5
39E
100
AcDbEntity
  8
0
  6
CONTINUOUS
 62
               7
100
AcDbLine
 10
46.899999667501802
 20
-4.6500000177332339
 30
0.0
 11
53.3999999556669
 21
-1.5499998803006605
 31
0.0
  0
LINE
  5
39F
100
AcDbEntity
  8
0
  6
CONTINUOUS
 62
               7
100
AcDbLine
 10
54.399999999999991
 20
7.2500005098306275
 30
0.0
 11
48.499999738434795
 21
12.750000753662633
 31
0.0
  0
LINE
  5
3A0
100
AcDbEntity
  8
0
  6
CONTINUOUS
 62
               7
100
AcDbLine
 10
46.899999667501802
 20
9.350000602930109
 30
0.0
 11
53.3999999556669
 21
6.2500004654975356
 31
0.0
  0
LINE
  5
3A1
100
AcDbEntity
  8
0
  6
CONTINUOUS
 62
               7
100
AcDbLine
 10
32.599999033538552
 20
46.450002247687863
 30
0.0
 11
34.439579115092897
 21
43.950002136855133
 31
0.0
  0
LINE
  5
3A2
100
AcDbEntity
  8
0
  6
CONTINUOUS
 62
               7
100
AcDbLine
 10
32.599999033538552
 20
46.450002247687863
 30
0.0
 11
28.599998789706547
 21
46.450002247687863
 31
0.0
  0
CIRCLE
  5
3A3
100
AcDbEntity
  8
0
  6
CONTINUOUS
 62
               7
100
AcDbCircle
 10
30.599998944872368
 20
43.950002136855133
 30
0.0
 40
1.3500000598496711
  0
LINE
  5
3A4
100
AcDbEntity
  8
0
  6
CONTINUOUS
 62
               7
100
AcDbLine
 10
32.599999033538552
 20
41.450002026022403
 30
0.0
 11
28.099998834039638
 21
41.450002026022403
 31
0.0
  0
LINE
  5
3A5
100
AcDbEntity
  8
0
  6
CONTINUOUS
 62
               7
100
AcDbLine
 10
34.439579115092897
 20
43.950002136855133
 30
0.0
 11
32.599999033538552
 21
41.450002026022403
 31
0.0
  0
LINE
  5
3A6
100
AcDbEntity
  8
0
  6
CONTINUOUS
 62
               7
100
AcDbLine
 10
40.999999405936606
 20
40.750001994989262
 30
0.0
 11
40.999999405936606
 21
26.650001369892564
 31
0.0
  0
LINE
  5
3A7
100
AcDbEntity
  8
0
  6
CONTINUOUS
 62
               7
100
AcDbLine
 10
34.439579115092897
 20
9.350000602930109
 30
0.0
 11
32.599999033538552
 21
11.850000713762839
 31
0.0
  0
LINE
  5
3A8
100
AcDbEntity
  8
0
  6
CONTINUOUS
 62
               7
100
AcDbLine
 10
27.099998789706547
 20
8.3500005585970172
 30
0.0
 11
28.099998834039638
 21
9.350000602930109
 31
0.0
  0
LINE
  5
3A9
100
AcDbEntity
  8
0
  6
CONTINUOUS
 62
               7
100
AcDbLine
 10
32.599999033538552
 20
11.850000713762839
 30
0.0
 11
28.099998834039638
 21
11.850000713762839
 31
0.0
  0
LINE
  5
3AA
100
AcDbEntity
  8
0
  6
CONTINUOUS
 62
               7
100
AcDbLine
 10
27.099998789706547
 20
4.3500003812645929
 30
0.0
 11
34.499999117771495
 21
4.3500003812645929
 31
0.0
  0
LINE
  5
3AB
100
AcDbEntity
  8
0
  6
CONTINUOUS
 62
               7
100
AcDbLine
 10
32.599999033538552
 20
6.8500004920973225
 30
0.0
 11
27.099998789706547
 21
6.8500004920973225
 31
0.0
  0
LINE
  5
3AC
100
AcDbEntity
  8
0
  6
CONTINUOUS
 62
               7
100
AcDbLine
 10
32.599999033538552
 20
-2.1499999069004474
 30
0.0
 11
34.439579115092897
 21
-4.6500000177332339
 31
0.0
  0
LINE
  5
3AD
100
AcDbEntity
  8
0
  6
CONTINUOUS
 62
               7
100
AcDbLine
 10
27.099998789706547
 20
-3.649999973400142
 30
0.0
 11
28.099998834039638
 21
-4.6500000177332339
 31
0.0
  0
LINE
  5
3AE
100
AcDbEntity
  8
0
  6
CONTINUOUS
 62
               7
100
AcDbLine
 10
27.099998789706547
 20
0.3500002039322254
 30
0.0
 11
34.499999117771495
 21
0.3500002039322254
 31
0.0
  0
LINE
  5
3AF
100
AcDbEntity
  8
0
  6
CONTINUOUS
 62
               7
100
AcDbLine
 10
32.599999033538552
 20
-2.1499999069004474
 30
0.0
 11
27.099998789706547
 21
-2.1499999069004474
 31
0.0
  0
LINE
  5
3B0
100
AcDbEntity
  8
0
  6
CONTINUOUS
 62
               7
100
AcDbLine
 10
32.599999033538552
 20
6.8500004920973225
 30
0.0
 11
34.439579115092897
 21
9.350000602930109
 31
0.0
  0
CIRCLE
  5
3B1
100
AcDbEntity
  8
0
  6
CONTINUOUS
 62
               7
100
AcDbCircle
 10
30.599998944872368
 20
9.350000602930109
 30
0.0
 40
1.3500000598496711
  0
LINE
  5
3B2
100
AcDbEntity
  8
0
  6
CONTINUOUS
 62
               7
100
AcDbLine
 10
40.999999405936606
 20
12.55000074479598
 30
0.0
 11
40.999999405936606
 21
26.650001369892564
 31
0.0
  0
LINE
  5
3B3
100
AcDbEntity
  8
0
  6
CONTINUOUS
 62
               7
100
AcDbLine
 10
28.099998834039638
 20
9.350000602930109
 30
0.0
 11
28.099998834039638
 21
42.750000000000014
 31
0.0
  0
LINE
  5
3B4
100
AcDbEntity
  8
0
  6
CONTINUOUS
 62
               7
100
AcDbLine
 10
34.499999117771495
 20
0.3500002039322254
 30
0.0
 11
44.899999578835619
 21
-4.6500000177332339
 31
0.0
  0
LINE
  5
3B5
100
AcDbEntity
  8
0
  6
CONTINUOUS
 62
               7
100
AcDbLine
 10
34.499999117771495
 20
4.3500003812645929
 30
0.0
 11
44.899999578835619
 21
9.350000602930109
 31
0.0
  0
ARC
  5
3B6
100
AcDbEntity
  8
0
  6
CONTINUOUS
 62
               7
100
AcDbCircle
 10
41.999999450269698
 20
12.55000074479598
 30
0.0
 40
1.0000000443330577
100
AcDbArc
 50
179.99999999999963
 51
269.99999999999937
  0
ARC
  5
3B7
100
AcDbEntity
  8
0
  6
CONTINUOUS
 62
               7
100
AcDbCircle
 10
41.999999450269698
 20
40.750001994989262
 30
0.0
 40
1.0000000443330885
100
AcDbArc
 50
89.999999999999815
 51
179.99999999999963
  0
LINE
  5
3B8
100
AcDbEntity
  8
0
  6
CONTINUOUS
 62
               7
100
AcDbLine
 10
47.499999694101703
 20
-6.8500001152660701
 30
0.0
 11
41.999999450269698
 21
-6.8500001152660701
 31
0.0
  0
LINE
  5
3B9
100
AcDbEntity
  8
0
  6
CONTINUOUS
 62
               7
100
AcDbLine
 10
48.499999738434795
 20
-8.0500001684657576
 30
0.0
 11
47.499999694101703
 21
-8.0500001684657576
 31
0.0
  0
LINE
  5
3BA
100
AcDbEntity
  8
0
  6
CONTINUOUS
 62
               7
100
AcDbLine
 10
47.499999694101703
 20
-8.0500001684657576
 30
0.0
 11
47.499999694101703
 21
-6.8500001152660701
 31
0.0
  0
LINE
  5
3BB
100
AcDbEntity
  8
0
  6
CONTINUOUS
 62
               7
100
AcDbLine
 10
47.499999694101703
 20
-37.050001454125479
 30
0.0
 11
41.999999450269698
 21
-37.050001454125479
 31
0.0
  0
LINE
  5
3BC
100
AcDbEntity
  8
0
  6
CONTINUOUS
 62
               7
100
AcDbLine
 10
47.499999694101703
 20
-35.850001400925791
 30
0.0
 11
47.499999694101703
 21
-37.050001454125479
 31
0.0
  0
LINE
  5
3BD
100
AcDbEntity
  8
0
  6
CONTINUOUS
 62
               7
100
AcDbLine
 10
48.499999738434795
 20
-35.850001400925791
 30
0.0
 11
47.499999694101703
 21
-35.850001400925791
 31
0.0
  0
LINE
  5
3BE
100
AcDbEntity
  8
0
  6
CONTINUOUS
 62
               7
100
AcDbLine
 10
53.3999999556669
 20
-42.35000168909086
 30
0.0
 11
54.399999999999991
 21
-41.350001644757796
 31
0.0
  0
LINE
  5
3BF
100
AcDbEntity
  8
0
  6
CONTINUOUS
 62
               7
100
AcDbLine
 10
44.899999578835619
 20
-39.250001551658258
 30
0.0
 11
46.899999667501802
 21
-39.250001551658258
 31
0.0
  0
LINE
  5
3C0
100
AcDbEntity
  8
0
  6
CONTINUOUS
 62
               7
100
AcDbLine
 10
46.899999667501802
 20
-39.250001551658258
 30
0.0
 11
53.3999999556669
 21
-42.35000168909086
 31
0.0
  0
LINE
  5
3C1
100
AcDbEntity
  8
0
  6
CONTINUOUS
 62
               7
100
AcDbLine
 10
54.399999999999991
 20
-41.350001644757796
 30
0.0
 11
48.499999738434795
 21
-35.850001400925791
 31
0.0
  0
LINE
  5
3C2
100
AcDbEntity
  8
0
  6
CONTINUOUS
 62
               7
100
AcDbLine
 10
32.599999033538552
 20
-7.1500001285659636
 30
0.0
 11
28.099998834039638
 21
-7.1500001285659636
 31
0.0
  0
LINE
  5
3C3
100
AcDbEntity
  8
0
  6
CONTINUOUS
 62
               7
100
AcDbLine
 10
40.999999405936606
 20
-7.850000159599162
 30
0.0
 11
40.999999405936606
 21
-21.950000784695746
 31
0.0
  0
LINE
  5
3C4
100
AcDbEntity
  8
0
  6
CONTINUOUS
 62
               7
100
AcDbLine
 10
32.599999033538552
 20
-36.750001440825528
 30
0.0
 11
28.099998834039638
 21
-36.750001440825528
 31
0.0
  0
LINE
  5
3C5
100
AcDbEntity
  8
0
  6
CONTINUOUS
 62
               7
100
AcDbLine
 10
32.599999033538552
 20
-41.750001662490988
 30
0.0
 11
34.439579115092897
 21
-39.250001551658258
 31
0.0
  0
LINE
  5
3C6
100
AcDbEntity
  8
0
  6
CONTINUOUS
 62
               7
100
AcDbLine
 10
27.099998789706547
 20
-40.25000159599135
 30
0.0
 11
28.099998834039638
 21
-39.250001551658258
 31
0.0
  0
LINE
  5
3C7
100
AcDbEntity
  8
0
  6
CONTINUOUS
 62
               7
100
AcDbLine
 10
32.599999033538552
 20
-41.750001662490988
 30
0.0
 11
27.099998789706547
 21
-41.750001662490988
 31
0.0
  0
LINE
  5
3C8
100
AcDbEntity
  8
0
  6
CONTINUOUS
 62
               7
100
AcDbLine
 10
27.099998789706547
 20
-44.250001773323746
 30
0.0
 11
34.499999117771495
 21
-44.250001773323746
 31
0.0
  0
LINE
  5
3C9
100
AcDbEntity
  8
0
  6
CONTINUOUS
 62
               7
100
AcDbLine
 10
34.439579115092897
 20
-39.250001551658258
 30
0.0
 11
32.599999033538552
 21
-36.750001440825528
 31
0.0
  0
CIRCLE
  5
3CA
100
AcDbEntity
  8
0
  6
CONTINUOUS
 62
               7
100
AcDbCircle
 10
30.599998944872368
 20
-39.250001551658258
 30
0.0
 40
1.3500000598496711
  0
LINE
  5
3CB
100
AcDbEntity
  8
0
  6
CONTINUOUS
 62
               7
100
AcDbLine
 10
32.899999046838502
 20
-49.250001994989205
 30
0.0
 11
33.599999077871644
 21
-48.550001963956035
 31
0.0
  0
LINE
  5
3CC
100
AcDbEntity
  8
0
  6
CONTINUOUS
 62
               7
100
AcDbLine
 10
31.29999897590551
 20
-49.250001994989205
 30
0.0
 11
30.599998944872368
 21
-48.550001963956035
 31
0.0
  0
LINE
  5
3CD
100
AcDbEntity
  8
0
  6
CONTINUOUS
 62
               7
100
AcDbLine
 10
31.29999897590551
 20
-50.850002065922169
 30
0.0
 11
30.599998944872368
 21
-51.550002096955339
 31
0.0
  0
LINE
  5
3CE
100
AcDbEntity
  8
0
  6
CONTINUOUS
 62
               7
100
AcDbLine
 10
32.899999046838502
 20
-50.850002065922169
 30
0.0
 11
33.599999077871644
 21
-51.550002096955339
 31
0.0
  0
LINE
  5
3CF
100
AcDbEntity
  8
0
  6
CONTINUOUS
 62
               7
100
AcDbLine
 10
40.099999366036741
 20
-47.550001919622943
 30
0.0
 11
27.099998789706547
 21
-47.550001919622943
 31
0.0
  0
LINE
  5
3D0
100
AcDbEntity
  8
0
  6
CONTINUOUS
 62
               7
100
AcDbLine
 10
35.599999166537941
 20
-52.050002119121856
 30
0.0
 11
29.09999887837273
 21
-52.050002119121856
 31
0.0
  0
LINE
  5
3D1
100
AcDbEntity
  8
0
  6
CONTINUOUS
 62
               7
100
AcDbLine
 10
40.099999366036741
 20
-52.550002141288431
 30
0.0
 11
35.599999166537941
 21
-52.550002141288431
 31
0.0
  0
LINE
  5
3D2
100
AcDbEntity
  8
0
  6
CONTINUOUS
 62
               7
100
AcDbLine
 10
32.899999046838502
 20
-54.250002216654693
 30
0.0
 11
33.599999077871644
 21
-53.550002185621523
 31
0.0
  0
LINE
  5
3D3
100
AcDbEntity
  8
0
  6
CONTINUOUS
 62
               7
100
AcDbLine
 10
31.29999897590551
 20
-54.250002216654693
 30
0.0
 11
30.599998944872368
 21
-53.550002185621523
 31
0.0
  0
LINE
  5
3D4
100
AcDbEntity
  8
0
  6
CONTINUOUS
 62
               7
100
AcDbLine
 10
31.29999897590551
 20
-55.850002287587628
 30
0.0
 11
30.599998944872368
 21
-56.550002318620798
 31
0.0
  0
LINE
  5
3D5
100
AcDbEntity
  8
0
  6
CONTINUOUS
 62
               7
100
AcDbLine
 10
32.899999046838502
 20
-55.850002287587628
 30
0.0
 11
33.599999077871644
 21
-56.550002318620798
 31
0.0
  0
LINE
  5
3D6
100
AcDbEntity
  8
0
  6
CONTINUOUS
 62
               7
100
AcDbLine
 10
28.599998789706547
 20
-57.55000236295389
 30
0.0
 11
40.099999366036741
 21
-57.55000236295389
 31
0.0
  0
LINE
  5
3D7
100
AcDbEntity
  8
0
  6
CONTINUOUS
 62
               7
100
AcDbLine
 10
35.599999166537941
 20
-53.050002163454977
 30
0.0
 11
29.09999887837273
 21
-53.050002163454977
 31
0.0
  0
LINE
  5
3D8
100
AcDbEntity
  8
0
  6
CONTINUOUS
 62
               7
100
AcDbLine
 10
29.09999887837273
 20
-57.55000236295389
 30
0.0
 11
29.09999887837273
 21
-47.550001919622943
 31
0.0
  0
LINE
  5
3D9
100
AcDbEntity
  8
0
  6
CONTINUOUS
 62
               7
100
AcDbLine
 10
35.599999166537941
 20
-57.55000236295389
 30
0.0
 11
35.599999166537941
 21
-47.550001919622943
 31
0.0
  0
LINE
  5
3DA
100
AcDbEntity
  8
0
  6
CONTINUOUS
 62
               7
100
AcDbLine
 10
40.099999366036741
 20
-57.55000236295389
 30
0.0
 11
40.099999366036741
 21
-47.550001919622943
 31
0.0
  0
LINE
  5
3DB
100
AcDbEntity
  8
0
  6
CONTINUOUS
 62
               7
100
AcDbLine
 10
28.099998834039638
 20
-39.250001551658258
 30
0.0
 11
28.099998834039638
 21
-21.950000784695746
 31
0.0
  0
LINE
  5
3DC
100
AcDbEntity
  8
0
  6
CONTINUOUS
 62
               7
100
AcDbLine
 10
40.999999405936606
 20
-36.050001409792387
 30
0.0
 11
40.999999405936606
 21
-21.950000784695746
 31
0.0
  0
LINE
  5
3DD
100
AcDbEntity
  8
0
  6
CONTINUOUS
 62
               7
100
AcDbLine
 10
34.499999117771495
 20
-44.250001773323746
 30
0.0
 11
44.899999578835619
 21
-39.250001551658258
 31
0.0
  0
ARC
  5
3DE
100
AcDbEntity
  8
0
  6
CONTINUOUS
 62
               7
100
AcDbCircle
 10
41.999999450269698
 20
-36.050001409792387
 30
0.0
 40
1.0000000443330577
100
AcDbArc
 50
179.99999999999963
 51
269.99999999999937
  0
ARC
  5
3DF
100
AcDbEntity
  8
0
  6
CONTINUOUS
 62
               7
100
AcDbCircle
 10
41.999999450269698
 20
-7.850000159599162
 30
0.0
 40
1.0000000443330885
100
AcDbArc
 50
89.999999999999815
 51
179.99999999999963
  0
CIRCLE
  5
3E0
100
AcDbEntity
  8
0
  6
CONTINUOUS
 62
               7
100
AcDbCircle
 10
30.599998944872368
 20
-4.6500000177332339
 30
0.0
 40
1.3500000598496711
  0
LINE
  5
3E1
100
AcDbEntity
  8
0
  6
CONTINUOUS
 62
               7
100
AcDbLine
 10
34.439579115092897
 20
-4.6500000177332339
 30
0.0
 11
32.599999033538552
 21
-7.1500001285659636
 31
0.0
  0
LINE
  5
3E2
100
AcDbEntity
  8
0
  6
CONTINUOUS
 62
               7
100
AcDbLine
 10
28.099998834039638
 20
-4.6500000177332339
 30
0.0
 11
28.099998834039638
 21
-21.950000784695746
 31
0.0
  0
LINE
  5
3E3
100
AcDbEntity
  8
0
  6
CONTINUOUS
 62
               7
100
AcDbLine
 10
54.399999999999991
 20
-2.5499999246336955
 30
0.0
 11
48.499999738434795
 21
-8.0500001684657576
 31
0.0
  0
LINE
  5
3E4
100
AcDbEntity
  8
0
  6
CONTINUOUS
 62
               7
100
AcDbLine
 10
34.499999117771495
 20
48.950002358520649
 30
0.0
 11
44.899999578835619
 21
43.950002136855133
 31
0.0
  0
LINE
  5
3E5
100
AcDbEntity
  8
0
  6
CONTINUOUS
 62
               7
100
AcDbLine
 10
27.099998789706547
 20
42.750000000000014
 30
0.0
 11
27.099998789706547
 21
-51.249999999999986
 31
0.0
  0
LINE
  5
3E6
100
AcDbEntity
  8
0
  6
PHANTOM
 62
               2
100
AcDbLine
 10
0.0
 20
15.500000000000014
 30
0.0
 11
1.0
 21
15.500000000000014
 31
0.0
  0
LINE
  5
3E7
100
AcDbEntity
  8
0
  6
PHANTOM
 62
               2
100
AcDbLine
 10
0.0
 20
15.500000000000014
 30
0.0
 11
0.0
 21
-19.499999999999986
 31
0.0
  0
LINE
  5
3E8
100
AcDbEntity
  8
0
  6
CONTINUOUS
 62
               7
100
AcDbLine
 10
28.599998789706547
 20
-51.749999999999986
 30
0.0
 11
28.599998789706547
 21
-66.249999999999986
 31
0.0
  0
LINE
  5
3E9
100
AcDbEntity
  8
0
  6
CONTINUOUS
 62
               7
100
AcDbLine
 10
9.9999987897065523
 20
-56.249999999999986
 30
0.0
 11
9.9999987897065523
 21
-61.249999999999986
 31
0.0
  0
ARC
  5
3EA
100
AcDbEntity
  8
0
  6
CONTINUOUS
 62
               7
100
AcDbCircle
 10
27.599998789706547
 20
57.750000000000014
 30
0.0
 40
1.0
100
AcDbArc
 50
0.0
 51
89.999999999999815
  0
ARC
  5
3EB
100
AcDbEntity
  8
0
  6
CONTINUOUS
 62
               7
100
AcDbCircle
 10
27.599998789706547
 20
-66.249999999999986
 30
0.0
 40
1.0
100
AcDbArc
 50
269.99999999999937
 51
0.0
  0
LINE
  5
3EC
100
AcDbEntity
  8
0
  6
CONTINUOUS
 62
               7
100
AcDbLine
 10
19.099998789706547
 20
55.750000000000014
 30
0.0
 11
19.099998789706547
 21
-64.249999999999986
 31
0.0
  0
LINE
  5
3ED
100
AcDbEntity
  8
0
  6
CONTINUOUS
 62
               7
100
AcDbLine
 10
28.099998789706547
 20
-51.249999999999986
 30
0.0
 11
27.099998789706547
 21
-51.249999999999986
 31
0.0
  0
ARC
  5
3EE
100
AcDbEntity
  8
0
  6
CONTINUOUS
 62
               7
100
AcDbCircle
 10
28.099998789706547
 20
-51.749999999999986
 30
0.0
 40
0.5
100
AcDbArc
 50
0.0
 51
89.999999999999815
  0
LINE
  5
3EF
100
AcDbEntity
  8
0
  6
CONTINUOUS
 62
               7
100
AcDbLine
 10
28.099998789706547
 20
42.750000000000014
 30
0.0
 11
27.099998789706547
 21
42.750000000000014
 31
0.0
  0
LINE
  5
3F0
100
AcDbEntity
  8
0
  6
CONTINUOUS
 62
               7
100
AcDbLine
 10
28.599998789706547
 20
43.250000000000014
 30
0.0
 11
28.599998789706547
 21
57.750000000000014
 31
0.0
  0
ARC
  5
3F1
100
AcDbEntity
  8
0
  6
CONTINUOUS
 62
               7
100
AcDbCircle
 10
28.099998789706547
 20
43.250000000000014
 30
0.0
 40
0.5
100
AcDbArc
 50
270.00000000000023
 51
0.0
  0
LINE
  5
3F2
100
AcDbEntity
  8
0
  6
CONTINUOUS
 62
               7
100
AcDbLine
 10
11.999998789706552
 20
46.750000000000014
 30
0.0
 11
11.999998789706552
 21
-55.249999999999986
 31
0.0
  0
LINE
  5
3F3
100
AcDbEntity
  8
0
  6
CONTINUOUS
 62
               7
100
AcDbLine
 10
19.099998789706547
 20
-62.249999999999986
 30
0.0
 11
18.099998789706547
 21
-62.249999999999986
 31
0.0
  0
ARC
  5
3F4
100
AcDbEntity
  8
0
  6
CONTINUOUS
 62
               7
100
AcDbCircle
 10
15.049998789706564
 20
-62.199999999999989
 30
0.0
 40
3.0500000000000007
100
AcDbArc
 50
179.99999999999969
 51
0.0
  0
ARC
  5
3F5
100
AcDbEntity
  8
0
  6
CONTINUOUS
 62
               7
100
AcDbCircle
 10
10.999998789706552
 20
-61.249999999999986
 30
0.0
 40
1.0
100
AcDbArc
 50
179.99999999999963
 51
269.99999999999937
  0
LINE
  5
3F6
100
AcDbEntity
  8
0
  6
CONTINUOUS
 62
               7
100
AcDbLine
 10
11.999998789706552
 20
-62.249999999999986
 30
0.0
 11
10.999998789706552
 21
-62.249999999999986
 31
0.0
  0
LINE
  5
3F7
100
AcDbEntity
  8
0
  6
CONTINUOUS
 62
               7
100
AcDbLine
 10
11.999998789706552
 20
-55.249999999999986
 30
0.0
 11
10.999998789706552
 21
-55.249999999999986
 31
0.0
  0
ARC
  5
3F8
100
AcDbEntity
  8
0
  6
CONTINUOUS
 62
               7
100
AcDbCircle
 10
10.999998789706552
 20
-56.249999999999986
 30
0.0
 40
1.0
100
AcDbArc
 50
89.999999999999815
 51
179.99999999999963
  0
CIRCLE
  5
3F9
100
AcDbEntity
  8
0
  6
CONTINUOUS
 62
               7
100
AcDbCircle
 10
15.049998789706564
 20
-62.199999999999989
 30
0.0
 40
1.5
  0
ARC
  5
3FA
100
AcDbEntity
  8
0
  6
CONTINUOUS
 62
               7
100
AcDbCircle
 10
22.099998789706547
 20
-64.249999999999986
 30
0.0
 40
3.0
100
AcDbArc
 50
179.99999999999963
 51
269.99999999999937
  0
CIRCLE
  5
3FB
100
AcDbEntity
  8
0
  6
CONTINUOUS
 62
               7
100
AcDbCircle
 10
22.099998789706547
 20
-64.249999999999986
 30
0.0
 40
1.5
  0
ARC
  5
3FC
100
AcDbEntity
  8
0
  6
CONTINUOUS
 62
               7
100
AcDbCircle
 10
22.099998789706547
 20
55.750000000000014
 30
0.0
 40
3.0
100
AcDbArc
 50
89.999999999999815
 51
179.99999999999963
  0
LINE
  5
3FD
100
AcDbEntity
  8
0
  6
CONTINUOUS
 62
               7
100
AcDbLine
 10
11.999998789706552
 20
53.750000000000014
 30
0.0
 11
10.999998789706552
 21
53.750000000000014
 31
0.0
  0
LINE
  5
3FE
100
AcDbEntity
  8
0
  6
CONTINUOUS
 62
               7
100
AcDbLine
 10
11.999998789706552
 20
46.750000000000014
 30
0.0
 11
10.999998789706552
 21
46.750000000000014
 31
0.0
  0
ARC
  5
3FF
100
AcDbEntity
  8
0
  6
CONTINUOUS
 62
               7
100
AcDbCircle
 10
10.999998789706552
 20
47.750000000000014
 30
0.0
 40
1.0
100
AcDbArc
 50
179.99999999999963
 51
269.99999999999937
  0
ARC
  5
400
100
AcDbEntity
  8
0
  6
CONTINUOUS
 62
               7
100
AcDbCircle
 10
10.999998789706552
 20
52.750000000000014
 30
0.0
 40
1.0
100
AcDbArc
 50
89.999999999999815
 51
179.99999999999963
  0
LINE
  5
401
100
AcDbEntity
  8
0
  6
CONTINUOUS
 62
               7
100
AcDbLine
 10
9.9999987897065523
 20
47.750000000000014
 30
0.0
 11
9.9999987897065523
 21
52.750000000000014
 31
0.0
  0
ARC
  5
402
100
AcDbEntity
  8
0
  6
CONTINUOUS
 62
               7
100
AcDbCircle
 10
15.049998789706564
 20
53.700000000000003
 30
0.0
 40
3.0500000000000007
100
AcDbArc
 50
0.939317149981002
 51
179.99999999999949
  0
CIRCLE
  5
403
100
AcDbEntity
  8
0
  6
CONTINUOUS
 62
               7
100
AcDbCircle
 10
15.049998789706564
 20
53.700000000000003
 30
0.0
 40
1.5
  0
LINE
  5
404
100
AcDbEntity
  8
0
  6
CONTINUOUS
 62
               7
100
AcDbLine
 10
19.099998789706547
 20
53.750000000000014
 30
0.0
 11
18.099998789706547
 21
53.750000000000014
 31
0.0
  0
CIRCLE
  5
405
100
AcDbEntity
  8
0
  6
CONTINUOUS
 62
               7
100
AcDbCircle
 10
22.099998789706547
 20
55.750000000000014
 30
0.0
 40
1.5
  0
LINE
  5
406
100
AcDbEntity
  8
0
  6
PHANTOM
 62
               2
100
AcDbLine
 10
7.5
 20
15.500000000000014
 30
0.0
 11
7.5
 21
11.500000000000014
 31
0.0
  0
LINE
  5
407
100
AcDbEntity
  8
0
  6
PHANTOM
 62
               2
100
AcDbLine
 10
6.5
 20
10.500000000000014
 30
0.0
 11
1.5
 21
10.500000000000014
 31
0.0
  0
LINE
  5
408
100
AcDbEntity
  8
0
  6
PHANTOM
 62
               2
100
AcDbLine
 10
6.5
 20
15.500000000000014
 30
0.0
 11
6.5
 21
12.500000000000014
 31
0.0
  0
LINE
  5
409
100
AcDbEntity
  8
0
  6
PHANTOM
 62
               2
100
AcDbLine
 10
6.5
 20
12.500000000000014
 30
0.0
 11
3.0
 21
12.500000000000014
 31
0.0
  0
LINE
  5
40A
100
AcDbEntity
  8
0
  6
PHANTOM
 62
               2
100
AcDbLine
 10
1.0
 20
15.500000000000014
 30
0.0
 11
1.0
 21
14.500000000000014
 31
0.0
  0
LINE
  5
40B
100
AcDbEntity
  8
0
  6
PHANTOM
 62
               2
100
AcDbLine
 10
7.5
 20
15.500000000000014
 30
0.0
 11
6.8000000000000114
 21
15.500000000000014
 31
0.0
  0
ARC
  5
40C
100
AcDbEntity
  8
0
  6
PHANTOM
 62
               2
100
AcDbCircle
 10
6.5
 20
11.500000000000014
 30
0.0
 40
1.0
100
AcDbArc
 50
269.99999999999937
 51
0.0
  0
ARC
  5
40D
100
AcDbEntity
  8
0
  6
PHANTOM
 62
               2
100
AcDbCircle
 10
3.0
 20
14.500000000000014
 30
0.0
 40
2.0
100
AcDbArc
 50
179.99999999999963
 51
269.99999999999937
  0
ARC
  5
40E
100
AcDbEntity
  8
0
  6
PHANTOM
 62
               2
100
AcDbCircle
 10
1.5
 20
10.000000000000014
 30
0.0
 40
0.5
100
AcDbArc
 50
89.999999999999815
 51
179.99999999999963
  0
LINE
  5
40F
100
AcDbEntity
  8
0
  6
PHANTOM
 62
               2
100
AcDbLine
 10
6.5
 20
-14.499999999999986
 30
0.0
 11
1.5
 21
-14.499999999999986
 31
0.0
  0
ARC
  5
410
100
AcDbEntity
  8
0
  6
PHANTOM
 62
               2
100
AcDbCircle
 10
3.0
 20
-18.499999999999986
 30
0.0
 40
2.0
100
AcDbArc
 50
89.999999999999815
 51
179.99999999999963
  0
ARC
  5
411
100
AcDbEntity
  8
0
  6
PHANTOM
 62
               2
100
AcDbCircle
 10
6.5
 20
-15.499999999999986
 30
0.0
 40
1.0
100
AcDbArc
 50
0.0
 51
89.999999999999815
  0
LINE
  5
412
100
AcDbEntity
  8
0
  6
PHANTOM
 62
               2
100
AcDbLine
 10
6.5
 20
-19.499999999999986
 30
0.0
 11
7.5
 21
-19.499999999999986
 31
0.0
  0
LINE
  5
413
100
AcDbEntity
  8
0
  6
PHANTOM
 62
               2
100
AcDbLine
 10
6.5
 20
-16.499999999999986
 30
0.0
 11
3.0
 21
-16.499999999999986
 31
0.0
  0
LINE
  5
414
100
AcDbEntity
  8
0
  6
PHANTOM
 62
               2
100
AcDbLine
 10
6.5
 20
-19.499999999999986
 30
0.0
 11
6.5
 21
-16.499999999999986
 31
0.0
  0
LINE
  5
415
100
AcDbEntity
  8
0
  6
PHANTOM
 62
               2
100
AcDbLine
 10
7.5
 20
-19.499999999999986
 30
0.0
 11
7.5
 21
-15.499999999999986
 31
0.0
  0
LINE
  5
416
100
AcDbEntity
  8
0
  6
PHANTOM
 62
               2
100
AcDbLine
 10
0.0
 20
-19.499999999999986
 30
0.0
 11
1.0
 21
-19.499999999999986
 31
0.0
  0
LINE
  5
417
100
AcDbEntity
  8
0
  6
PHANTOM
 62
               2
100
AcDbLine
 10
1.0
 20
-19.499999999999986
 30
0.0
 11
1.0
 21
-18.499999999999986
 31
0.0
  0
ARC
  5
418
100
AcDbEntity
  8
0
  6
PHANTOM
 62
               2
100
AcDbCircle
 10
1.5
 20
-13.999999999999986
 30
0.0
 40
0.5
100
AcDbArc
 50
179.99999999999963
 51
269.99999999999937
  0
LINE
  5
419
100
AcDbEntity
  8
0
  6
CONTINUOUS
 62
               7
100
AcDbLine
 10
0.5999987897065466
 20
54.100000000000037
 30
0.0
 11
0.5999987897065466
 21
16.983046970815323
 31
0.0
  0
LINE
  5
41A
100
AcDbEntity
  8
0
  6
CONTINUOUS
 62
               7
100
AcDbLine
 10
4.5999987897065466
 20
55.100000000000037
 30
0.0
 11
1.5999987897065466
 21
55.100000000000037
 31
0.0
  0
LINE
  5
41B
100
AcDbEntity
  8
0
  6
CONTINUOUS
 62
               7
100
AcDbLine
 10
5.5999987897065466
 20
54.100000000000037
 30
0.0
 11
5.5999987897065466
 21
44.600000000000037
 31
0.0
  0
ARC
  5
41C
100
AcDbEntity
  8
0
  6
CONTINUOUS
 62
               7
100
AcDbCircle
 10
1.5999987897065466
 20
54.100000000000037
 30
0.0
 40
1.0
100
AcDbArc
 50
89.999999999999815
 51
179.99999999999963
  0
ARC
  5
41D
100
AcDbEntity
  8
0
  6
CONTINUOUS
 62
               7
100
AcDbCircle
 10
4.5999987897065466
 20
54.100000000000037
 30
0.0
 40
1.0
100
AcDbArc
 50
0.0
 51
89.999999999999815
  0
LINE
  5
41E
100
AcDbEntity
  8
0
  6
CONTINUOUS
 62
               7
100
AcDbLine
 10
11.999998789706552
 20
44.600000000000037
 30
0.0
 11
2.5999987897065466
 21
44.600000000000037
 31
0.0
  0
LINE
  5
41F
100
AcDbEntity
  8
0
  6
CONTINUOUS
 62
               7
100
AcDbLine
 10
11.999998789706552
 20
43.600000000000037
 30
0.0
 11
2.0999987897065466
 21
43.600000000000037
 31
0.0
  0
LINE
  5
420
100
AcDbEntity
  8
0
  6
CONTINUOUS
 62
               7
100
AcDbLine
 10
1.5999987897065466
 20
49.600000000000037
 30
0.0
 11
1.5999987897065466
 21
45.600000000000037
 31
0.0
  0
ARC
  5
421
100
AcDbEntity
  8
0
  6
CONTINUOUS
 62
               7
100
AcDbCircle
 10
2.5999987897065466
 20
45.600000000000037
 30
0.0
 40
1.0
100
AcDbArc
 50
179.99999999999963
 51
269.99999999999937
  0
LINE
  5
422
100
AcDbEntity
  8
0
  6
CONTINUOUS
 62
               7
100
AcDbLine
 10
5.5999987897065466
 20
49.600000000000037
 30
0.0
 11
1.5999987897065466
 21
49.600000000000037
 31
0.0
  0
LINE
  5
423
100
AcDbEntity
  8
0
  6
PHANTOM
 62
               2
100
AcDbLine
 10
1.0
 20
-13.999999999999986
 30
0.0
 11
1.0
 21
10.000000000000014
 31
0.0
  0
LINE
  5
424
100
AcDbEntity
  8
0
  6
CONTINUOUS
 62
               7
100
AcDbLine
 10
1.5999987897065466
 20
43.100000000000037
 30
0.0
 11
1.5999987897065466
 21
17.098764499490557
 31
0.0
  0
ARC
  5
425
100
AcDbEntity
  8
0
  6
CONTINUOUS
 62
               7
100
AcDbCircle
 10
1.5999987897065466
 20
43.600000000000037
 30
0.0
 40
0.5
100
AcDbArc
 50
0.0
 51
265.97131268094341
  0
ARC
  5
426
100
AcDbEntity
  8
0
  6
CONTINUOUS
 62
               7
100
AcDbCircle
 10
1.5999987897065466
 20
16.600000000000037
 30
0.0
 40
0.5
100
AcDbArc
 50
94.028687319056587
 51
0.0
  0
LINE
  5
427
100
AcDbEntity
  8
0
  6
CONTINUOUS
 62
               7
100
AcDbLine
 10
11.999998789706552
 20
15.500000000000014
 30
0.0
 11
6.5
 21
15.500000000000014
 31
0.0
  0
ARC
  5
428
100
AcDbEntity
  8
0
  6
CONTINUOUS
 62
               7
100
AcDbCircle
 10
2.0999987897065466
 20
90.810000000000016
 30
0.0
 40
74.209999999999965
100
AcDbArc
 50
269.99999999999937
 51
277.66641051861495
  0
ARC
  5
429
100
AcDbEntity
  8
0
  6
CONTINUOUS
 62
               7
100
AcDbCircle
 10
5.8000000000000114
 20
27.340914812296674
 30
0.0
 40
12.84091481229666
100
AcDbArc
 50
252.83177949503474
 51
273.12492818234762
  0
LINE
  5
42A
100
AcDbEntity
  8
0
  6
CONTINUOUS
 62
               7
100
AcDbLine
 10
11.999998789706552
 20
14.500000000000014
 30
0.0
 11
7.5
 21
14.500000000000014
 31
0.0
  0
LINE
  5
42B
100
AcDbEntity
  8
0
  6
CONTINUOUS
 62
               7
100
AcDbLine
 10
10.499998789706552
 20
8.5000000000000142
 30
0.0
 11
10.499998789706552
 21
4.5000000000000142
 31
0.0
  0
LINE
  5
42C
100
AcDbEntity
  8
0
  6
CONTINUOUS
 62
               7
100
AcDbLine
 10
11.499998789706552
 20
8.5000000000000142
 30
0.0
 11
11.499998789706552
 21
4.5000000000000142
 31
0.0
  0
LINE
  5
42D
100
AcDbEntity
  8
0
  6
CONTINUOUS
 62
               7
100
AcDbLine
 10
10.499998789706552
 20
4.5000000000000142
 30
0.0
 11
11.999998789706581
 21
2.9999999999999858
 31
0.0
  0
ARC
  5
42E
100
AcDbEntity
  8
0
  6
CONTINUOUS
 62
               7
100
AcDbCircle
 10
8.4999987897065523
 20
8.5000000000000142
 30
0.0
 40
3.0
100
AcDbArc
 50
0.0
 51
89.999999999999815
  0
LINE
  5
42F
100
AcDbEntity
  8
0
  6
CONTINUOUS
 62
               7
100
AcDbLine
 10
11.499998789706552
 20
4.5000000000000142
 30
0.0
 11
11.999998789706581
 21
4.0
 31
0.0
  0
LINE
  5
430
100
AcDbEntity
  8
0
  6
CONTINUOUS
 62
               7
100
AcDbLine
 10
11.999998789706552
 20
13.500000000000014
 30
0.0
 11
8.5
 21
13.500000000000014
 31
0.0
  0
LINE
  5
431
100
AcDbEntity
  8
0
  6
CONTINUOUS
 62
               7
100
AcDbLine
 10
10.499998789706552
 20
-1.0000000000000426
 30
0.0
 11
11.999998789706581
 21
0.4999999999999858
 31
0.0
  0
LINE
  5
432
100
AcDbEntity
  8
0
  6
CONTINUOUS
 62
               7
100
AcDbLine
 10
10.499998789706552
 20
-1.5000000000000426
 30
0.0
 11
9.6999987897065694
 21
-1.5000000000000426
 31
0.0
  0
LINE
  5
433
100
AcDbEntity
  8
0
  6
CONTINUOUS
 62
               7
100
AcDbLine
 10
10.999998789706552
 20
-2.5000000000000426
 30
0.0
 11
6.651112674901384
 21
-2.5000000000000426
 31
0.0
  0
LINE
  5
434
100
AcDbEntity
  8
0
  6
CONTINUOUS
 62
               7
100
AcDbLine
 10
10.499998789706552
 20
-1.5000000000000426
 30
0.0
 11
10.499998789706552
 21
-1.0000000000000426
 31
0.0
  0
LINE
  5
435
100
AcDbEntity
  8
0
  6
CONTINUOUS
 62
               7
100
AcDbLine
 10
9.6999987897065694
 20
-1.5000000000000426
 30
0.0
 11
9.058771696345076
 21
-0.3893620951082397
 31
0.0
  0
LINE
  5
436
100
AcDbEntity
  8
0
  6
CONTINUOUS
 62
               7
100
AcDbLine
 10
1.399998789706558
 20
-2.3983754970856381
 30
0.0
 11
1.399998789706558
 21
-5.0000000000000426
 31
0.0
  0
LINE
  5
437
100
AcDbEntity
  8
0
  6
CONTINUOUS
 62
               7
100
AcDbLine
 10
11.699998789706569
 20
-6.0000000000000426
 30
0.0
 11
2.399998789706558
 21
-6.0000000000000426
 31
0.0
  0
LINE
  5
438
100
AcDbEntity
  8
0
  6
CONTINUOUS
 62
               7
100
AcDbLine
 10
10.999998789706552
 20
-5.0000000000000426
 30
0.0
 11
2.399998789706558
 21
-5.0000000000000426
 31
0.0
  0
ARC
  5
439
100
AcDbEntity
  8
0
  6
CONTINUOUS
 62
               7
100
AcDbCircle
 10
2.399998789706558
 20
-5.0000000000000426
 30
0.0
 40
1.0
100
AcDbArc
 50
179.99999999999963
 51
269.99999999999937
  0
CIRCLE
  5
43A
100
AcDbEntity
  8
0
  6
CONTINUOUS
 62
               7
100
AcDbCircle
 10
5.533078686151498
 20
-3.5000000000000426
 30
0.0
 40
1.5
  0
LINE
  5
43B
100
AcDbEntity
  8
0
  6
CONTINUOUS
 62
               7
100
AcDbLine
 10
2.399998789706558
 20
-2.5000000000000426
 30
0.0
 11
2.399998789706558
 21
-5.0000000000000426
 31
0.0
  0
LINE
  5
43C
100
AcDbEntity
  8
0
  6
CONTINUOUS
 62
               7
100
AcDbLine
 10
4.4150446974015836
 20
-2.5000000000000426
 30
0.0
 11
2.399998789706558
 21
-2.5000000000000426
 31
0.0
  0
LINE
  5
43D
100
AcDbEntity
  8
0
  6
CONTINUOUS
 62
               7
100
AcDbLine
 10
10.999998789706552
 20
-2.5000000000000426
 30
0.0
 11
10.999998789706552
 21
-5.0000000000000426
 31
0.0
  0
LINE
  5
43E
100
AcDbEntity
  8
0
  6
CONTINUOUS
 62
               7
100
AcDbLine
 10
10.999998789706552
 20
-7.0000000000000426
 30
0.0
 11
11.999998789706552
 21
-8.0000000000000568
 31
0.0
  0
LINE
  5
43F
100
AcDbEntity
  8
0
  6
CONTINUOUS
 62
               7
100
AcDbLine
 10
10.999998789706552
 20
-6.0000000000000426
 30
0.0
 11
10.999998789706552
 21
-7.0000000000000426
 31
0.0
  0
LINE
  5
440
100
AcDbEntity
  8
0
  6
CONTINUOUS
 62
               7
100
AcDbLine
 10
8.4999987897065523
 20
-6.0000000000000426
 30
0.0
 11
8.4999987897065523
 21
-17.000000000000043
 31
0.0
  0
LINE
  5
441
100
AcDbEntity
  8
0
  6
CONTINUOUS
 62
               7
100
AcDbLine
 10
7.4999987897065523
 20
-6.0000000000000426
 30
0.0
 11
7.4999987897065523
 21
-17.000000000000043
 31
0.0
  0
ARC
  5
442
100
AcDbEntity
  8
0
  6
CONTINUOUS
 62
               7
100
AcDbCircle
 10
8.4999987897065807
 20
-17.000000000000043
 30
0.0
 40
1.0
100
AcDbArc
 50
179.99999999999963
 51
289.99999999999943
  0
LINE
  5
443
100
AcDbEntity
  8
0
  6
CONTINUOUS
 62
               7
100
AcDbLine
 10
8.4999987897065523
 20
-17.000000000000043
 30
0.0
 11
11.999998789706552
 21
-16.382855567520409
 31
0.0
  0
LINE
  5
444
100
AcDbEntity
  8
0
  6
CONTINUOUS
 62
               7
100
AcDbLine
 10
8.671008861369387
 20
-17.969846310392995
 30
0.0
 11
11.999998789706552
 21
-17.382855567520409
 31
0.0
  0
LINE
  5
445
100
AcDbEntity
  8
0
  6
CONTINUOUS
 62
               7
100
AcDbLine
 10
11.999998789706552
 20
-21.471019057874642
 30
0.0
 11
5.8041151462954872
 21
-21.471019057874642
 31
0.0
  0
LINE
  5
446
100
AcDbEntity
  8
0
  6
CONTINUOUS
 62
               7
100
AcDbLine
 10
6.5
 20
-19.676326980708453
 30
0.0
 11
11.999998789706552
 21
-18.706528800219274
 31
0.0
  0
LINE
  5
447
100
AcDbEntity
  8
0
  6
CONTINUOUS
 62
               7
100
AcDbLine
 10
6.5
 20
-19.676326980708453
 30
0.0
 11
5.4871372124185882
 21
-17.921997171521596
 31
0.0
  0
LINE
  5
448
100
AcDbEntity
  8
0
  6
CONTINUOUS
 62
               7
100
AcDbLine
 10
4.374436474448828
 20
-17.45289899305638
 30
0.0
 11
1.7533234555212402
 21
-18.120080032345285
 31
0.0
  0
ARC
  5
449
100
AcDbEntity
  8
0
  6
CONTINUOUS
 62
               7
100
AcDbCircle
 10
4.6211118086341116
 20
-18.421997171521596
 30
0.0
 40
1.0
100
AcDbArc
 50
29.999999999999755
 51
104.28086241077182
  0
ARC
  5
44A
100
AcDbEntity
  8
0
  6
CONTINUOUS
 62
               7
100
AcDbCircle
 10
1.9999987897065523
 20
-19.089178210810488
 30
0.0
 40
1.0
100
AcDbArc
 50
104.2808624107719
 51
179.99999999999963
  0
LINE
  5
44B
100
AcDbEntity
  8
0
  6
CONTINUOUS
 62
               7
100
AcDbLine
 10
4.9380897425110675
 20
-20.971019057874642
 30
0.0
 11
4.1337883712261601
 21
-19.577928218211881
 31
0.0
  0
ARC
  5
44C
100
AcDbEntity
  8
0
  6
CONTINUOUS
 62
               7
100
AcDbCircle
 10
5.8041151462954872
 20
-20.471019057874642
 30
0.0
 40
1.0
100
AcDbArc
 50
209.99999999999949
 51
269.99999999999937
  0
LINE
  5
44D
100
AcDbEntity
  8
0
  6
CONTINUOUS
 62
               7
100
AcDbLine
 10
4.1337883712261601
 20
-19.577928218211881
 30
0.0
 11
1.9507797837254373
 21
-20.133593665549682
 31
0.0
  0
LINE
  5
44E
100
AcDbEntity
  8
0
  6
CONTINUOUS
 62
               7
100
AcDbLine
 10
1.9507797837254373
 20
-20.133593665549682
 30
0.0
 11
1.4999987897065523
 21
-21.153178879886312
 31
0.0
  0
LINE
  5
44F
100
AcDbEntity
  8
0
  6
CONTINUOUS
 62
               7
100
AcDbLine
 10
0.9999987897065523
 20
-19.089178210810488
 30
0.0
 11
1.4999987897065523
 21
-21.153178879886312
 31
0.0
  0
LINE
  5
450
100
AcDbEntity
  8
0
  6
CONTINUOUS
 62
               7
100
AcDbLine
 10
10.999998789706552
 20
27.750000000000014
 30
0.0
 11
10.999998789706552
 21
23.750000000000014
 31
0.0
  0
ARC
  5
451
100
AcDbEntity
  8
0
  6
CONTINUOUS
 62
               7
100
AcDbCircle
 10
11.999998789706552
 20
27.750000000000014
 30
0.0
 40
1.0
100
AcDbArc
 50
89.999999999999815
 51
179.99999999999963
  0
ARC
  5
452
100
AcDbEntity
  8
0
  6
CONTINUOUS
 62
               7
100
AcDbCircle
 10
11.999998789706552
 20
23.750000000000014
 30
0.0
 40
1.0
100
AcDbArc
 50
179.99999999999963
 51
269.99999999999937
  0
ARC
  5
453
100
AcDbEntity
  8
0
  6
CONTINUOUS
 62
               7
100
AcDbCircle
 10
11.999998789706552
 20
-36.249999999999986
 30
0.0
 40
1.0
100
AcDbArc
 50
179.99999999999963
 51
269.99999999999937
  0
ARC
  5
454
100
AcDbEntity
  8
0
  6
CONTINUOUS
 62
               7
100
AcDbCircle
 10
11.999998789706552
 20
-32.249999999999986
 30
0.0
 40
1.0
100
AcDbArc
 50
89.999999999999815
 51
179.99999999999963
  0
LINE
  5
455
100
AcDbEntity
  8
0
  6
CONTINUOUS
 62
               7
100
AcDbLine
 10
10.999998789706552
 20
-36.249999999999986
 30
0.0
 11
10.999998789706552
 21
-32.249999999999986
 31
0.0
  0
ARC
  5
456
100
AcDbEntity
  8
0
  6
CONTINUOUS
 62
               7
100
AcDbCircle
 10
6.6078703674535575
 20
-6.6489380319616913
 30
0.0
 40
6.7222918884259286
100
AcDbArc
 50
68.617455641597417
 51
140.77935183950024
  0
LINE
  5
457
100
AcDbEntity
  8
0
  6
CONTINUOUS
 62
               7
100
AcDbLine
 10
7.5
 20
10.500000000000014
 30
0.0
 11
8.4999987897065523
 21
10.500000000000014
 31
0.0
  0
ARC
  5
458
100
AcDbEntity
  8
0
  6
CONTINUOUS
 62
               7
100
AcDbCircle
 10
8.4999987897065523
 20
8.5000000000000142
 30
0.0
 40
2.0
100
AcDbArc
 50
0.0
 51
89.999999999999815
  0
LINE
  5
459
100
AcDbEntity
  8
0
  6
CONTINUOUS
 62
               7
100
AcDbLine
 10
7.5
 20
10.500000000000014
 30
0.0
 11
7.5
 21
14.500000000000014
 31
0.0
  0
LINE
  5
45A
100
AcDbEntity
  8
0
  6
CONTINUOUS
 62
               7
100
AcDbLine
 10
8.5
 20
11.500000000000014
 30
0.0
 11
8.5
 21
13.500000000000014
 31
0.0
  0
LINE
  5
45B
100
AcDbEntity
  8
0
  6
CONTINUOUS
 62
               7
100
AcDbLine
 10
8.5
 20
11.500000000000014
 30
0.0
 11
9.1999987897065694
 21
11.500000000000014
 31
0.0
  0
LINE
  5
45C
100
AcDbEntity
  8
0
  6
CONTINUOUS
 62
               7
100
AcDbLine
 10
6.5
 20
15.500000000000014
 30
0.0
 11
6.5
 21
14.500000000000014
 31
0.0
  0
ARC
  5
45D
100
AcDbEntity
  8
0
  6
CONTINUOUS
 62
               7
100
AcDbCircle
 10
2.5999987897065466
 20
16.983046970815323
 30
0.0
 40
2.0
100
AcDbArc
 50
179.99999999999963
 51
252.83177949503448
  0
LINE
  5
45E
100
AcDbEntity
  8
0
  6
CONTINUOUS
 62
               7
100
AcDbLine
 10
14.599998789706547
 20
-67.249999999999986
 30
0.0
 11
14.599998789706547
 21
-69.249999999999986
 31
0.0
  0
LINE
  5
45F
100
AcDbEntity
  8
0
  6
CONTINUOUS
 62
               7
100
AcDbLine
 10
37.599998789706547
 20
58.750000000000014
 30
0.0
 11
37.599998789706547
 21
47.459617900859556
 31
0.0
  0
LINE
  5
460
100
AcDbEntity
  8
0
  6
CONTINUOUS
 62
               7
100
AcDbLine
 10
37.599998789706547
 20
-67.249999999999986
 30
0.0
 11
14.599998789706547
 21
-67.249999999999986
 31
0.0
  0
LINE
  5
461
100
AcDbEntity
  8
0
  6
CONTINUOUS
 62
               7
100
AcDbLine
 10
37.599998789706547
 20
58.750000000000014
 30
0.0
 11
14.599998789706547
 21
58.750000000000014
 31
0.0
  0
ARC
  5
462
100
AcDbEntity
  8
0
  6
CONTINUOUS
 62
               7
100
AcDbCircle
 10
39.099998789706547
 20
-68.749999999999986
 30
0.0
 40
0.5
100
AcDbArc
 50
269.99999999999937
 51
0.0
  0
ARC
  5
463
100
AcDbEntity
  8
0
  6
CONTINUOUS
 62
               7
100
AcDbCircle
 10
39.099998789706547
 20
60.250000000000014
 30
0.0
 40
0.5
100
AcDbArc
 50
0.0
 51
89.999999999999815
  0
LINE
  5
464
100
AcDbEntity
  8
0
  6
CONTINUOUS
 62
               7
100
AcDbLine
 10
14.599998789706547
 20
60.750000000000014
 30
0.0
 11
14.599998789706547
 21
58.750000000000014
 31
0.0
  0
LINE
  5
465
100
AcDbEntity
  8
0
  6
CONTINUOUS
 62
               7
100
AcDbLine
 10
39.599998789706547
 20
60.250000000000014
 30
0.0
 11
39.599998789706547
 21
46.498079439321074
 31
0.0
  0
LINE
  5
466
100
AcDbEntity
  8
0
  6
CONTINUOUS
 62
               7
100
AcDbLine
 10
39.099998789706547
 20
-69.249999999999986
 30
0.0
 11
14.599998789706547
 21
-69.249999999999986
 31
0.0
  0
LINE
  5
467
100
AcDbEntity
  8
0
  6
CONTINUOUS
 62
               7
100
AcDbLine
 10
39.099998789706547
 20
60.750000000000014
 30
0.0
 11
14.599998789706547
 21
60.750000000000014
 31
0.0
  0
LINE
  5
468
100
AcDbEntity
  8
0
  6
CONTINUOUS
 62
               7
100
AcDbLine
 10
37.599998789706547
 20
5.8403848389257007
 30
0.0
 11
37.599998789706547
 21
-1.140384253728854
 31
0.0
  0
LINE
  5
469
100
AcDbEntity
  8
0
  6
CONTINUOUS
 62
               7
100
AcDbLine
 10
39.599998789706547
 20
6.8019233004641677
 30
0.0
 11
39.599998789706547
 21
-2.101922715267321
 31
0.0
  0
LINE
  5
46A
100
AcDbEntity
  8
0
  6
CONTINUOUS
 62
               7
100
AcDbLine
 10
37.599998789706547
 20
-42.759617315662652
 30
0.0
 11
37.599998789706547
 21
-47.550001919622943
 31
0.0
  0
LINE
  5
46B
100
AcDbEntity
  8
0
  6
CONTINUOUS
 62
               7
100
AcDbLine
 10
39.599998789706547
 20
-41.798078854124178
 30
0.0
 11
39.599998789706547
 21
-47.550001919622943
 31
0.0
  0
LINE
  5
46C
100
AcDbEntity
  8
0
  6
CONTINUOUS
 62
               7
100
AcDbLine
 10
37.599998789706547
 20
-57.55000236295389
 30
0.0
 11
37.599998789706547
 21
-67.249999999999986
 31
0.0
  0
LINE
  5
46D
100
AcDbEntity
  8
0
  6
CONTINUOUS
 62
               7
100
AcDbLine
 10
39.599998789706547
 20
-57.55000236295389
 30
0.0
 11
39.599998789706547
 21
-68.749999999999986
 31
0.0
  0
LINE
  5
46E
100
AcDbEntity
  8
0
  6
CONTINUOUS
 62
               2
100
AcDbLine
 10
20.329498606601078
 20
58.750000000000014
 30
0.0
 11
20.329498606601078
 21
58.17184415304196
 31
0.0
  0
LINE
  5
46F
100
AcDbEntity
  8
0
  6
CONTINUOUS
 62
               7
100
AcDbLine
 10
20.599998789706547
 20
58.750000000000014
 30
0.0
 11
20.599998789706547
 21
58.34807621135333
 31
0.0
  0
LINE
  5
470
100
AcDbEntity
  8
0
  6
CONTINUOUS
 62
               2
100
AcDbLine
 10
17.870498972812015
 20
58.750000000000014
 30
0.0
 11
17.870498972812015
 21
54.860723359419481
 31
0.0
  0
LINE
  5
471
100
AcDbEntity
  8
0
  6
CONTINUOUS
 62
               7
100
AcDbLine
 10
17.599998789706547
 20
58.750000000000014
 30
0.0
 11
17.599998789706547
 21
55.373320053068156
 31
0.0
  0
LINE
  5
472
100
AcDbEntity
  8
0
  6
CONTINUOUS
 62
               7
100
AcDbLine
 10
20.599998789706547
 20
-67.249999999999986
 30
0.0
 11
20.599998789706547
 21
-66.848076211353302
 31
0.0
  0
LINE
  5
473
100
AcDbEntity
  8
0
  6
CONTINUOUS
 62
               2
100
AcDbLine
 10
20.329498606601078
 20
-67.249999999999986
 30
0.0
 11
20.329498606601078
 21
-66.671844153041931
 31
0.0
  0
LINE
  5
474
100
AcDbEntity
  8
0
  6
CONTINUOUS
 62
               2
100
AcDbLine
 10
17.870498972812015
 20
-67.249999999999986
 30
0.0
 11
17.870498972812015
 21
-63.360723359419453
 31
0.0
  0
LINE
  5
475
100
AcDbEntity
  8
0
  6
CONTINUOUS
 62
               7
100
AcDbLine
 10
17.599998789706547
 20
-67.249999999999986
 30
0.0
 11
17.599998789706547
 21
-63.873320053068127
 31
0.0
  0
ENDBLK
  5
476
100
AcDbEntity
  8
0
100
AcDbBlockEnd
  0
BLOCK
  5
477
100
AcDbEntity
  8
0
100
AcDbBlockBegin
  2
NCT-MV-CUB8-3
 70
               0
 10
0.0
 20
0.0
 30
0.0
  3
NCT-MV-CUB8-3
  1

  0
LINE
  5
478
100
AcDbEntity
  8
0
  6
CONTINUOUS
 62
               7
100
AcDbLine
 10
60.703273201392591
 20
17.933273553059976
 30
0.0
 11
63.036725870938113
 21
20.26672602591016
 31
0.0
  0
LINE
  5
479
100
AcDbEntity
  8
0
  6
CONTINUOUS
 62
               7
100
AcDbLine
 10
60.703273307190813
 20
20.266726552738263
 30
0.0
 11
63.036725780040996
 21
17.93327388319274
 31
0.0
  0
CIRCLE
  5
47A
100
AcDbEntity
  8
0
  6
CONTINUOUS
 62
               7
100
AcDbCircle
 10
61.870000000000005
 20
19.099999999999994
 30
0.0
 40
3.1499999999999999
  0
LINE
  5
47B
100
AcDbEntity
  8
0
  6
CONTINUOUS
 62
               7
100
AcDbLine
 10
38.036726692809196
 20
20.266726552738263
 30
0.0
 11
35.703274219959013
 21
17.93327388319274
 31
0.0
  0
LINE
  5
47C
100
AcDbEntity
  8
0
  6
CONTINUOUS
 62
               7
100
AcDbLine
 10
38.036726798607418
 20
17.933273553059976
 30
0.0
 11
35.703274129061896
 21
20.26672602591016
 31
0.0
  0
CIRCLE
  5
47D
100
AcDbEntity
  8
0
  6
CONTINUOUS
 62
               7
100
AcDbCircle
 10
36.870000000000005
 20
19.099999999999994
 30
0.0
 40
3.1499999999999999
  0
LINE
  5
47E
100
AcDbEntity
  8
0
  6
CONTINUOUS
 62
               7
100
AcDbLine
 10
71.484311980395773
 20
31.600000199498908
 30
0.0
 11
70.984311958229227
 21
31.600000199498908
 31
0.0
  0
LINE
  5
47F
100
AcDbEntity
  8
0
  6
CONTINUOUS
 62
               7
100
AcDbLine
 10
70.984311958229227
 20
31.600000199498908
 30
0.0
 11
70.984311958229227
 21
31.100000177332362
 31
0.0
  0
LINE
  5
480
100
AcDbEntity
  8
0
  6
CONTINUOUS
 62
               7
100
AcDbLine
 10
66.98431178089686
 20
32.100000221665454
 30
0.0
 11
69.984311913896136
 21
32.100000221665454
 31
0.0
  0
LINE
  5
481
100
AcDbEntity
  8
0
  6
CONTINUOUS
 62
               7
100
AcDbLine
 10
69.984311913896136
 20
31.100000177332362
 30
0.0
 11
69.984311913896136
 21
32.100000221665454
 31
0.0
  0
LINE
  5
482
100
AcDbEntity
  8
0
  6
CONTINUOUS
 62
               7
100
AcDbLine
 10
66.98431178089686
 20
31.100000177332362
 30
0.0
 11
66.98431178089686
 21
32.100000221665454
 31
0.0
  0
LINE
  5
483
100
AcDbEntity
  8
0
  6
CONTINUOUS
 62
               7
100
AcDbLine
 10
65.484311714397222
 20
31.600000199498908
 30
0.0
 11
65.984311736563768
 21
31.600000199498908
 31
0.0
  0
LINE
  5
484
100
AcDbEntity
  8
0
  6
CONTINUOUS
 62
               7
100
AcDbLine
 10
65.984311736563768
 20
31.600000199498908
 30
0.0
 11
65.984311736563768
 21
31.100000177332362
 31
0.0
  0
LINE
  5
485
100
AcDbEntity
  8
0
  6
CONTINUOUS
 62
               7
100
AcDbLine
 10
65.484311714397222
 20
31.100000177332362
 30
0.0
 11
71.484311980395773
 21
31.100000177332362
 31
0.0
  0
LINE
  5
486
100
AcDbEntity
  8
0
  6
CONTINUOUS
 62
               7
100
AcDbLine
 10
77.240001235563341
 20
54.400001210293453
 30
0.0
 11
85.740001612394622
 21
54.400001210293453
 31
0.0
  0
LINE
  5
487
100
AcDbEntity
  8
0
  6
CONTINUOUS
 62
               7
100
AcDbLine
 10
77.240001235563341
 20
54.400001210293453
 30
0.0
 11
77.240001235563341
 21
28.599999999999994
 31
0.0
  0
LINE
  5
488
100
AcDbEntity
  8
0
  6
CONTINUOUS
 62
               7
100
AcDbLine
 10
85.740001612394622
 20
54.400001210293453
 30
0.0
 11
85.740001612394622
 21
28.599999999999994
 31
0.0
  0
LINE
  5
489
100
AcDbEntity
  8
0
  6
CONTINUOUS
 62
               7
100
AcDbLine
 10
71.484311980395773
 20
31.600000199498908
 30
0.0
 11
71.484311980395773
 21
28.599999999999994
 31
0.0
  0
LINE
  5
48A
100
AcDbEntity
  8
0
  6
CONTINUOUS
 62
               7
100
AcDbLine
 10
12.999998387605388
 20
54.400001210293453
 30
0.0
 11
21.499998764436668
 21
54.400001210293453
 31
0.0
  0
LINE
  5
48B
100
AcDbEntity
  8
0
  6
CONTINUOUS
 62
               7
100
AcDbLine
 10
14.375835448600469
 20
40.600000598496734
 30
0.0
 11
23.519998853989478
 21
40.600000598496734
 31
0.0
  0
LINE
  5
48C
100
AcDbEntity
  8
0
  6
CONTINUOUS
 62
               7
100
AcDbLine
 10
14.347294447335116
 20
36.558753419335801
 30
0.0
 11
13.854890425505346
 21
36.645577423184932
 31
0.0
  0
LINE
  5
48D
100
AcDbEntity
  8
0
  6
CONTINUOUS
 62
               7
100
AcDbLine
 10
13.854890425505346
 20
36.645577423184932
 30
0.0
 11
14.028539433203719
 21
37.630384466844504
 31
0.0
  0
LINE
  5
48E
100
AcDbEntity
  8
0
  6
CONTINUOUS
 62
               7
100
AcDbLine
 10
14.028539433203719
 20
37.630384466844504
 30
0.0
 11
14.520943455033489
 21
37.543560462995316
 31
0.0
  0
LINE
  5
48F
100
AcDbEntity
  8
0
  6
CONTINUOUS
 62
               7
100
AcDbLine
 10
14.520943455033489
 20
37.543560462995316
 30
0.0
 11
14.86823947043024
 21
39.513176550314512
 31
0.0
  0
LINE
  5
490
100
AcDbEntity
  8
0
  6
CONTINUOUS
 62
               7
100
AcDbLine
 10
14.86823947043024
 20
39.513176550314512
 30
0.0
 11
14.375835448600469
 21
39.600000554163671
 31
0.0
  0
LINE
  5
491
100
AcDbEntity
  8
0
  6
CONTINUOUS
 62
               7
100
AcDbLine
 10
14.375835448600469
 20
39.600000554163671
 30
0.0
 11
14.375835448600469
 21
40.600000598496734
 31
0.0
  0
LINE
  5
492
100
AcDbEntity
  8
0
  6
CONTINUOUS
 62
               7
100
AcDbLine
 10
25.519998942655661
 20
38.600000509830579
 30
0.0
 11
23.519998853989478
 21
40.600000598496734
 31
0.0
  0
LINE
  5
493
100
AcDbEntity
  8
0
  6
CONTINUOUS
 62
               7
100
AcDbLine
 10
13.999998431938366
 20
34.589137332016605
 30
0.0
 11
14.347294447335116
 21
36.558753419335801
 31
0.0
  0
LINE
  5
494
100
AcDbEntity
  8
0
  6
CONTINUOUS
 62
               7
100
AcDbLine
 10
12.999998387605388
 20
34.589137332016605
 30
0.0
 11
13.999998431938366
 21
34.589137332016605
 31
0.0
  0
LINE
  5
495
100
AcDbEntity
  8
0
  6
CONTINUOUS
 62
               7
100
AcDbLine
 10
21.499998764436668
 20
54.400001210293453
 30
0.0
 11
21.499998764436668
 21
40.600000598496734
 31
0.0
  0
LINE
  5
496
100
AcDbEntity
  8
0
  6
CONTINUOUS
 62
               7
100
AcDbLine
 10
12.999998387605388
 20
54.400001210293453
 30
0.0
 11
12.999998387605388
 21
28.599999999999994
 31
0.0
  0
LINE
  5
497
100
AcDbEntity
  8
0
  6
CONTINUOUS
 62
               7
100
AcDbLine
 10
25.519998942655661
 20
38.600000509830579
 30
0.0
 11
25.519998942655661
 21
28.599999999999994
 31
0.0
  0
LINE
  5
498
100
AcDbEntity
  8
0
  6
CONTINUOUS
 62
               7
100
AcDbLine
 10
11.0
 20
28.599999999999994
 30
0.0
 11
87.740001701060805
 21
28.599999999999994
 31
0.0
  0
LINE
  5
499
100
AcDbEntity
  8
0
  6
CONTINUOUS
 62
               7
100
AcDbLine
 10
10.0
 20
27.599999999999994
 30
0.0
 11
10.0
 21
20.099999999999994
 31
0.0
  0
LINE
  5
49A
100
AcDbEntity
  8
0
  6
CONTINUOUS
 62
               7
100
AcDbLine
 10
88.740000000000009
 20
27.599999999999994
 30
0.0
 11
88.740000000000009
 21
20.099999999999994
 31
0.0
  0
LINE
  5
49B
100
AcDbEntity
  8
0
  6
CONTINUOUS
 62
               7
100
AcDbLine
 10
11.0
 20
19.099999999999994
 30
0.0
 11
33.719999999999999
 21
19.099999999999994
 31
0.0
  0
ARC
  5
49C
100
AcDbEntity
  8
0
  6
CONTINUOUS
 62
               7
100
AcDbCircle
 10
11.0
 20
27.599999999999994
 30
0.0
 40
1.0
100
AcDbArc
 50
89.999999999999815
 51
179.99999999999963
  0
ARC
  5
49D
100
AcDbEntity
  8
0
  6
CONTINUOUS
 62
               7
100
AcDbCircle
 10
87.740000000000009
 20
27.599999999999994
 30
0.0
 40
1.0
100
AcDbArc
 50
0.0
 51
89.999999999999815
  0
ARC
  5
49E
100
AcDbEntity
  8
0
  6
CONTINUOUS
 62
               7
100
AcDbCircle
 10
11.0
 20
20.099999999999994
 30
0.0
 40
1.0
100
AcDbArc
 50
179.99999999999963
 51
269.99999999999937
  0
ARC
  5
49F
100
AcDbEntity
  8
0
  6
CONTINUOUS
 62
               7
100
AcDbCircle
 10
87.740000000000009
 20
20.099999999999994
 30
0.0
 40
1.0
100
AcDbArc
 50
269.99999999999937
 51
0.0
  0
LINE
  5
4A0
100
AcDbEntity
  8
0
  6
CONTINUOUS
 62
               7
100
AcDbLine
 10
11.0
 20
18.099999999999994
 30
0.0
 11
33.908262308510103
 21
18.099999999999994
 31
0.0
  0
LINE
  5
4A1
100
AcDbEntity
  8
0
  6
CONTINUOUS
 62
               7
100
AcDbLine
 10
11.870000000000005
 20
9.9999999999999858
 30
0.0
 11
86.870000000000005
 21
9.9999999999999858
 31
0.0
  0
LINE
  5
4A2
100
AcDbEntity
  8
0
  6
CONTINUOUS
 62
               7
100
AcDbLine
 10
10.870000000000005
 20
11.999999999999986
 30
0.0
 11
87.740000000000009
 21
11.999999999999986
 31
0.0
  0
LINE
  5
4A3
100
AcDbEntity
  8
0
  6
CONTINUOUS
 62
               7
100
AcDbLine
 10
87.870000000000005
 20
19.099999999999994
 30
0.0
 11
87.870000000000005
 21
10.999999999999986
 31
0.0
  0
LINE
  5
4A4
100
AcDbEntity
  8
0
  6
CONTINUOUS
 62
               7
100
AcDbLine
 10
10.870000000000005
 20
19.099999999999994
 30
0.0
 11
10.870000000000005
 21
10.999999999999986
 31
0.0
  0
ARC
  5
4A5
100
AcDbEntity
  8
0
  6
CONTINUOUS
 62
               7
100
AcDbCircle
 10
11.870000000000005
 20
10.999999999999986
 30
0.0
 40
1.0
100
AcDbArc
 50
179.99999999999963
 51
269.99999999999937
  0
ARC
  5
4A6
100
AcDbEntity
  8
0
  6
CONTINUOUS
 62
               7
100
AcDbCircle
 10
86.870000000000005
 20
10.999999999999986
 30
0.0
 40
1.0
100
AcDbArc
 50
269.99999999999937
 51
0.0
  0
LINE
  5
4A7
100
AcDbEntity
  8
0
  6
PHANTOM
 62
               2
100
AcDbLine
 10
0.0
 20
0.0
 30
0.0
 11
98.740000000000009
 21
0.0
 31
0.0
  0
LINE
  5
4A8
100
AcDbEntity
  8
0
  6
PHANTOM
 62
               2
100
AcDbLine
 10
0.0
 20
6.5
 30
0.0
 11
12.870000000000005
 21
6.5
 31
0.0
  0
LINE
  5
4A9
100
AcDbEntity
  8
0
  6
CONTINUOUS
 62
               7
100
AcDbLine
 10
12.870000000000005
 20
9.9999999999999858
 30
0.0
 11
12.870000000000005
 21
1.0
 31
0.0
  0
LINE
  5
4AA
100
AcDbEntity
  8
0
  6
CONTINUOUS
 62
               7
100
AcDbLine
 10
20.370000000000005
 20
9.9999999999999858
 30
0.0
 11
20.370000000000005
 21
1.0
 31
0.0
  0
LINE
  5
4AB
100
AcDbEntity
  8
0
  6
CONTINUOUS
 62
               7
100
AcDbLine
 10
12.870000000000005
 20
1.0
 30
0.0
 11
20.370000000000005
 21
1.0
 31
0.0
  0
LINE
  5
4AC
100
AcDbEntity
  8
0
  6
CONTINUOUS
 62
               7
100
AcDbLine
 10
12.870000000000005
 20
1.5
 30
0.0
 11
20.370000000000005
 21
1.5
 31
0.0
  0
LINE
  5
4AD
100
AcDbEntity
  8
0
  6
CONTINUOUS
 62
               7
100
AcDbLine
 10
85.870000000000005
 20
9.9999999999999858
 30
0.0
 11
85.870000000000005
 21
1.0
 31
0.0
  0
LINE
  5
4AE
100
AcDbEntity
  8
0
  6
CONTINUOUS
 62
               7
100
AcDbLine
 10
78.370000000000005
 20
9.9999999999999858
 30
0.0
 11
78.370000000000005
 21
1.0
 31
0.0
  0
LINE
  5
4AF
100
AcDbEntity
  8
0
  6
CONTINUOUS
 62
               7
100
AcDbLine
 10
85.870000000000005
 20
1.5
 30
0.0
 11
78.370000000000005
 21
1.5
 31
0.0
  0
LINE
  5
4B0
100
AcDbEntity
  8
0
  6
CONTINUOUS
 62
               7
100
AcDbLine
 10
85.870000000000005
 20
1.0
 30
0.0
 11
78.370000000000005
 21
1.0
 31
0.0
  0
LINE
  5
4B1
100
AcDbEntity
  8
0
  6
PHANTOM
 62
               2
100
AcDbLine
 10
0.0
 20
7.5
 30
0.0
 11
0.0
 21
0.0
 31
0.0
  0
LINE
  5
4B2
100
AcDbEntity
  8
0
  6
PHANTOM
 62
               2
100
AcDbLine
 10
98.740000000000009
 20
7.5000000000000142
 30
0.0
 11
98.740000000000009
 21
0.0
 31
0.0
  0
LINE
  5
4B3
100
AcDbEntity
  8
0
  6
PHANTOM
 62
               2
100
AcDbLine
 10
0.0
 20
7.5
 30
0.0
 11
12.870000000000005
 21
7.5
 31
0.0
  0
LINE
  5
4B4
100
AcDbEntity
  8
0
  6
PHANTOM
 62
               2
100
AcDbLine
 10
20.370000000000005
 20
6.5
 30
0.0
 11
78.370000000000005
 21
6.5
 31
0.0
  0
LINE
  5
4B5
100
AcDbEntity
  8
0
  6
PHANTOM
 62
               2
100
AcDbLine
 10
85.870000000000005
 20
7.5
 30
0.0
 11
98.740000000000009
 21
7.5
 31
0.0
  0
LINE
  5
4B6
100
AcDbEntity
  8
0
  6
PHANTOM
 62
               2
100
AcDbLine
 10
85.870000000000005
 20
6.5
 30
0.0
 11
98.740000000000009
 21
6.5
 31
0.0
  0
LINE
  5
4B7
100
AcDbEntity
  8
0
  6
PHANTOM
 62
               2
100
AcDbLine
 10
20.370000000000005
 20
7.5
 30
0.0
 11
78.370000000000005
 21
7.5
 31
0.0
  0
LINE
  5
4B8
100
AcDbEntity
  8
0
  6
CONTINUOUS
 62
               7
100
AcDbLine
 10
39.795961235412307
 20
19.099999999999994
 30
0.0
 11
58.719999999999999
 21
19.099999999999994
 31
0.0
  0
LINE
  5
4B9
100
AcDbEntity
  8
0
  6
CONTINUOUS
 62
               7
100
AcDbLine
 10
39.857055406248776
 20
18.099999999999994
 30
0.0
 11
58.882944593751233
 21
18.099999999999994
 31
0.0
  0
LINE
  5
4BA
100
AcDbEntity
  8
0
  6
CONTINUOUS
 62
               7
100
AcDbLine
 10
65.02000000000001
 20
19.099999999999994
 30
0.0
 11
87.740000000000009
 21
19.099999999999994
 31
0.0
  0
LINE
  5
4BB
100
AcDbEntity
  8
0
  6
CONTINUOUS
 62
               7
100
AcDbLine
 10
64.857055406248776
 20
18.099999999999994
 30
0.0
 11
87.740000000000009
 21
18.099999999999994
 31
0.0
  0
LINE
  5
4BC
100
AcDbEntity
  8
0
  6
CONTINUOUS
 62
               7
100
AcDbLine
 10
16.0
 20
28.599999999999994
 30
0.0
 11
16.0
 21
9.9999999999999858
 31
0.0
  0
LINE
  5
4BD
100
AcDbEntity
  8
0
  6
CONTINUOUS
 62
               7
100
AcDbLine
 10
82.740000000000009
 20
28.599999999999994
 30
0.0
 11
82.740000000000009
 21
9.9999999999999858
 31
0.0
  0
LINE
  5
4BE
100
AcDbEntity
  8
0
  6
CONTINUOUS
 62
               7
100
AcDbLine
 10
65.484311714397222
 20
31.600000199498908
 30
0.0
 11
65.484311714397222
 21
28.599999999999994
 31
0.0
  0
LINE
  5
4BF
100
AcDbEntity
  8
0
  6
CONTINUOUS
 62
               7
100
AcDbLine
 10
74.370000000000005
 20
28.599999999999994
 30
0.0
 11
74.370000000000005
 21
9.9999999999999858
 31
0.0
  0
LINE
  5
4C0
100
AcDbEntity
  8
0
  6
CONTINUOUS
 62
               7
100
AcDbLine
 10
49.370000000000005
 20
28.599999999999994
 30
0.0
 11
49.370000000000005
 21
9.9999999999999858
 31
0.0
  0
LINE
  5
4C1
100
AcDbEntity
  8
0
  6
CONTINUOUS
 62
               7
100
AcDbLine
 10
24.370000000000005
 20
28.599999999999994
 30
0.0
 11
24.370000000000005
 21
9.9999999999999858
 31
0.0
  0
LINE
  5
4C2
100
AcDbEntity
  8
0
  6
CONTINUOUS
 62
               7
100
AcDbLine
 10
16.0
 20
23.599999999999994
 30
0.0
 11
82.740000000000009
 21
23.599999999999994
 31
0.0
  0
LINE
  5
4C3
100
AcDbEntity
  8
0
  6
PHANTOM
 62
               2
100
AcDbLine
 10
0.0
 20
1.0
 30
0.0
 11
98.740000000000009
 21
1.0
 31
0.0
  0
LINE
  5
4C4
100
AcDbEntity
  8
0
  6
CONTINUOUS
 62
               7
100
AcDbLine
 10
12.870000000000005
 20
4.1337895815196077
 30
0.0
 11
20.370000000000005
 21
4.1337895815196077
 31
0.0
  0
LINE
  5
4C5
100
AcDbEntity
  8
0
  6
CONTINUOUS
 62
               7
100
AcDbLine
 10
12.870000000000005
 20
5.2267660873993123
 30
0.0
 11
20.370000000000005
 21
5.2267660873993123
 31
0.0
  0
LINE
  5
4C6
100
AcDbEntity
  8
0
  6
CONTINUOUS
 62
               7
100
AcDbLine
 10
12.870000000000005
 20
1.9507809940188707
 30
0.0
 11
20.370000000000005
 21
1.9507809940188707
 31
0.0
  0
LINE
  5
4C7
100
AcDbEntity
  8
0
  6
CONTINUOUS
 62
               7
100
AcDbLine
 10
78.370000000000005
 20
4.1337895815196077
 30
0.0
 11
85.870000000000005
 21
4.1337895815196077
 31
0.0
  0
LINE
  5
4C8
100
AcDbEntity
  8
0
  6
CONTINUOUS
 62
               7
100
AcDbLine
 10
78.370000000000005
 20
5.2267660873993123
 30
0.0
 11
85.870000000000005
 21
5.2267660873993123
 31
0.0
  0
LINE
  5
4C9
100
AcDbEntity
  8
0
  6
CONTINUOUS
 62
               7
100
AcDbLine
 10
78.370000000000005
 20
1.9507809940188707
 30
0.0
 11
85.870000000000005
 21
1.9507809940188707
 31
0.0
  0
LINE
  5
4CA
100
AcDbEntity
  8
0
  6
DASHED
 62
               2
100
AcDbLine
 10
89.170000000000016
 20
37.599999999999994
 30
0.0
 11
9.1700000000000159
 21
37.599999999999994
 31
0.0
  0
LINE
  5
4CB
100
AcDbEntity
  8
0
  6
CONTINUOUS
 62
               7
100
AcDbLine
 10
89.170000000000016
 20
14.599999999999994
 30
0.0
 11
9.1700000000000159
 21
14.599999999999994
 31
0.0
  0
LINE
  5
4CC
100
AcDbEntity
  8
0
  6
CONTINUOUS
 62
               7
100
AcDbLine
 10
89.170000000000016
 20
39.599999999999994
 30
0.0
 11
9.1700000000000159
 21
39.599999999999994
 31
0.0
  0
LINE
  5
4CD
100
AcDbEntity
  8
0
  6
CONTINUOUS
 62
               7
100
AcDbLine
 10
9.1700000000000159
 20
39.599999999999994
 30
0.0
 11
9.1700000000000159
 21
14.599999999999994
 31
0.0
  0
LINE
  5
4CE
100
AcDbEntity
  8
0
  6
CONTINUOUS
 62
               7
100
AcDbLine
 10
89.170000000000016
 20
39.599999999999994
 30
0.0
 11
89.170000000000016
 21
14.599999999999994
 31
0.0
  0
ENDBLK
  5
4CF
100
AcDbEntity
  8
0
100
AcDbBlockEnd
  0
ENDSEC
  0
SECTION
  2
ENTITIES
  0
INSERT
  5
4D0
100
AcDbEntity
  8
0
  6
ByBlock
100
AcDbBlockReference
  2
NCT-MV-CUB8-1
 10
6.9854508230576755
 20
40.640174491107288
 30
0.0
  0
INSERT
  5
4D1
100
AcDbEntity
  8
0
  6
ByBlock
100
AcDbBlockReference
  2
NCT-MV-CUB8-2
 10
-99.314553214357261
 20
40.640174491107288
 30
0.0
  0
INSERT
  5
4D2
100
AcDbEntity
  8
0
  6
ByBlock
100
AcDbBlockReference
  2
NCT-MV-CUB8-3
 10
6.9854508230576755
 20
-100.50983042099951
 30
0.0
  0
MTEXT
  5
4D3
100
AcDbEntity
  8
0
  6
CONTINUOUS
 62
               7
100
AcDbMText
 10
115.52671992926689
 20
-126.0
 30
0.0
 40
6.3000001907348633
 41
0.0
 71
               4
 72
               1
  1
\W1.121;\A1;KOGANEI CORP.
  0
MTEXT
  5
4D4
100
AcDbEntity
  8
0
  6
CONTINUOUS
 62
               7
100
AcDbMText
 10
135.2836095956161
 20
125.10000610351562
 30
0.0
 40
4.5
 41
0.0
 71
               4
 72
               1
  1
\W1.311;\A1;Ver. 1.0
  0
LINE
  5
4D5
100
AcDbEntity
  8
0
  6
CONTINUOUS
 62
               7
100
AcDbLine
 10
-194.25
 20
117.60000610351562
 30
0.0
 11
-54.75
 21
117.60000610351562
 31
0.0
  0
LINE
  5
4D6
100
AcDbEntity
  8
0
  6
CONTINUOUS
 62
               7
100
AcDbLine
 10
109.80000305175781
 20
117.60000610351562
 30
0.0
 11
194.80000305175781
 21
117.60000610351562
 31
0.0
  0
LINE
  5
4D7
100
AcDbEntity
  8
0
  6
CONTINUOUS
 62
               7
100
AcDbLine
 10
109.80000305175781
 20
132.60000610351562
 30
0.0
 11
109.80000305175781
 21
117.60000610351562
 31
0.0
  0
LINE
  5
4D8
100
AcDbEntity
  8
0
  6
CONTINUOUS
 62
               7
100
AcDbLine
 10
109.80000305175781
 20
-118.5
 30
0.0
 11
194.80000305175781
 21
-118.5
 31
0.0
  0
LINE
  5
4D9
100
AcDbEntity
  8
0
  6
CONTINUOUS
 62
               7
100
AcDbLine
 10
109.80000305175781
 20
-118.5
 30
0.0
 11
109.80000305175781
 21
-133.5
 31
0.0
  0
LINE
  5
4DA
100
AcDbEntity
  8
0
  6
CONTINUOUS
 62
               7
100
AcDbLine
 10
-194.25
 20
-133.5
 30
0.0
 11
194.80000305175781
 21
-133.5
 31
0.0
  0
LINE
  5
4DB
100
AcDbEntity
  8
0
  6
CONTINUOUS
 62
               7
100
AcDbLine
 10
-194.25
 20
132.60000610351562
 30
0.0
 11
-194.25
 21
-133.5
 31
0.0
  0
LINE
  5
4DC
100
AcDbEntity
  8
0
  6
CONTINUOUS
 62
               7
100
AcDbLine
 10
194.80000305175781
 20
132.60000610351562
 30
0.0
 11
194.80000305175781
 21
-133.5
 31
0.0
  0
LINE
  5
4DD
100
AcDbEntity
  8
0
  6
CONTINUOUS
 62
               7
100
AcDbLine
 10
-194.25
 20
132.60000610351562
 30
0.0
 11
194.80000305175781
 21
132.60000610351562
 31
0.0
  0
MTEXT
  5
4DE
100
AcDbEntity
  8
0
  6
CONTINUOUS
 62
               7
100
AcDbMText
 10
-185.73026320157567
 20
107.60000610351562
 30
0.0
 40
4.5
 41
0.0
 71
               4
 72
               1
  1
\W1.026;\A1;MODEL:MV-CUB8
  0
MTEXT
  5
4DF
100
AcDbEntity
  8
0
  6
CONTINUOUS
 62
               1
100
AcDbMText
 10
-191.22945209561959
 20
125.10000610351562
 30
0.0
 40
4.5
 41
0.0
 71
               4
 72
               1
  1
\W1.027;\A1;NON-CONTACT TRANSFER COMPONENT
  0
LINE
  5
4E0
100
AcDbEntity
  8
0
  6
CONTINUOUS
 62
               7
100
AcDbLine
 10
-54.75
 20
132.60000610351562
 30
0.0
 11
-54.75
 21
117.60000610351562
 31
0.0
  0
ENDSEC
  0
SECTION
  2
OBJECTS
  0
DICTIONARY
  5
19
100
AcDbDictionary
  3
ACAD_GROUP
350
1A
  3
ACAD_MLINESTYLE
350
1B
  0
DICTIONARY
  5
1A
102
{ACAD_REACTORS
330
19
102
}
100
AcDbDictionary
  0
DICTIONARY
  5
1B
102
{ACAD_REACTORS
330
19
102
}
100
AcDbDictionary
  3
STANDARD
350
1C
  0
MLINESTYLE
  5
1C
102
{ACAD_REACTORS
330
1B
102
}
100
AcDbMlineStyle
  2
Standard
 70
               0
  3

 62
               0
 51
90.0
 52
90.0
 71
               2
 49
0.5
 62
             256
  6
ByLayer
 49
-0.5
 62
             256
  6
ByLayer
  0
ENDSEC
  0
EOF
