  0
SECTION
  2
HEADER
  0
ENDSEC
  0
SECTION
  2
TABLES
  0
TABLE
  2
LTYPE
 70
     4
  0
LTYPE
  2
CONTINUOUS
 70
    64
  3
Solid line
 72
    65
 73
     0
 40
0.000000
  0
LTYPE
  2
DASHED
 70
    64
  3
__ __ __ __ __ __ __ __ __ __ __ __ __ __ __
 72
    65
 73
     2
 40
3.500000
 49
2.000000
 49
-1.500000
  0
LTYPE
  2
CENTER
 70
    64
  3
____ _ ____ _ ____ _ ____ _ ____ _ ____ _ ____
 72
    65
 73
     4
 40
17.500000
 49
13.000000
 49
-1.500000
 49
1.500000
 49
-1.500000
  0
LTYPE
  2
PHANTOM
 70
    64
  3
_____ _ _ _____ _ _ _____ _ _ _____ _ _ ____  
 72
    65
 73
     6
 40
15.500000
 49
8.000000
 49
-1.500000
 49
1.500000
 49
-1.500000
 49
1.500000
 49
-1.500000
  0
ENDTAB
  0
TABLE
  2
LAYER
 70
     1
  0
LAYER
  2
0
 70
     0
 62
     7
  6
CONTINUOUS
  0
ENDTAB
  0
TABLE
  2
STYLE
 70
     1
  0
STYLE
  2
STANDARD
 70
     0
 40
0.000000
 41
1.000000
 50
0.000000
 71
     0
 42
0.200000
  3
txt
  4
BIGFONT
  0
ENDTAB
  0
TABLE
  2
VIEW
 70
     0
  0
ENDTAB
  0
ENDSEC
  0
SECTION
  2
BLOCKS
  0
ENDSEC
  0
SECTION
  2
ENTITIES
  0
LINE
  8
0
  6
CONTINUOUS
 62
3
 10
218.328995
 20
-225.955994
 11
370.873993
 21
-225.955994
  0
LINE
  8
0
  6
CONTINUOUS
 62
3
 10
-218.328995
 20
225.955994
 11
-218.328995
 21
254.557999
  0
LINE
  8
0
  6
CONTINUOUS
 62
3
 10
-370.873993
 20
225.955994
 11
-218.328995
 21
225.955994
  0
LINE
  8
0
  6
CONTINUOUS
 62
3
 10
-370.873993
 20
254.557999
 11
370.873993
 21
254.557999
  0
LINE
  8
0
  6
CONTINUOUS
 62
3
 10
-370.873993
 20
-254.557999
 11
370.873993
 21
-254.557999
  0
LINE
  8
0
  6
CONTINUOUS
 62
3
 10
370.873993
 20
254.557999
 11
370.873993
 21
-254.557999
  0
LINE
  8
0
  6
CONTINUOUS
 62
3
 10
-370.873993
 20
-254.557999
 11
-370.873993
 21
254.557999
  0
LINE
  8
0
  6
CONTINUOUS
 62
3
 10
218.328995
 20
-225.955994
 11
218.328995
 21
-254.557999
  0
LINE
  8
0
  6
CONTINUOUS
 62
3
 10
218.328995
 20
254.557999
 11
218.328995
 21
225.955994
  0
LINE
  8
0
  6
CONTINUOUS
 62
3
 10
218.328995
 20
225.955994
 11
370.873993
 21
225.955994
  0
LINE
  8
0
  6
CONTINUOUS
 62
5
 10
258.381989
 20
-232.834000
 11
258.381989
 21
-236.151993
  0
LINE
  8
0
  6
CONTINUOUS
 62
5
 10
258.381989
 20
-236.151993
 11
270.824005
 21
-236.151993
  0
LINE
  8
0
  6
CONTINUOUS
 62
5
 10
258.381989
 20
-249.145996
 11
275.247009
 21
-249.145996
  0
LINE
  8
0
  6
CONTINUOUS
 62
5
 10
258.381989
 20
-245.828995
 11
270.824005
 21
-245.828995
  0
LINE
  8
0
  6
CONTINUOUS
 62
5
 10
258.381989
 20
-232.834000
 11
273.035004
 21
-232.834000
  0
LINE
  8
0
  6
CONTINUOUS
 62
5
 10
270.824005
 20
-236.151993
 11
270.824005
 21
-245.828995
  0
LINE
  8
0
  6
CONTINUOUS
 62
5
 10
275.247009
 20
-235.046005
 11
275.247009
 21
-249.145996
  0
LINE
  8
0
  6
CONTINUOUS
 62
5
 10
258.381989
 20
-245.828995
 11
258.381989
 21
-249.145996
  0
LINE
  8
0
  6
CONTINUOUS
 62
5
 10
293.494995
 20
-236.151993
 11
293.494995
 21
-246.934998
  0
LINE
  8
0
  6
CONTINUOUS
 62
5
 10
277.735992
 20
-232.834000
 11
277.735992
 21
-236.151993
  0
LINE
  8
0
  6
CONTINUOUS
 62
5
 10
293.937988
 20
-232.585007
 11
295.514008
 21
-232.585007
  0
LINE
  8
0
  6
CONTINUOUS
 62
5
 10
293.937988
 20
-230.373001
 11
295.514008
 21
-230.373001
  0
LINE
  8
0
  6
CONTINUOUS
 62
5
 10
295.514008
 20
-230.373001
 11
295.514008
 21
-232.585007
  0
LINE
  8
0
  6
CONTINUOUS
 62
5
 10
293.937988
 20
-230.373001
 11
293.937988
 21
-232.585007
  0
LINE
  8
0
  6
CONTINUOUS
 62
5
 10
293.108002
 20
-230.373001
 11
293.108002
 21
-232.585007
  0
LINE
  8
0
  6
CONTINUOUS
 62
5
 10
282.765991
 20
-230.373001
 11
286.200989
 21
-230.373001
  0
LINE
  8
0
  6
CONTINUOUS
 62
5
 10
285.540985
 20
-232.832993
 11
286.200989
 21
-230.373001
  0
LINE
  8
0
  6
CONTINUOUS
 62
5
 10
282.106995
 20
-232.834000
 11
282.765991
 21
-230.373001
  0
LINE
  8
0
  6
CONTINUOUS
 62
5
 10
285.541992
 20
-232.834000
 11
290.178009
 21
-232.834000
  0
LINE
  8
0
  6
CONTINUOUS
 62
5
 10
284.653015
 20
-236.151993
 11
289.071991
 21
-236.151993
  0
LINE
  8
0
  6
CONTINUOUS
 62
5
 10
286.643005
 20
-249.145996
 11
291.283997
 21
-249.145996
  0
LINE
  8
0
  6
CONTINUOUS
 62
5
 10
285.753998
 20
-245.828995
 11
286.643005
 21
-249.145996
  0
LINE
  8
0
  6
CONTINUOUS
 62
5
 10
285.753998
 20
-245.828995
 11
289.071991
 21
-245.828995
  0
LINE
  8
0
  6
CONTINUOUS
 62
5
 10
281.170990
 20
-249.147003
 11
284.653015
 21
-236.151993
  0
LINE
  8
0
  6
CONTINUOUS
 62
5
 10
277.735992
 20
-236.151993
 11
281.217987
 21
-236.151993
  0
LINE
  8
0
  6
CONTINUOUS
 62
5
 10
277.734985
 20
-249.145996
 11
281.217010
 21
-236.151001
  0
LINE
  8
0
  6
CONTINUOUS
 62
5
 10
277.735992
 20
-249.145996
 11
281.170990
 21
-249.145996
  0
LINE
  8
0
  6
CONTINUOUS
 62
5
 10
277.735992
 20
-232.834000
 11
282.106995
 21
-232.834000
  0
LINE
  8
0
  6
CONTINUOUS
 62
5
 10
289.071991
 20
-236.151993
 11
289.071991
 21
-245.828995
  0
LINE
  8
0
  6
CONTINUOUS
 62
5
 10
291.532013
 20
-230.373001
 11
293.108002
 21
-230.373001
  0
LINE
  8
0
  6
CONTINUOUS
 62
5
 10
291.532013
 20
-232.585007
 11
293.108002
 21
-232.585007
  0
LINE
  8
0
  6
CONTINUOUS
 62
5
 10
291.532013
 20
-230.373001
 11
291.532013
 21
-232.585007
  0
LINE
  8
0
  6
CONTINUOUS
 62
5
 10
301.514008
 20
-230.373001
 11
305.937012
 21
-230.373001
  0
LINE
  8
0
  6
CONTINUOUS
 62
5
 10
308.342010
 20
-240.195007
 11
311.295990
 21
-238.817993
  0
LINE
  8
0
  6
CONTINUOUS
 62
5
 10
305.937012
 20
-242.733994
 11
305.937012
 21
-249.145996
  0
LINE
  8
0
  6
CONTINUOUS
 62
5
 10
301.514008
 20
-243.378998
 11
301.514008
 21
-249.145996
  0
LINE
  8
0
  6
CONTINUOUS
 62
5
 10
305.937012
 20
-232.834000
 11
310.360992
 21
-232.834000
  0
LINE
  8
0
  6
CONTINUOUS
 62
5
 10
305.937012
 20
-230.373001
 11
305.937012
 21
-232.834000
  0
LINE
  8
0
  6
CONTINUOUS
 62
5
 10
301.514008
 20
-230.373001
 11
301.514008
 21
-232.834000
  0
LINE
  8
0
  6
CONTINUOUS
 62
5
 10
312.572998
 20
-235.046005
 11
312.572998
 21
-236.813004
  0
LINE
  8
0
  6
CONTINUOUS
 62
5
 10
308.342010
 20
-240.195007
 11
312.572998
 21
-242.167999
  0
LINE
  8
0
  6
CONTINUOUS
 62
5
 10
305.937012
 20
-242.733994
 11
312.572998
 21
-245.828995
  0
LINE
  8
0
  6
CONTINUOUS
 62
5
 10
296.260010
 20
-242.167999
 11
296.260010
 21
-245.828995
  0
LINE
  8
0
  6
CONTINUOUS
 62
5
 10
296.260986
 20
-242.167999
 11
309.162994
 21
-236.151993
  0
LINE
  8
0
  6
CONTINUOUS
 62
5
 10
296.260010
 20
-245.828995
 11
301.514008
 21
-243.378998
  0
LINE
  8
0
  6
CONTINUOUS
 62
5
 10
312.572998
 20
-242.167999
 11
312.572998
 21
-245.828995
  0
LINE
  8
0
  6
CONTINUOUS
 62
5
 10
296.260010
 20
-232.834000
 11
296.260010
 21
-236.151993
  0
LINE
  8
0
  6
CONTINUOUS
 62
5
 10
301.514008
 20
-249.145996
 11
305.937012
 21
-249.145996
  0
LINE
  8
0
  6
CONTINUOUS
 62
5
 10
296.260010
 20
-236.151993
 11
309.161987
 21
-236.151993
  0
LINE
  8
0
  6
CONTINUOUS
 62
5
 10
296.260010
 20
-232.834000
 11
301.514008
 21
-232.834000
  0
LINE
  8
0
  6
CONTINUOUS
 62
5
 10
327.503998
 20
-236.404999
 11
328.730011
 21
-235.917007
  0
LINE
  8
0
  6
CONTINUOUS
 62
5
 10
327.502991
 20
-236.404007
 11
327.502991
 21
-249.145996
  0
LINE
  8
0
  6
CONTINUOUS
 62
5
 10
323.079010
 20
-249.145996
 11
327.502991
 21
-249.145996
  0
LINE
  8
0
  6
CONTINUOUS
 62
5
 10
313.954987
 20
-241.792999
 11
323.079010
 21
-238.164001
  0
LINE
  8
0
  6
CONTINUOUS
 62
5
 10
313.955994
 20
-238.222000
 11
326.806000
 21
-233.110992
  0
LINE
  8
0
  6
CONTINUOUS
 62
5
 10
323.079010
 20
-238.164001
 11
323.079010
 21
-249.145996
  0
LINE
  8
0
  6
CONTINUOUS
 62
5
 10
327.502991
 20
-231.367996
 11
327.502991
 21
-232.082993
  0
LINE
  8
0
  6
CONTINUOUS
 62
5
 10
330.821014
 20
-231.367996
 11
330.821014
 21
-232.834000
  0
LINE
  8
0
  6
CONTINUOUS
 62
5
 10
313.954987
 20
-238.222000
 11
313.954987
 21
-241.792007
  0
LINE
  8
0
  6
CONTINUOUS
 62
5
 10
327.502991
 20
-231.367996
 11
330.821014
 21
-231.367996
  0
LINE
  8
0
  6
CENTER
 62
7
 10
193.000000
 20
-120.000000
 11
267.000000
 21
-120.000000
  0
LINE
  8
0
  6
CENTER
 62
7
 10
230.000000
 20
-83.000099
 11
230.000000
 21
-162.000000
  0
LINE
  8
0
  6
CONTINUOUS
 62
7
 10
205.000000
 20
-157.000000
 11
217.000000
 21
-157.000000
  0
LINE
  8
0
  6
CONTINUOUS
 62
7
 10
205.000000
 20
-97.000099
 11
217.000000
 21
-97.000099
  0
LINE
  8
0
  6
CONTINUOUS
 62
7
 10
198.000000
 20
-88.000099
 11
262.000000
 21
-88.000099
  0
LINE
  8
0
  6
CONTINUOUS
 62
7
 10
262.000000
 20
-88.000099
 11
262.000000
 21
-131.000000
  0
LINE
  8
0
  6
CONTINUOUS
 62
7
 10
198.000000
 20
-88.000099
 11
198.000000
 21
-131.000000
  0
LINE
  8
0
  6
CONTINUOUS
 62
7
 10
205.000000
 20
-97.000099
 11
205.000000
 21
-145.000000
  0
LINE
  8
0
  6
CONTINUOUS
 62
7
 10
255.000000
 20
-97.000099
 11
255.000000
 21
-145.000000
  0
LINE
  8
0
  6
CONTINUOUS
 62
7
 10
205.000000
 20
-145.000000
 11
206.000000
 21
-145.000000
  0
LINE
  8
0
  6
CONTINUOUS
 62
7
 10
205.000000
 20
-151.000000
 11
206.000000
 21
-151.000000
  0
LINE
  8
0
  6
CONTINUOUS
 62
7
 10
254.000000
 20
-145.000000
 11
255.000000
 21
-145.000000
  0
LINE
  8
0
  6
CONTINUOUS
 62
7
 10
254.000000
 20
-151.000000
 11
255.000000
 21
-151.000000
  0
LINE
  8
0
  6
CONTINUOUS
 62
7
 10
205.000000
 20
-151.000000
 11
205.000000
 21
-157.000000
  0
LINE
  8
0
  6
CONTINUOUS
 62
7
 10
255.000000
 20
-151.000000
 11
255.000000
 21
-157.000000
  0
LINE
  8
0
  6
CONTINUOUS
 62
7
 10
254.000000
 20
-145.000000
 11
254.000000
 21
-151.000000
  0
LINE
  8
0
  6
CONTINUOUS
 62
7
 10
206.000000
 20
-145.000000
 11
206.000000
 21
-151.000000
  0
LINE
  8
0
  6
CONTINUOUS
 62
7
 10
243.000000
 20
-97.000099
 11
243.000000
 21
-97.500099
  0
LINE
  8
0
  6
CONTINUOUS
 62
7
 10
217.000000
 20
-97.000099
 11
217.000000
 21
-97.500099
  0
LINE
  8
0
  6
CONTINUOUS
 62
7
 10
217.000000
 20
-156.500000
 11
243.000000
 21
-156.500000
  0
LINE
  8
0
  6
CONTINUOUS
 62
7
 10
217.000000
 20
-97.500099
 11
243.000000
 21
-97.500099
  0
LINE
  8
0
  6
CONTINUOUS
 62
7
 10
217.000000
 20
-156.500000
 11
217.000000
 21
-157.000000
  0
LINE
  8
0
  6
CONTINUOUS
 62
7
 10
243.000000
 20
-156.500000
 11
243.000000
 21
-157.000000
  0
LINE
  8
0
  6
CONTINUOUS
 62
7
 10
243.000000
 20
-97.000099
 11
255.000000
 21
-97.000099
  0
LINE
  8
0
  6
CONTINUOUS
 62
7
 10
243.000000
 20
-157.000000
 11
255.000000
 21
-157.000000
  0
LINE
  8
0
  6
CENTER
 62
7
 10
248.000000
 20
-100.000000
 11
248.000000
 21
-112.000000
  0
LINE
  8
0
  6
CENTER
 62
7
 10
212.000000
 20
-128.000000
 11
212.000000
 21
-140.000000
  0
LINE
  8
0
  6
CENTER
 62
7
 10
206.000000
 20
-134.000000
 11
218.000000
 21
-134.000000
  0
LINE
  8
0
  6
CENTER
 62
7
 10
242.000000
 20
-106.000000
 11
254.000000
 21
-106.000000
  0
LINE
  8
0
  6
CONTINUOUS
 62
7
 10
198.000000
 20
-131.000000
 11
199.949997
 21
-131.000000
  0
LINE
  8
0
  6
CONTINUOUS
 62
7
 10
260.049988
 20
-131.000000
 11
262.000000
 21
-131.000000
  0
LINE
  8
0
  6
CONTINUOUS
 62
7
 10
-270.000000
 20
-145.000000
 11
-250.000000
 21
-145.000000
  0
LINE
  8
0
  6
CONTINUOUS
 62
7
 10
-270.000000
 20
-151.000000
 11
-250.000000
 21
-151.000000
  0
LINE
  8
0
  6
CENTER
 62
7
 10
-267.500000
 20
-145.500000
 11
-267.500000
 21
-150.500000
  0
LINE
  8
0
  6
CENTER
 62
7
 10
-252.500000
 20
-145.500000
 11
-252.500000
 21
-150.500000
  0
LINE
  8
0
  6
CENTER
 62
7
 10
-255.000000
 20
-148.000000
 11
-250.000000
 21
-148.000000
  0
LINE
  8
0
  6
CENTER
 62
7
 10
-270.000000
 20
-148.000000
 11
-265.000000
 21
-148.000000
  0
LINE
  8
0
  6
CONTINUOUS
 62
7
 10
81.999901
 20
-145.000000
 11
61.999901
 21
-145.000000
  0
LINE
  8
0
  6
CONTINUOUS
 62
7
 10
81.999901
 20
-151.000000
 11
61.999901
 21
-151.000000
  0
LINE
  8
0
  6
CENTER
 62
7
 10
79.499901
 20
-145.500000
 11
79.499901
 21
-150.500000
  0
LINE
  8
0
  6
CENTER
 62
7
 10
64.499901
 20
-145.500000
 11
64.499901
 21
-150.500000
  0
LINE
  8
0
  6
CENTER
 62
7
 10
66.999901
 20
-148.000000
 11
61.999901
 21
-148.000000
  0
LINE
  8
0
  6
CENTER
 62
7
 10
81.999901
 20
-148.000000
 11
76.999901
 21
-148.000000
  0
LINE
  8
0
  6
CENTER
 62
7
 10
-275.000000
 20
-120.000000
 11
86.999901
 21
-120.000000
  0
LINE
  8
0
  6
CONTINUOUS
 62
7
 10
-270.000000
 20
-157.000000
 11
-250.000000
 21
-157.000000
  0
LINE
  8
0
  6
CONTINUOUS
 62
7
 10
-250.000000
 20
-97.000099
 11
-250.000000
 21
-157.000000
  0
LINE
  8
0
  6
CONTINUOUS
 62
7
 10
-245.000000
 20
-152.000000
 11
-143.000000
 21
-152.000000
  0
LINE
  8
0
  6
CONTINUOUS
 62
7
 10
-245.000000
 20
-88.000099
 11
-245.000000
 21
-152.000000
  0
LINE
  8
0
  6
CONTINUOUS
 62
7
 10
-143.000000
 20
-88.000099
 11
-143.000000
 21
-152.000000
  0
LINE
  8
0
  6
CONTINUOUS
 62
7
 10
-250.000000
 20
-99.185097
 11
-249.000000
 21
-99.185097
  0
LINE
  8
0
  6
CONTINUOUS
 62
7
 10
-250.000000
 20
-140.815002
 11
-249.000000
 21
-140.815002
  0
LINE
  8
0
  6
CONTINUOUS
 62
7
 10
-143.000000
 20
-99.185097
 11
56.999901
 21
-99.185097
  0
LINE
  8
0
  6
CONTINUOUS
 62
7
 10
-143.000000
 20
-140.815002
 11
56.999901
 21
-140.815002
  0
LINE
  8
0
  6
CONTINUOUS
 62
7
 10
-249.000000
 20
-99.185097
 11
-249.000000
 21
-140.815002
  0
LINE
  8
0
  6
CONTINUOUS
 62
7
 10
56.999901
 20
-99.185097
 11
56.999901
 21
-140.815002
  0
LINE
  8
0
  6
CONTINUOUS
 62
7
 10
61.999901
 20
-99.185097
 11
60.999901
 21
-99.185097
  0
LINE
  8
0
  6
CONTINUOUS
 62
7
 10
61.999901
 20
-140.815002
 11
60.999901
 21
-140.815002
  0
LINE
  8
0
  6
CONTINUOUS
 62
7
 10
60.999901
 20
-99.185097
 11
60.999901
 21
-140.815002
  0
LINE
  8
0
  6
CONTINUOUS
 62
7
 10
-245.000000
 20
-88.000099
 11
-143.000000
 21
-88.000099
  0
LINE
  8
0
  6
CONTINUOUS
 62
7
 10
-245.000000
 20
-131.000000
 11
-143.000000
 21
-131.000000
  0
LINE
  8
0
  6
CONTINUOUS
 62
7
 10
-270.000000
 20
-97.000099
 11
-270.000000
 21
-157.000000
  0
LINE
  8
0
  6
CONTINUOUS
 62
7
 10
-270.000000
 20
-97.000099
 11
-250.000000
 21
-97.000099
  0
LINE
  8
0
  6
CENTER
 62
7
 10
-260.000000
 20
-110.000000
 11
-260.000000
 21
-130.000000
  0
LINE
  8
0
  6
CONTINUOUS
 62
7
 10
61.999901
 20
-97.000099
 11
61.999901
 21
-157.000000
  0
LINE
  8
0
  6
CONTINUOUS
 62
7
 10
81.999901
 20
-97.000099
 11
61.999901
 21
-97.000099
  0
LINE
  8
0
  6
CONTINUOUS
 62
7
 10
81.999901
 20
-97.000099
 11
81.999901
 21
-157.000000
  0
LINE
  8
0
  6
CONTINUOUS
 62
7
 10
81.999901
 20
-157.000000
 11
61.999901
 21
-157.000000
  0
LINE
  8
0
  6
CENTER
 62
7
 10
71.999901
 20
-110.000000
 11
71.999901
 21
-130.000000
  0
LINE
  8
0
  6
CONTINUOUS
 62
7
 10
-270.000000
 20
85.000000
 11
-270.000000
 21
35.000000
  0
LINE
  8
0
  6
CENTER
 62
7
 10
-275.000000
 20
60.000000
 11
86.999802
 21
60.000000
  0
LINE
  8
0
  6
CONTINUOUS
 62
7
 10
-250.000000
 20
85.000000
 11
-250.000000
 21
35.000000
  0
LINE
  8
0
  6
CENTER
 62
7
 10
-260.000000
 20
86.300003
 11
-260.000000
 21
30.000000
  0
LINE
  8
0
  6
CONTINUOUS
 62
7
 10
-245.000000
 20
92.000000
 11
-245.000000
 21
28.000000
  0
LINE
  8
0
  6
CONTINUOUS
 62
7
 10
-143.000000
 20
92.000000
 11
-143.000000
 21
28.000000
  0
LINE
  8
0
  6
CONTINUOUS
 62
7
 10
-250.000000
 20
80.815002
 11
-249.000000
 21
80.815002
  0
LINE
  8
0
  6
CONTINUOUS
 62
7
 10
-250.000000
 20
39.185001
 11
-249.000000
 21
39.185001
  0
LINE
  8
0
  6
CONTINUOUS
 62
7
 10
-143.000000
 20
80.815002
 11
56.999802
 21
80.815002
  0
LINE
  8
0
  6
CONTINUOUS
 62
7
 10
-143.000000
 20
39.185001
 11
56.999802
 21
39.185001
  0
LINE
  8
0
  6
CONTINUOUS
 62
7
 10
-249.000000
 20
80.815002
 11
-249.000000
 21
39.185001
  0
LINE
  8
0
  6
CONTINUOUS
 62
7
 10
56.999802
 20
80.815002
 11
56.999802
 21
39.185001
  0
LINE
  8
0
  6
CONTINUOUS
 62
7
 10
61.999802
 20
80.815002
 11
60.999802
 21
80.815002
  0
LINE
  8
0
  6
CONTINUOUS
 62
7
 10
61.999802
 20
39.185001
 11
60.999802
 21
39.185001
  0
LINE
  8
0
  6
CONTINUOUS
 62
7
 10
60.999802
 20
80.815002
 11
60.999802
 21
39.185001
  0
LINE
  8
0
  6
CONTINUOUS
 62
7
 10
-245.000000
 20
92.000000
 11
-143.000000
 21
92.000000
  0
LINE
  8
0
  6
CONTINUOUS
 62
7
 10
-245.000000
 20
28.000000
 11
-143.000000
 21
28.000000
  0
LINE
  8
0
  6
CONTINUOUS
 62
7
 10
-270.000000
 20
35.000000
 11
-250.000000
 21
35.000000
  0
LINE
  8
0
  6
CONTINUOUS
 62
7
 10
-270.000000
 20
85.000000
 11
-250.000000
 21
85.000000
  0
LINE
  8
0
  6
CONTINUOUS
 62
7
 10
-270.000000
 20
73.000000
 11
-250.000000
 21
73.000000
  0
LINE
  8
0
  6
CONTINUOUS
 62
7
 10
-270.000000
 20
47.000000
 11
-250.000000
 21
47.000000
  0
LINE
  8
0
  6
CENTER
 62
7
 10
-266.500000
 20
78.000000
 11
-253.500000
 21
78.000000
  0
LINE
  8
0
  6
CONTINUOUS
 62
7
 10
81.999802
 20
85.000000
 11
81.999802
 21
35.000000
  0
LINE
  8
0
  6
CENTER
 62
7
 10
71.999802
 20
86.300003
 11
71.999802
 21
30.000000
  0
LINE
  8
0
  6
CONTINUOUS
 62
7
 10
81.999802
 20
35.000000
 11
61.999802
 21
35.000000
  0
LINE
  8
0
  6
CONTINUOUS
 62
7
 10
81.999802
 20
85.000000
 11
61.999802
 21
85.000000
  0
LINE
  8
0
  6
CONTINUOUS
 62
7
 10
81.999802
 20
73.000000
 11
61.999802
 21
73.000000
  0
LINE
  8
0
  6
CONTINUOUS
 62
7
 10
81.999802
 20
47.000000
 11
61.999802
 21
47.000000
  0
LINE
  8
0
  6
CENTER
 62
7
 10
78.499802
 20
78.000000
 11
65.499802
 21
78.000000
  0
LINE
  8
0
  6
CONTINUOUS
 62
7
 10
61.999802
 20
85.000000
 11
61.999802
 21
35.000000
  0
LINE
  8
0
  6
CENTER
 62
7
 10
-194.000000
 20
97.000000
 11
-194.000000
 21
23.000000
  0
LINE
  8
0
  6
CENTER
 62
7
 10
-232.500000
 20
85.000000
 11
-220.500000
 21
85.000000
  0
LINE
  8
0
  6
CENTER
 62
7
 10
-226.500000
 20
91.000000
 11
-226.500000
 21
79.000000
  0
LINE
  8
0
  6
CENTER
 62
7
 10
-232.500000
 20
35.000000
 11
-220.500000
 21
35.000000
  0
LINE
  8
0
  6
CENTER
 62
7
 10
-226.500000
 20
29.000000
 11
-226.500000
 21
41.000000
  0
LINE
  8
0
  6
CENTER
 62
7
 10
-155.500000
 20
85.000000
 11
-167.500000
 21
85.000000
  0
LINE
  8
0
  6
CENTER
 62
7
 10
-161.500000
 20
91.000000
 11
-161.500000
 21
79.000000
  0
LINE
  8
0
  6
CENTER
 62
7
 10
-155.500000
 20
35.000000
 11
-167.500000
 21
35.000000
  0
LINE
  8
0
  6
CENTER
 62
7
 10
-161.500000
 20
29.000000
 11
-161.500000
 21
41.000000
  0
ARC
  8
0
  6
CONTINUOUS
 62
5
 10
273.035004
 20
-235.046005
 40
2.211880
 50
0.000000
 51
90.000000
  0
ARC
  8
0
  6
CONTINUOUS
 62
5
 10
291.283997
 20
-246.934998
 40
2.211900
 50
270.000000
 51
0.000000
  0
ARC
  8
0
  6
CONTINUOUS
 62
5
 10
290.178009
 20
-236.151993
 40
3.317840
 50
0.000000
 51
90.000000
  0
ARC
  8
0
  6
CONTINUOUS
 62
5
 10
310.360992
 20
-236.813004
 40
2.211890
 50
295.000000
 51
0.000000
  0
ARC
  8
0
  6
CONTINUOUS
 62
5
 10
310.360992
 20
-235.046005
 40
2.211880
 50
0.000000
 51
90.000000
  0
ARC
  8
0
  6
CONTINUOUS
 62
5
 10
327.502991
 20
-232.834000
 40
3.317840
 50
291.687988
 51
0.000000
  0
ARC
  8
0
  6
CONTINUOUS
 62
5
 10
326.397003
 20
-232.082993
 40
1.105950
 50
291.688995
 51
0.000000
  0
ARC
  8
0
  6
DASHED
 62
7
 10
230.000000
 20
-120.000000
 40
32.000000
 50
218.625000
 51
321.375000
  0
CIRCLE
  8
0
  6
CONTINUOUS
 62
7
 10
248.000000
 20
-106.000000
 40
2.458500
  0
ARC
  8
0
  6
CONTINUOUS
 62
7
 10
230.000000
 20
-120.000000
 40
32.000000
 50
200.104996
 51
218.625000
  0
ARC
  8
0
  6
CONTINUOUS
 62
7
 10
230.000000
 20
-120.000000
 40
32.000000
 50
321.375000
 51
339.894012
  0
CIRCLE
  8
0
  6
CONTINUOUS
 62
7
 10
248.000000
 20
-106.000000
 40
3.000000
  0
CIRCLE
  8
0
  6
CONTINUOUS
 62
7
 10
212.000000
 20
-134.000000
 40
3.000000
  0
CIRCLE
  8
0
  6
CONTINUOUS
 62
7
 10
212.000000
 20
-134.000000
 40
2.458500
  0
ARC
  8
0
  6
CONTINUOUS
 62
7
 10
58.999901
 20
-140.815002
 40
2.000000
 50
180.000000
 51
0.000000
  0
ARC
  8
0
  6
CONTINUOUS
 62
7
 10
58.999901
 20
-99.185097
 40
2.000000
 50
0.000000
 51
180.000000
  0
CIRCLE
  8
0
  6
CONTINUOUS
 62
7
 10
64.499901
 20
-148.000000
 40
0.783500
  0
ARC
  8
0
  6
CONTINUOUS
 62
7
 10
-247.000000
 20
-140.815002
 40
2.000000
 50
180.000000
 51
0.000000
  0
ARC
  8
0
  6
CONTINUOUS
 62
7
 10
-247.000000
 20
-99.185097
 40
2.000000
 50
0.000000
 51
180.000000
  0
CIRCLE
  8
0
  6
CONTINUOUS
 62
7
 10
-260.000000
 20
-120.000000
 40
6.578500
  0
CIRCLE
  8
0
  6
CONTINUOUS
 62
7
 10
-260.000000
 20
-120.000000
 40
5.722500
  0
CIRCLE
  8
0
  6
CONTINUOUS
 62
7
 10
-267.500000
 20
-148.000000
 40
1.000000
  0
CIRCLE
  8
0
  6
CONTINUOUS
 62
7
 10
-252.500000
 20
-148.000000
 40
1.000000
  0
CIRCLE
  8
0
  6
CONTINUOUS
 62
7
 10
-267.500000
 20
-148.000000
 40
0.783500
  0
CIRCLE
  8
0
  6
CONTINUOUS
 62
7
 10
-252.500000
 20
-148.000000
 40
0.783500
  0
CIRCLE
  8
0
  6
CONTINUOUS
 62
7
 10
71.999901
 20
-120.000000
 40
6.578500
  0
CIRCLE
  8
0
  6
CONTINUOUS
 62
7
 10
71.999901
 20
-120.000000
 40
5.722500
  0
CIRCLE
  8
0
  6
CONTINUOUS
 62
7
 10
79.499901
 20
-148.000000
 40
1.000000
  0
CIRCLE
  8
0
  6
CONTINUOUS
 62
7
 10
64.499901
 20
-148.000000
 40
1.000000
  0
CIRCLE
  8
0
  6
CONTINUOUS
 62
7
 10
79.499901
 20
-148.000000
 40
0.783500
  0
CIRCLE
  8
0
  6
CONTINUOUS
 62
7
 10
-161.500000
 20
35.000000
 40
3.000000
  0
CIRCLE
  8
0
  6
CONTINUOUS
 62
7
 10
-226.500000
 20
35.000000
 40
3.000000
  0
CIRCLE
  8
0
  6
CONTINUOUS
 62
7
 10
-161.500000
 20
85.000000
 40
2.458500
  0
CIRCLE
  8
0
  6
CONTINUOUS
 62
7
 10
-161.500000
 20
85.000000
 40
3.000000
  0
CIRCLE
  8
0
  6
CONTINUOUS
 62
7
 10
-161.500000
 20
35.000000
 40
2.458500
  0
ARC
  8
0
  6
CONTINUOUS
 62
7
 10
-247.000000
 20
39.185001
 40
2.000000
 50
180.000000
 51
0.000000
  0
ARC
  8
0
  6
CONTINUOUS
 62
7
 10
-247.000000
 20
80.815002
 40
2.000000
 50
0.000000
 51
180.000000
  0
ARC
  8
0
  6
CONTINUOUS
 62
7
 10
58.999802
 20
80.815002
 40
2.000000
 50
0.000000
 51
180.000000
  0
ARC
  8
0
  6
CONTINUOUS
 62
7
 10
58.999802
 20
39.185001
 40
2.000000
 50
180.000000
 51
0.000000
  0
CIRCLE
  8
0
  6
CONTINUOUS
 62
7
 10
-260.000000
 20
78.000000
 40
3.300000
  0
CIRCLE
  8
0
  6
CONTINUOUS
 62
7
 10
-260.000000
 20
60.000000
 40
3.300000
  0
CIRCLE
  8
0
  6
CONTINUOUS
 62
7
 10
71.999802
 20
60.000000
 40
3.300000
  0
CIRCLE
  8
0
  6
CONTINUOUS
 62
7
 10
71.999802
 20
78.000000
 40
3.300000
  0
CIRCLE
  8
0
  6
CONTINUOUS
 62
7
 10
-226.500000
 20
85.000000
 40
3.000000
  0
CIRCLE
  8
0
  6
CONTINUOUS
 62
7
 10
-226.500000
 20
85.000000
 40
2.458500
  0
CIRCLE
  8
0
  6
CONTINUOUS
 62
7
 10
-226.500000
 20
35.000000
 40
2.458500
  0
TEXT
  8
0
 62
7
 10
227.427002
 20
236.007004
 40
8.500000
  1
DATE : JUN ,2001
 50
0.000000
 41
0.835715
 51
0.000000
  7
STANDARD
  0
TEXT
  8
0
 62
7
 10
-361.801025
 20
235.257004
 40
10.000000
  1
RODLESS CYLINDER
 50
0.000000
 41
0.676860
 51
0.000000
  7
STANDARD
  0
TEXT
  8
0
 62
7
 10
-335.873993
 20
180.955994
 40
10.000000
  1
MODEL : MRC* 40xSt(200)
 50
0.000000
 41
0.787457
 51
0.000000
  7
STANDARD
  0
LINE
  8
0
  6
CONTINUOUS
 62
7
 10
-13.630300
 20
-182.000000
 11
44.869999
 21
-182.000000
  0
LINE
  8
0
  6
CONTINUOUS
 62
7
 10
44.869999
 20
-182.000000
 11
63.999901
 21
-148.865997
  0
LINE
  8
0
  6
CONTINUOUS
 62
7
 10
63.999901
 20
-148.865997
 11
61.878582
 21
-150.987320
  0
LINE
  8
0
  6
CONTINUOUS
 62
7
 10
63.999901
 20
-148.865997
 11
63.223446
 21
-151.763779
  0
TEXT
  8
0
 62
7
 10
-13.630300
 20
-182.000000
 40
3.200000
  1
8-M2x0.4
 50
0.000000
 41
0.878108
 51
0.000000
  7
STANDARD
  0
LINE
  8
0
  6
CONTINUOUS
 62
7
 10
-15.130300
 20
-58.000099
 11
36.204201
 21
-58.000099
  0
LINE
  8
0
  6
CONTINUOUS
 62
7
 10
36.204201
 20
-58.000099
 11
68.710602
 21
-114.303001
  0
LINE
  8
0
  6
CONTINUOUS
 62
7
 10
68.710602
 20
-114.303001
 11
67.934151
 21
-111.405220
  0
LINE
  8
0
  6
CONTINUOUS
 62
7
 10
68.710602
 20
-114.303001
 11
66.589287
 21
-112.181679
  0
TEXT
  8
0
 62
7
 10
-15.130300
 20
-58.000099
 40
3.200000
  1
2-Rc1/4
 50
0.000000
 41
0.829853
 51
0.000000
  7
STANDARD
  0
LINE
  8
0
  6
CONTINUOUS
 62
7
 10
-95.705803
 20
122.000000
 11
-140.138000
 21
122.000000
  0
LINE
  8
0
  6
CONTINUOUS
 62
7
 10
-140.138000
 20
122.000000
 11
-160.000000
 21
87.598000
  0
LINE
  8
0
  6
CONTINUOUS
 62
7
 10
-160.000000
 20
87.598000
 11
-157.878677
 21
89.719322
  0
LINE
  8
0
  6
CONTINUOUS
 62
7
 10
-160.000000
 20
87.598000
 11
-159.223541
 21
90.495773
  0
TEXT
  8
0
 62
7
 10
-140.138000
 20
122.000000
 40
3.200000
  1
4-M6x1
 50
0.000000
 41
0.798000
 51
0.000000
  7
STANDARD
  0
LINE
  8
0
  6
CONTINUOUS
 62
7
 10
321.691986
 20
-58.000099
 11
276.713013
 21
-58.000000
  0
LINE
  8
0
  6
CONTINUOUS
 62
7
 10
276.713013
 20
-58.000000
 11
250.500000
 21
-103.402000
  0
LINE
  8
0
  6
CONTINUOUS
 62
7
 10
250.500000
 20
-103.402000
 11
252.621323
 21
-101.280685
  0
LINE
  8
0
  6
CONTINUOUS
 62
7
 10
250.500000
 20
-103.402000
 11
251.276459
 21
-100.504227
  0
TEXT
  8
0
 62
7
 10
276.713013
 20
-58.000099
 40
3.200000
  1
4-M6x1
 50
0.000000
 41
0.798000
 51
0.000000
  7
STANDARD
  0
LINE
  8
0
  6
CONTINUOUS
 62
7
 10
144.300003
 20
122.000000
 11
97.403297
 21
122.000000
  0
LINE
  8
0
  6
CONTINUOUS
 62
7
 10
97.403297
 20
122.000000
 11
73.649902
 21
80.857803
  0
LINE
  8
0
  6
CONTINUOUS
 62
7
 10
73.649902
 20
80.857803
 11
75.771217
 21
82.979126
  0
LINE
  8
0
  6
CONTINUOUS
 62
7
 10
73.649902
 20
80.857803
 11
74.426353
 21
83.755585
  0
TEXT
  8
0
 62
7
 10
97.403297
 20
122.000000
 40
3.200000
  1
4-ƒÓ6.6
 50
0.000000
 41
1.039609
 51
0.000000
  7
STANDARD
  0
ENDSEC
  0
EOF
