  0
SECTION
  2
HEADER
  9
$ACADVER
  1
AC1009
  9
$INSBASE
 10
0.0
 20
0.0
 30
0.0
  9
$EXTMIN
 10
-194.25
 20
-133.5
 30
0.0
  9
$EXTMAX
 10
194.800003
 20
132.600006
 30
0.0
  9
$LIMMIN
 10
-194.25
 20
-133.5
  9
$LIMMAX
 10
194.800003
 20
132.600006
  9
$ORTHOMODE
 70
     0
  9
$REGENMODE
 70
     1
  9
$FILLMODE
 70
     1
  9
$QTEXTMODE
 70
     0
  9
$MIRRTEXT
 70
     1
  9
$DRAGMODE
 70
     2
  9
$LTSCALE
 40
1.0
  9
$OSMODE
 70
     0
  9
$ATTMODE
 70
     1
  9
$TEXTSIZE
 40
3.2
  9
$TRACEWID
 40
0.05
  9
$TEXTSTYLE
  7
MX_NOTE_STANDARD
  9
$CLAYER
  8
0
  9
$CELTYPE
  6
CONTINUOUS
  9
$CECOLOR
 62
   256
  9
$DIMSCALE
 40
1.0
  9
$DIMASZ
 40
2.5
  9
$DIMEXO
 40
1.5
  9
$DIMDLI
 40
3.75
  9
$DIMRND
 40
0.0
  9
$DIMDLE
 40
0.0
  9
$DIMEXE
 40
1.5
  9
$DIMTP
 40
0.0
  9
$DIMTM
 40
0.0
  9
$DIMTXT
 40
3.2
  9
$DIMCEN
 40
2.5
  9
$DIMTSZ
 40
0.0
  9
$DIMTOL
 70
     0
  9
$DIMLIM
 70
     0
  9
$DIMTIH
 70
     0
  9
$DIMTOH
 70
     0
  9
$DIMSE1
 70
     0
  9
$DIMSE2
 70
     0
  9
$DIMTAD
 70
     1
  9
$DIMZIN
 70
     8
  9
$DIMBLK
  1

  9
$DIMASO
 70
     1
  9
$DIMSHO
 70
     1
  9
$DIMPOST
  1

  9
$DIMAPOST
  1

  9
$DIMALT
 70
     0
  9
$DIMALTD
 70
     4
  9
$DIMALTF
 40
0.0394
  9
$DIMLFAC
 40
1.0
  9
$DIMTOFL
 70
     1
  9
$DIMTVP
 40
0.0
  9
$DIMTIX
 70
     0
  9
$DIMSOXD
 70
     0
  9
$DIMSAH
 70
     0
  9
$DIMBLK1
  1

  9
$DIMBLK2
  1

  9
$DIMSTYLE
  2
MXDIMSTYLE
  9
$DIMCLRD
 70
     0
  9
$DIMCLRE
 70
     0
  9
$DIMCLRT
 70
     0
  9
$DIMTFAC
 40
1.0
  9
$DIMGAP
 40
1.0
  9
$LUNITS
 70
     2
  9
$LUPREC
 70
     4
  9
$AXISMODE
 70
     0
  9
$AXISUNIT
 10
0.0
 20
0.0
  9
$SKETCHINC
 40
0.1
  9
$FILLETRAD
 40
0.0
  9
$AUNITS
 70
     0
  9
$AUPREC
 70
     0
  9
$MENU
  1
acad
  9
$ELEVATION
 40
0.0
  9
$PELEVATION
 40
0.0
  9
$THICKNESS
 40
0.0
  9
$LIMCHECK
 70
     0
  9
$BLIPMODE
 70
     1
  9
$CHAMFERA
 40
0.0
  9
$CHAMFERB
 40
0.0
  9
$SKPOLY
 70
     0
  9
$TDCREATE
 40
2452152.521967593
  9
$TDUPDATE
 40
2452152.521967593
  9
$TDINDWG
 40
0.0000000000
  9
$TDUSRTIMER
 40
0.0000000000
  9
$USRTIMER
 70
     1
  9
$ANGBASE
 50
0.0
  9
$ANGDIR
 70
     0
  9
$PDMODE
 70
     0
  9
$PDSIZE
 40
0.0
  9
$PLINEWID
 40
0.0
  9
$COORDS
 70
     1
  9
$SPLFRAME
 70
     0
  9
$SPLINETYPE
 70
     6
  9
$SPLINESEGS
 70
     8
  9
$ATTDIA
 70
     0
  9
$ATTREQ
 70
     1
  9
$HANDLING
 70
     1
  9
$HANDSEED
  5
363
  9
$SURFTAB1
 70
     6
  9
$SURFTAB2
 70
     6
  9
$SURFTYPE
 70
     6
  9
$SURFU
 70
     6
  9
$SURFV
 70
     6
  9
$UCSNAME
  2

  9
$UCSORG
 10
0.0
 20
0.0
 30
0.0
  9
$UCSXDIR
 10
1.0
 20
0.0
 30
0.0
  9
$UCSYDIR
 10
0.0
 20
1.0
 30
0.0
  9
$PUCSNAME
  2

  9
$PUCSORG
 10
0.0
 20
0.0
 30
0.0
  9
$PUCSXDIR
 10
1.0
 20
0.0
 30
0.0
  9
$PUCSYDIR
 10
0.0
 20
1.0
 30
0.0
  9
$USERI1
 70
     0
  9
$USERI2
 70
     0
  9
$USERI3
 70
     0
  9
$USERI4
 70
     0
  9
$USERI5
 70
     0
  9
$USERR1
 40
0.0
  9
$USERR2
 40
0.0
  9
$USERR3
 40
0.0
  9
$USERR4
 40
0.0
  9
$USERR5
 40
0.0
  9
$WORLDVIEW
 70
     1
  9
$SHADEDGE
 70
     3
  9
$SHADEDIF
 70
    70
  9
$TILEMODE
 70
     1
  9
$MAXACTVP
 70
    16
  9
$PINSBASE
 10
0.0
 20
0.0
 30
0.0
  9
$PLIMCHECK
 70
     0
  9
$PEXTMIN
 10
1.000000E+20
 20
1.000000E+20
 30
1.000000E+20
  9
$PEXTMAX
 10
-1.000000E+20
 20
-1.000000E+20
 30
-1.000000E+20
  9
$PLIMMIN
 10
0.0
 20
0.0
  9
$PLIMMAX
 10
12.0
 20
9.0
  9
$UNITMODE
 70
     0
  9
$VISRETAIN
 70
     0
  9
$PLINEGEN
 70
     1
  9
$PSLTSCALE
 70
     0
  9
$TREEDEPTH
 70
  3020
  9
$DWGCODEPAGE
  3
dos932
  0
ENDSEC
  0
SECTION
  2
TABLES
  0
TABLE
  2
VPORT
 70
     1
  0
VPORT
  2
*ACTIVE
 70
     0
 10
0.0
 20
0.0
 11
1.0
 21
1.0
 12
0.275002
 22
-0.449997
 13
0.0
 23
0.0
 14
1.0
 24
1.0
 15
0.0
 25
0.0
 16
0.0
 26
0.0
 36
1.0
 17
0.0
 27
0.0
 37
0.0
 40
268.761006
 41
1.732051
 42
50.0
 43
0.0
 44
0.0
 50
0.0
 51
0.0
 71
     0
 72
   100
 73
     1
 74
     1
 75
     0
 76
     0
 77
     0
 78
     0
  0
ENDTAB
  0
TABLE
  2
LTYPE
 70
     4
  0
LTYPE
  2
CONTINUOUS
 70
    64
  3
Solid line
 72
    65
 73
     0
 40
0.0
  0
LTYPE
  2
CENTER
 70
    64
  3
Center ____ _ ____ _ ____ _ ____ _ ____ _ ____
 72
    65
 73
     4
 40
50.8
 49
31.75
 49
-6.35
 49
6.35
 49
-6.35
  0
LTYPE
  2
PHANTOM
 70
    64
  3
Phantom ______  __  __  ______  __  __  ______
 72
    65
 73
     6
 40
63.5
 49
31.75
 49
-6.35
 49
6.35
 49
-6.35
 49
6.35
 49
-6.35
  0
LTYPE
  2
DASHED
 70
    64
  3
Dashed __ __ __ __ __ __ __ __ __ __ __ __ __ _
 72
    65
 73
     2
 40
19.05
 49
12.7
 49
-6.35
  0
ENDTAB
  0
TABLE
  2
LAYER
 70
     2
  0
LAYER
  2
0
 70
     0
 62
     7
  6
CONTINUOUS
  0
LAYER
  2
DEFPOINTS
 70
     0
 62
     7
  6
CONTINUOUS
  0
ENDTAB
  0
TABLE
  2
STYLE
 70
     1
  0
STYLE
  2
MX_NOTE_STANDARD
 70
     0
 40
3.2
 41
1.0
 50
0.0
 71
     0
 42
3.2
  3
txt.shx
  4
extfont.shx
  0
ENDTAB
  0
TABLE
  2
VIEW
 70
     0
  0
ENDTAB
  0
TABLE
  2
UCS
 70
     0
  0
ENDTAB
  0
TABLE
  2
APPID
 70
     1
  0
APPID
  2
ACAD
 70
     0
  0
ENDTAB
  0
TABLE
  2
DIMSTYLE
 70
     1
  0
DIMSTYLE
  2
MXDIMSTYLE
 70
     0
  3

  4

  5

  6

  7

 40
1.0
 41
2.5
 42
1.5
 43
3.75
 44
1.5
 45
0.0
 46
0.0
 47
0.0
 48
0.0
 71
     0
 72
     0
 73
     0
 74
     0
 75
     0
 76
     0
 77
     1
 78
     8
140
3.2
141
2.5
142
0.0
143
0.0394
144
1.0
145
0.0
146
1.0
147
1.0
170
     0
171
     4
172
     1
173
     0
174
     0
175
     0
176
     0
177
     0
178
     0
  0
ENDTAB
  0
ENDSEC
  0
SECTION
  2
BLOCKS
  0
ENDSEC
  0
SECTION
  2
ENTITIES
  0
LINE
  8
0
  6
CONTINUOUS
 62
     7
  5
1E
 10
55.350792
 20
72.718742
 30
0.0
 11
55.350793
 21
69.718742
 31
0.0
  0
LINE
  8
0
  6
CONTINUOUS
 62
     7
  5
1F
 10
54.350792
 20
73.718742
 30
0.0
 11
53.350792
 21
73.718741
 31
0.0
  0
LINE
  8
0
  6
CONTINUOUS
 62
     7
  5
20
 10
52.350792
 20
72.718741
 30
0.0
 11
52.350793
 21
69.718741
 31
0.0
  0
LINE
  8
0
  6
CONTINUOUS
 62
     7
  5
21
 10
54.350793
 20
68.718742
 30
0.0
 11
53.350793
 21
68.718741
 31
0.0
  0
ARC
  8
0
  6
CONTINUOUS
 62
     7
  5
22
 10
54.350792
 20
72.718742
 30
0.0
 40
1.0
 50
0.000018
 51
90.000018
  0
ARC
  8
0
  6
CONTINUOUS
 62
     7
  5
23
 10
53.350792
 20
72.718741
 30
0.0
 40
1.0
 50
90.000018
 51
180.000018
  0
ARC
  8
0
  6
CONTINUOUS
 62
     7
  5
24
 10
53.350793
 20
69.718741
 30
0.0
 40
1.0
 50
180.000018
 51
270.000018
  0
ARC
  8
0
  6
CONTINUOUS
 62
     7
  5
25
 10
54.350793
 20
69.718742
 30
0.0
 40
1.0
 50
270.000018
 51
0.000018
  0
CIRCLE
  8
0
  6
CONTINUOUS
 62
     7
  5
26
 10
53.850793
 20
70.218741
 30
0.0
 40
0.69
  0
CIRCLE
  8
0
  6
CONTINUOUS
 62
     7
  5
27
 10
53.850792
 20
72.218741
 30
0.0
 40
0.69
  0
LINE
  8
0
  6
CONTINUOUS
 62
     7
  5
28
 10
52.350793
 20
-6.081262
 30
0.0
 11
55.350793
 21
-6.081262
 31
0.0
  0
LINE
  8
0
  6
CONTINUOUS
 62
     7
  5
29
 10
52.350793
 20
-5.081262
 30
0.0
 11
52.350793
 21
-6.081262
 31
0.0
  0
LINE
  8
0
  6
CONTINUOUS
 62
     7
  5
2A
 10
52.350793
 20
-5.081262
 30
0.0
 11
55.350793
 21
-5.081262
 31
0.0
  0
LINE
  8
0
  6
CONTINUOUS
 62
     7
  5
2B
 10
55.350793
 20
-5.081262
 30
0.0
 11
55.350793
 21
-6.081262
 31
0.0
  0
LINE
  8
0
  6
CONTINUOUS
 62
     7
  5
2C
 10
142.250802
 20
-6.08126
 30
0.0
 11
147.250802
 21
-6.081263
 31
0.0
  0
LINE
  8
0
  6
CONTINUOUS
 62
     7
  5
2D
 10
142.250802
 20
-6.08126
 30
0.0
 11
142.250802
 21
-5.08126
 31
0.0
  0
LINE
  8
0
  6
CONTINUOUS
 62
     7
  5
2E
 10
142.250802
 20
-5.08126
 30
0.0
 11
147.250802
 21
-5.081263
 31
0.0
  0
LINE
  8
0
  6
CONTINUOUS
 62
     7
  5
2F
 10
147.250802
 20
-6.081263
 30
0.0
 11
147.250802
 21
-5.081263
 31
0.0
  0
LINE
  8
0
  6
CONTINUOUS
 62
     7
  5
30
 10
-123.549201
 20
-6.08126
 30
0.0
 11
-118.549201
 21
-6.081263
 31
0.0
  0
LINE
  8
0
  6
CONTINUOUS
 62
     7
  5
31
 10
-123.549201
 20
-6.08126
 30
0.0
 11
-123.549201
 21
-5.08126
 31
0.0
  0
LINE
  8
0
  6
CONTINUOUS
 62
     7
  5
32
 10
-123.549201
 20
-5.08126
 30
0.0
 11
-118.549201
 21
-5.081263
 31
0.0
  0
LINE
  8
0
  6
CONTINUOUS
 62
     7
  5
33
 10
-118.549201
 20
-6.081263
 30
0.0
 11
-118.549201
 21
-5.081263
 31
0.0
  0
LINE
  8
0
  6
CONTINUOUS
 62
     7
  5
34
 10
27.850793
 20
-22.081262
 30
0.0
 11
38.850793
 21
-22.081262
 31
0.0
  0
LINE
  8
0
  6
CONTINUOUS
 62
     7
  5
35
 10
27.850793
 20
-23.081262
 30
0.0
 11
38.850793
 21
-23.081262
 31
0.0
  0
LINE
  8
0
  6
CONTINUOUS
 62
     7
  5
36
 10
27.850793
 20
-22.081262
 30
0.0
 11
27.850793
 21
-23.081262
 31
0.0
  0
LINE
  8
0
  6
CONTINUOUS
 62
     7
  5
37
 10
38.850793
 20
-22.081262
 30
0.0
 11
38.850793
 21
-23.081262
 31
0.0
  0
LINE
  8
0
  6
CONTINUOUS
 62
     7
  5
38
 10
139.750789
 20
-22.081258
 30
0.0
 11
147.630789
 21
-22.081258
 31
0.0
  0
LINE
  8
0
  6
CONTINUOUS
 62
     7
  5
39
 10
139.750789
 20
-23.081258
 30
0.0
 11
149.750789
 21
-23.081258
 31
0.0
  0
LINE
  8
0
  6
CONTINUOUS
 62
     7
  5
3A
 10
139.750789
 20
-22.081258
 30
0.0
 11
139.750789
 21
-23.081258
 31
0.0
  0
LINE
  8
0
  6
CONTINUOUS
 62
     7
  5
3B
 10
149.750789
 20
-22.081258
 30
0.0
 11
149.750789
 21
-23.081258
 31
0.0
  0
LINE
  8
0
  6
CONTINUOUS
 62
     7
  5
3C
 10
148.460789
 20
-22.081258
 30
0.0
 11
149.750789
 21
-22.081258
 31
0.0
  0
ARC
  8
0
  6
CONTINUOUS
 62
     7
  5
3D
 10
148.045789
 20
-20.381257
 30
0.0
 40
1.749922
 50
256.28141
 51
283.71859
  0
LINE
  8
0
  6
CONTINUOUS
 62
     7
  5
3E
 10
-120.899207
 20
-22.081262
 30
0.0
 11
-126.049207
 21
-22.081262
 31
0.0
  0
LINE
  8
0
  6
CONTINUOUS
 62
     3
  5
3F
 10
-126.049207
 20
-23.081262
 30
0.0
 11
-126.049207
 21
-22.081262
 31
0.0
  0
LINE
  8
0
  6
CONTINUOUS
 62
     7
  5
40
 10
-120.899207
 20
-23.081262
 30
0.0
 11
-126.049207
 21
-23.081262
 31
0.0
  0
LINE
  8
0
  6
CONTINUOUS
 62
     7
  5
41
 10
-120.899207
 20
-22.081262
 30
0.0
 11
-120.899207
 21
-23.081262
 31
0.0
  0
TEXT
  8
0
  6
CONTINUOUS
 62
     7
  5
42
 10
-148.366374
 20
88.64768
 30
0.0
 40
6.3
  1
MED10-E1
 41
1.116279
  7
MX_NOTE_STANDARD
 11
-148.366374
 21
91.79768
 31
0.0
 73
     2
  0
LINE
  8
0
  6
CONTINUOUS
 62
     7
  5
43
 10
-194.25
 20
-133.5
 30
0.0
 11
194.800003
 21
-133.5
 31
0.0
  0
LINE
  8
0
  6
CONTINUOUS
 62
     7
  5
44
 10
-194.25
 20
132.600006
 30
0.0
 11
-194.25
 21
-133.5
 31
0.0
  0
LINE
  8
0
  6
CONTINUOUS
 62
     7
  5
45
 10
-194.25
 20
132.600006
 30
0.0
 11
194.800003
 21
132.600006
 31
0.0
  0
LINE
  8
0
  6
CONTINUOUS
 62
     7
  5
46
 10
194.800003
 20
132.600006
 30
0.0
 11
194.800003
 21
-133.5
 31
0.0
  0
TEXT
  8
0
  6
CONTINUOUS
 62
     7
  5
47
 10
-186.193014
 20
98.64768
 30
0.0
 40
6.3
  1
MODEL:MED07-E1
 41
1.090909
  7
MX_NOTE_STANDARD
 11
-186.193014
 21
101.79768
 31
0.0
 73
     2
  0
LINE
  8
0
  6
CENTER
 62
     2
  5
49
 10
-1.849207
 20
73.618738
 30
0.0
 11
9.350793
 21
73.618738
 31
0.0
  0
LINE
  8
0
  6
CONTINUOUS
 62
     7
  5
4A
 10
-123.639207
 20
-9.081262
 30
0.0
 11
-125.049207
 21
-10.491262
 31
0.0
  0
LINE
  8
0
  6
CONTINUOUS
 62
     7
  5
4B
 10
-125.049207
 20
-9.081262
 30
0.0
 11
-123.639207
 21
-10.491262
 31
0.0
  0
LINE
  8
0
  6
CONTINUOUS
 62
     7
  5
4C
 10
147.340793
 20
-19.671262
 30
0.0
 11
148.750793
 21
-21.081262
 31
0.0
  0
LINE
  8
0
  6
CONTINUOUS
 62
     7
  5
4D
 10
148.750793
 20
-19.671262
 30
0.0
 11
147.340793
 21
-21.081262
 31
0.0
  0
LINE
  8
0
  6
CONTINUOUS
 62
     7
  5
4E
 10
142.150793
 20
-9.081262
 30
0.0
 11
140.740793
 21
-10.491262
 31
0.0
  0
LINE
  8
0
  6
CONTINUOUS
 62
     7
  5
4F
 10
140.740793
 20
-9.081262
 30
0.0
 11
142.150793
 21
-10.491262
 31
0.0
  0
LINE
  8
0
  6
CONTINUOUS
 62
     7
  5
50
 10
33.140793
 20
68.428738
 30
0.0
 11
34.550793
 21
67.018738
 31
0.0
  0
LINE
  8
0
  6
CONTINUOUS
 62
     7
  5
51
 10
34.550793
 20
68.428738
 30
0.0
 11
33.140793
 21
67.018738
 31
0.0
  0
LINE
  8
0
  6
CONTINUOUS
 62
     7
  5
52
 10
34.550793
 20
75.418738
 30
0.0
 11
33.140793
 21
74.008738
 31
0.0
  0
LINE
  8
0
  6
CONTINUOUS
 62
     7
  5
53
 10
33.140793
 20
75.418738
 30
0.0
 11
34.550793
 21
74.008738
 31
0.0
  0
LINE
  8
0
  6
CONTINUOUS
 62
     7
  5
54
 10
-16.074207
 20
-69.156262
 30
0.0
 11
-14.234207
 21
-70.996262
 31
0.0
  0
LINE
  8
0
  6
CONTINUOUS
 62
     7
  5
55
 10
-14.234207
 20
-69.156262
 30
0.0
 11
-16.074207
 21
-70.996262
 31
0.0
  0
LINE
  8
0
  6
CONTINUOUS
 62
     7
  5
56
 10
57.925793
 20
-79.656262
 30
0.0
 11
59.765793
 21
-81.496262
 31
0.0
  0
LINE
  8
0
  6
CONTINUOUS
 62
     7
  5
57
 10
59.765793
 20
-79.656262
 30
0.0
 11
57.925793
 21
-81.496262
 31
0.0
  0
LINE
  8
0
  6
CONTINUOUS
 62
     7
  5
58
 10
49.425793
 20
-58.656262
 30
0.0
 11
51.265793
 21
-60.496262
 31
0.0
  0
LINE
  8
0
  6
CONTINUOUS
 62
     7
  5
59
 10
51.265793
 20
-58.656262
 30
0.0
 11
49.425793
 21
-60.496262
 31
0.0
  0
LINE
  8
0
  6
CONTINUOUS
 62
     7
  5
5A
 10
-24.574207
 20
59.543738
 30
0.0
 11
-22.734207
 21
57.703738
 31
0.0
  0
LINE
  8
0
  6
CONTINUOUS
 62
     7
  5
5B
 10
-22.734207
 20
59.543738
 30
0.0
 11
-24.574207
 21
57.703738
 31
0.0
  0
LINE
  8
0
  6
CONTINUOUS
 62
     7
  5
5C
 10
0.225793
 20
74.543738
 30
0.0
 11
2.065793
 21
72.703738
 31
0.0
  0
LINE
  8
0
  6
CONTINUOUS
 62
     7
  5
5D
 10
2.065793
 20
74.543738
 30
0.0
 11
0.225793
 21
72.703738
 31
0.0
  0
LINE
  8
0
  6
CONTINUOUS
 62
     7
  5
5E
 10
5.425793
 20
74.543738
 30
0.0
 11
7.265793
 21
72.703738
 31
0.0
  0
LINE
  8
0
  6
CONTINUOUS
 62
     7
  5
5F
 10
7.265793
 20
74.543738
 30
0.0
 11
5.425793
 21
72.703738
 31
0.0
  0
LINE
  8
0
  6
CONTINUOUS
 62
     7
  5
60
 10
5.425793
 20
59.543738
 30
0.0
 11
7.265793
 21
57.703738
 31
0.0
  0
LINE
  8
0
  6
CONTINUOUS
 62
     7
  5
61
 10
7.265793
 20
59.543738
 30
0.0
 11
5.425793
 21
57.703738
 31
0.0
  0
LINE
  8
0
  6
CONTINUOUS
 62
     7
  5
62
 10
60.425793
 20
59.543738
 30
0.0
 11
62.265793
 21
57.703738
 31
0.0
  0
LINE
  8
0
  6
CONTINUOUS
 62
     7
  5
63
 10
62.265793
 20
59.543738
 30
0.0
 11
60.425793
 21
57.703738
 31
0.0
  0
LINE
  8
0
  6
CONTINUOUS
 62
     7
  5
64
 10
60.425793
 20
74.533738
 30
0.0
 11
62.265793
 21
72.693738
 31
0.0
  0
LINE
  8
0
  6
CONTINUOUS
 62
     7
  5
65
 10
62.265793
 20
74.533738
 30
0.0
 11
60.425793
 21
72.693738
 31
0.0
  0
LINE
  8
0
  6
CONTINUOUS
 62
     7
  5
66
 10
-124.364207
 20
-81.656262
 30
0.0
 11
-122.524207
 21
-83.496262
 31
0.0
  0
LINE
  8
0
  6
CONTINUOUS
 62
     7
  5
67
 10
-122.524207
 20
-81.656262
 30
0.0
 11
-124.364207
 21
-83.496262
 31
0.0
  0
LINE
  8
0
  6
CONTINUOUS
 62
     7
  5
68
 10
-109.364207
 20
-67.656262
 30
0.0
 11
-107.524207
 21
-69.496262
 31
0.0
  0
LINE
  8
0
  6
CONTINUOUS
 62
     7
  5
69
 10
-107.524207
 20
-67.656262
 30
0.0
 11
-109.364207
 21
-69.496262
 31
0.0
  0
TEXT
  8
0
  6
CONTINUOUS
 62
     7
  5
6A
 10
-32.649207
 20
63.066886
 30
0.0
 40
1.5
  1
HYS
  7
MX_NOTE_STANDARD
 11
-32.649207
 21
63.816886
 31
0.0
 73
     2
  0
TEXT
  8
0
  6
CONTINUOUS
 62
     7
  5
6B
 10
-38.649207
 20
63.066886
 30
0.0
 40
1.5
  1
SET
  7
MX_NOTE_STANDARD
 11
-38.649207
 21
63.816886
 31
0.0
 73
     2
  0
POLYLINE
  8
0
  6
PHANTOM
 62
     2
  5
6D
 66
     1
 10
0.0
 20
0.0
 30
0.0
  0
VERTEX
  8
0
  6
PHANTOM
 62
     2
  5
2FE
 10
22.760793
 20
76.218738
 30
0.0
  0
VERTEX
  8
0
  6
PHANTOM
 62
     2
  5
2FF
 10
22.674906
 20
76.044052
 30
0.0
  0
VERTEX
  8
0
  6
PHANTOM
 62
     2
  5
300
 10
22.590995
 20
75.86668
 30
0.0
  0
VERTEX
  8
0
  6
PHANTOM
 62
     2
  5
301
 10
22.509627
 20
75.686848
 30
0.0
  0
VERTEX
  8
0
  6
PHANTOM
 62
     2
  5
302
 10
22.431366
 20
75.504784
 30
0.0
  0
VERTEX
  8
0
  6
PHANTOM
 62
     2
  5
303
 10
22.356779
 20
75.320716
 30
0.0
  0
VERTEX
  8
0
  6
PHANTOM
 62
     2
  5
304
 10
22.286434
 20
75.134872
 30
0.0
  0
VERTEX
  8
0
  6
PHANTOM
 62
     2
  5
305
 10
22.220895
 20
74.947477
 30
0.0
  0
VERTEX
  8
0
  6
PHANTOM
 62
     2
  5
306
 10
22.16073
 20
74.758761
 30
0.0
  0
VERTEX
  8
0
  6
PHANTOM
 62
     2
  5
307
 10
22.106503
 20
74.568951
 30
0.0
  0
VERTEX
  8
0
  6
PHANTOM
 62
     2
  5
308
 10
22.058783
 20
74.378273
 30
0.0
  0
VERTEX
  8
0
  6
PHANTOM
 62
     2
  5
309
 10
22.018135
 20
74.186956
 30
0.0
  0
VERTEX
  8
0
  6
PHANTOM
 62
     2
  5
30A
 10
21.985125
 20
73.995227
 30
0.0
  0
VERTEX
  8
0
  6
PHANTOM
 62
     2
  5
30B
 10
21.960319
 20
73.803313
 30
0.0
  0
VERTEX
  8
0
  6
PHANTOM
 62
     2
  5
30C
 10
21.944284
 20
73.611442
 30
0.0
  0
VERTEX
  8
0
  6
PHANTOM
 62
     2
  5
30D
 10
21.937587
 20
73.419842
 30
0.0
  0
VERTEX
  8
0
  6
PHANTOM
 62
     2
  5
30E
 10
21.940793
 20
73.228738
 30
0.0
  0
VERTEX
  8
0
  6
PHANTOM
 62
     2
  5
30F
 10
21.961151
 20
72.972908
 30
0.0
  0
VERTEX
  8
0
  6
PHANTOM
 62
     2
  5
310
 10
21.998189
 20
72.718123
 30
0.0
  0
VERTEX
  8
0
  6
PHANTOM
 62
     2
  5
311
 10
22.049501
 20
72.464238
 30
0.0
  0
VERTEX
  8
0
  6
PHANTOM
 62
     2
  5
312
 10
22.11268
 20
72.211105
 30
0.0
  0
VERTEX
  8
0
  6
PHANTOM
 62
     2
  5
313
 10
22.185322
 20
71.958578
 30
0.0
  0
VERTEX
  8
0
  6
PHANTOM
 62
     2
  5
314
 10
22.265019
 20
71.706509
 30
0.0
  0
VERTEX
  8
0
  6
PHANTOM
 62
     2
  5
315
 10
22.349367
 20
71.454752
 30
0.0
  0
VERTEX
  8
0
  6
PHANTOM
 62
     2
  5
316
 10
22.435959
 20
71.20316
 30
0.0
  0
VERTEX
  8
0
  6
PHANTOM
 62
     2
  5
317
 10
22.522389
 20
70.951586
 30
0.0
  0
VERTEX
  8
0
  6
PHANTOM
 62
     2
  5
318
 10
22.606252
 20
70.699883
 30
0.0
  0
VERTEX
  8
0
  6
PHANTOM
 62
     2
  5
319
 10
22.685143
 20
70.447904
 30
0.0
  0
VERTEX
  8
0
  6
PHANTOM
 62
     2
  5
31A
 10
22.756654
 20
70.195503
 30
0.0
  0
VERTEX
  8
0
  6
PHANTOM
 62
     2
  5
31B
 10
22.81838
 20
69.942533
 30
0.0
  0
VERTEX
  8
0
  6
PHANTOM
 62
     2
  5
31C
 10
22.867916
 20
69.688847
 30
0.0
  0
VERTEX
  8
0
  6
PHANTOM
 62
     2
  5
31D
 10
22.902855
 20
69.434298
 30
0.0
  0
VERTEX
  8
0
  6
PHANTOM
 62
     2
  5
31E
 10
22.920793
 20
69.178738
 30
0.0
  0
VERTEX
  8
0
  6
PHANTOM
 62
     2
  5
31F
 10
22.92199
 20
68.988996
 30
0.0
  0
VERTEX
  8
0
  6
PHANTOM
 62
     2
  5
320
 10
22.913189
 20
68.798834
 30
0.0
  0
VERTEX
  8
0
  6
PHANTOM
 62
     2
  5
321
 10
22.894962
 20
68.608476
 30
0.0
  0
VERTEX
  8
0
  6
PHANTOM
 62
     2
  5
322
 10
22.867883
 20
68.41815
 30
0.0
  0
VERTEX
  8
0
  6
PHANTOM
 62
     2
  5
323
 10
22.832523
 20
68.228079
 30
0.0
  0
VERTEX
  8
0
  6
PHANTOM
 62
     2
  5
324
 10
22.789455
 20
68.038491
 30
0.0
  0
VERTEX
  8
0
  6
PHANTOM
 62
     2
  5
325
 10
22.739252
 20
67.84961
 30
0.0
  0
VERTEX
  8
0
  6
PHANTOM
 62
     2
  5
326
 10
22.682486
 20
67.661662
 30
0.0
  0
VERTEX
  8
0
  6
PHANTOM
 62
     2
  5
327
 10
22.619729
 20
67.474872
 30
0.0
  0
VERTEX
  8
0
  6
PHANTOM
 62
     2
  5
328
 10
22.551555
 20
67.289467
 30
0.0
  0
VERTEX
  8
0
  6
PHANTOM
 62
     2
  5
329
 10
22.478535
 20
67.105672
 30
0.0
  0
VERTEX
  8
0
  6
PHANTOM
 62
     2
  5
32A
 10
22.401242
 20
66.923712
 30
0.0
  0
VERTEX
  8
0
  6
PHANTOM
 62
     2
  5
32B
 10
22.320249
 20
66.743813
 30
0.0
  0
VERTEX
  8
0
  6
PHANTOM
 62
     2
  5
32C
 10
22.236128
 20
66.566201
 30
0.0
  0
VERTEX
  8
0
  6
PHANTOM
 62
     2
  5
32D
 10
22.149452
 20
66.391101
 30
0.0
  0
VERTEX
  8
0
  6
PHANTOM
 62
     2
  5
32E
 10
22.060793
 20
66.218738
 30
0.0
  0
SEQEND
  8
0
  6
PHANTOM
 62
     2
  5
32F
  0
POLYLINE
  8
0
  6
PHANTOM
 62
     2
  5
6E
 66
     1
 10
0.0
 20
0.0
 30
0.0
  0
VERTEX
  8
0
  6
PHANTOM
 62
     2
  5
330
 10
24.370793
 20
-6.081262
 30
0.0
  0
VERTEX
  8
0
  6
PHANTOM
 62
     2
  5
331
 10
24.233795
 20
-6.385366
 30
0.0
  0
VERTEX
  8
0
  6
PHANTOM
 62
     2
  5
332
 10
24.100292
 20
-6.693154
 30
0.0
  0
VERTEX
  8
0
  6
PHANTOM
 62
     2
  5
333
 10
23.971018
 20
-7.004344
 30
0.0
  0
VERTEX
  8
0
  6
PHANTOM
 62
     2
  5
334
 10
23.846713
 20
-7.318654
 30
0.0
  0
VERTEX
  8
0
  6
PHANTOM
 62
     2
  5
335
 10
23.728112
 20
-7.635803
 30
0.0
  0
VERTEX
  8
0
  6
PHANTOM
 62
     2
  5
336
 10
23.615953
 20
-7.955509
 30
0.0
  0
VERTEX
  8
0
  6
PHANTOM
 62
     2
  5
337
 10
23.510972
 20
-8.27749
 30
0.0
  0
VERTEX
  8
0
  6
PHANTOM
 62
     2
  5
338
 10
23.413908
 20
-8.601466
 30
0.0
  0
VERTEX
  8
0
  6
PHANTOM
 62
     2
  5
339
 10
23.325495
 20
-8.927154
 30
0.0
  0
VERTEX
  8
0
  6
PHANTOM
 62
     2
  5
33A
 10
23.246473
 20
-9.254272
 30
0.0
  0
VERTEX
  8
0
  6
PHANTOM
 62
     2
  5
33B
 10
23.177577
 20
-9.58254
 30
0.0
  0
VERTEX
  8
0
  6
PHANTOM
 62
     2
  5
33C
 10
23.119545
 20
-9.911676
 30
0.0
  0
VERTEX
  8
0
  6
PHANTOM
 62
     2
  5
33D
 10
23.073113
 20
-10.241397
 30
0.0
  0
VERTEX
  8
0
  6
PHANTOM
 62
     2
  5
33E
 10
23.039019
 20
-10.571423
 30
0.0
  0
VERTEX
  8
0
  6
PHANTOM
 62
     2
  5
33F
 10
23.018
 20
-10.901472
 30
0.0
  0
VERTEX
  8
0
  6
PHANTOM
 62
     2
  5
340
 10
23.010793
 20
-11.231262
 30
0.0
  0
VERTEX
  8
0
  6
PHANTOM
 62
     2
  5
341
 10
23.020692
 20
-11.623336
 30
0.0
  0
VERTEX
  8
0
  6
PHANTOM
 62
     2
  5
342
 10
23.048846
 20
-12.015056
 30
0.0
  0
VERTEX
  8
0
  6
PHANTOM
 62
     2
  5
343
 10
23.092738
 20
-12.406491
 30
0.0
  0
VERTEX
  8
0
  6
PHANTOM
 62
     2
  5
344
 10
23.149854
 20
-12.797711
 30
0.0
  0
VERTEX
  8
0
  6
PHANTOM
 62
     2
  5
345
 10
23.217675
 20
-13.188787
 30
0.0
  0
VERTEX
  8
0
  6
PHANTOM
 62
     2
  5
346
 10
23.293688
 20
-13.57979
 30
0.0
  0
VERTEX
  8
0
  6
PHANTOM
 62
     2
  5
347
 10
23.375375
 20
-13.970789
 30
0.0
  0
VERTEX
  8
0
  6
PHANTOM
 62
     2
  5
348
 10
23.460222
 20
-14.361856
 30
0.0
  0
VERTEX
  8
0
  6
PHANTOM
 62
     2
  5
349
 10
23.545711
 20
-14.75306
 30
0.0
  0
VERTEX
  8
0
  6
PHANTOM
 62
     2
  5
34A
 10
23.629327
 20
-15.144473
 30
0.0
  0
VERTEX
  8
0
  6
PHANTOM
 62
     2
  5
34B
 10
23.708553
 20
-15.536164
 30
0.0
  0
VERTEX
  8
0
  6
PHANTOM
 62
     2
  5
34C
 10
23.780875
 20
-15.928204
 30
0.0
  0
VERTEX
  8
0
  6
PHANTOM
 62
     2
  5
34D
 10
23.843776
 20
-16.320663
 30
0.0
  0
VERTEX
  8
0
  6
PHANTOM
 62
     2
  5
34E
 10
23.89474
 20
-16.713612
 30
0.0
  0
VERTEX
  8
0
  6
PHANTOM
 62
     2
  5
34F
 10
23.931251
 20
-17.107122
 30
0.0
  0
VERTEX
  8
0
  6
PHANTOM
 62
     2
  5
350
 10
23.950793
 20
-17.501262
 30
0.0
  0
VERTEX
  8
0
  6
PHANTOM
 62
     2
  5
351
 10
23.953158
 20
-17.791217
 30
0.0
  0
VERTEX
  8
0
  6
PHANTOM
 62
     2
  5
352
 10
23.9456
 20
-18.081325
 30
0.0
  0
VERTEX
  8
0
  6
PHANTOM
 62
     2
  5
353
 10
23.928658
 20
-18.371447
 30
0.0
  0
VERTEX
  8
0
  6
PHANTOM
 62
     2
  5
354
 10
23.902875
 20
-18.661444
 30
0.0
  0
VERTEX
  8
0
  6
PHANTOM
 62
     2
  5
355
 10
23.868791
 20
-18.951178
 30
0.0
  0
VERTEX
  8
0
  6
PHANTOM
 62
     2
  5
356
 10
23.826947
 20
-19.24051
 30
0.0
  0
VERTEX
  8
0
  6
PHANTOM
 62
     2
  5
357
 10
23.777885
 20
-19.529302
 30
0.0
  0
VERTEX
  8
0
  6
PHANTOM
 62
     2
  5
358
 10
23.722146
 20
-19.817415
 30
0.0
  0
VERTEX
  8
0
  6
PHANTOM
 62
     2
  5
359
 10
23.660271
 20
-20.104711
 30
0.0
  0
VERTEX
  8
0
  6
PHANTOM
 62
     2
  5
35A
 10
23.592801
 20
-20.391051
 30
0.0
  0
VERTEX
  8
0
  6
PHANTOM
 62
     2
  5
35B
 10
23.520277
 20
-20.676297
 30
0.0
  0
VERTEX
  8
0
  6
PHANTOM
 62
     2
  5
35C
 10
23.443241
 20
-20.960309
 30
0.0
  0
VERTEX
  8
0
  6
PHANTOM
 62
     2
  5
35D
 10
23.362233
 20
-21.242951
 30
0.0
  0
VERTEX
  8
0
  6
PHANTOM
 62
     2
  5
35E
 10
23.277795
 20
-21.524082
 30
0.0
  0
VERTEX
  8
0
  6
PHANTOM
 62
     2
  5
35F
 10
23.190468
 20
-21.803565
 30
0.0
  0
VERTEX
  8
0
  6
PHANTOM
 62
     2
  5
360
 10
23.100793
 20
-22.081262
 30
0.0
  0
SEQEND
  8
0
  6
PHANTOM
 62
     2
  5
361
  0
ARC
  8
0
  6
CONTINUOUS
 62
     7
  5
6F
 10
-122.951226
 20
-22.592798
 30
0.0
 40
1.498026
 50
160.033306
 51
179.558747
  0
ARC
  8
0
  6
CONTINUOUS
 62
     7
  5
70
 10
136.200796
 20
-16.581265
 30
0.0
 40
1.500003
 50
90.000117
 51
179.999883
  0
CIRCLE
  8
0
  6
PHANTOM
 62
     2
  5
71
 10
12.850793
 20
72.218741
 30
0.0
 40
0.69
  0
CIRCLE
  8
0
  6
PHANTOM
 62
     2
  5
72
 10
12.850793
 20
70.218741
 30
0.0
 40
0.69
  0
ARC
  8
0
  6
PHANTOM
 62
     2
  5
73
 10
12.350794
 20
69.71874
 30
0.0
 40
1.000002
 50
180.000087
 51
269.999913
  0
ARC
  8
0
  6
PHANTOM
 62
     2
  5
74
 10
13.350791
 20
69.71874
 30
0.0
 40
1.000002
 50
270.000087
 51
359.999913
  0
ARC
  8
0
  6
PHANTOM
 62
     2
  5
75
 10
13.350794
 20
72.71874
 30
0.0
 40
0.999998
 50
359.999913
 51
90.000087
  0
ARC
  8
0
  6
PHANTOM
 62
     2
  5
76
 10
12.350791
 20
72.71874
 30
0.0
 40
0.999998
 50
89.999913
 51
180.000087
  0
ARC
  8
0
  6
PHANTOM
 62
     2
  5
77
 10
8.210537
 20
75.840247
 30
0.0
 40
0.428492
 50
89.9659
 51
152.404049
  0
ARC
  8
0
  6
PHANTOM
 62
     2
  5
78
 10
10.650784
 20
74.513738
 30
0.0
 40
3.205928
 50
151.596283
 51
208.403717
  0
ARC
  8
0
  6
PHANTOM
 62
     2
  5
79
 10
8.206529
 20
66.599555
 30
0.0
 40
0.430838
 50
209.29579
 51
270.567045
  0
ARC
  8
0
  6
PHANTOM
 62
     2
  5
7A
 10
8.196071
 20
69.221942
 30
0.0
 40
0.42477
 50
125.270687
 51
149.310533
  0
ARC
  8
0
  6
PHANTOM
 62
     2
  5
7B
 10
10.650799
 20
67.913738
 30
0.0
 40
3.205942
 50
151.596413
 51
208.403587
  0
ARC
  8
0
  6
PHANTOM
 62
     2
  5
7C
 10
8.450797
 20
66.718743
 30
0.0
 40
0.500005
 50
180.000525
 51
269.999475
  0
ARC
  8
0
  6
PHANTOM
 62
     2
  5
7D
 10
8.206525
 20
73.199549
 30
0.0
 40
0.430831
 50
209.295258
 51
270.567576
  0
ARC
  8
0
  6
PHANTOM
 62
     2
  5
7E
 10
8.200767
 20
-11.090132
 30
0.0
 40
0.431021
 50
210.866353
 51
234.552427
  0
ARC
  8
0
  6
PHANTOM
 62
     2
  5
7F
 10
8.210539
 20
-8.459755
 30
0.0
 40
0.428494
 50
89.96608
 51
152.403869
  0
ARC
  8
0
  6
PHANTOM
 62
     2
  5
80
 10
10.650784
 20
-9.786262
 30
0.0
 40
3.205928
 50
151.596283
 51
208.403717
  0
ARC
  8
0
  6
PHANTOM
 62
     2
  5
81
 10
8.206527
 20
-21.700447
 30
0.0
 40
0.430836
 50
209.295612
 51
270.567222
  0
ARC
  8
0
  6
PHANTOM
 62
     2
  5
82
 10
8.210535
 20
-19.059749
 30
0.0
 40
0.428487
 50
89.96554
 51
152.404409
  0
ARC
  8
0
  6
PHANTOM
 62
     2
  5
83
 10
10.650799
 20
-20.386262
 30
0.0
 40
3.205942
 50
151.596413
 51
208.403587
  0
ARC
  8
0
  6
PHANTOM
 62
     2
  5
84
 10
8.450788
 20
-8.581257
 30
0.0
 40
0.499995
 50
89.999475
 51
180.000525
  0
ARC
  8
0
  6
CONTINUOUS
 62
     7
  5
85
 10
-1.149207
 20
60.618738
 30
0.0
 40
1.35
 50
0.0
 51
180.0
  0
ARC
  8
0
  6
CONTINUOUS
 62
     7
  5
86
 10
-112.499211
 20
-16.581265
 30
0.0
 40
1.500003
 50
0.000117
 51
89.999883
  0
ARC
  8
0
  6
CONTINUOUS
 62
     7
  5
87
 10
33.850793
 20
-12.381261
 30
0.0
 40
3.899999
 50
67.380131
 51
112.619869
  0
ARC
  8
0
  6
PHANTOM
 62
     2
  5
88
 10
-122.943518
 20
-22.58061
 30
0.0
 40
1.501175
 50
32.625332
 51
160.571015
  0
CIRCLE
  8
0
  6
PHANTOM
 62
     2
  5
89
 10
-33.649209
 20
59.741386
 30
0.0
 40
0.5
  0
CIRCLE
  8
0
  6
PHANTOM
 62
     2
  5
8A
 10
-33.649207
 20
60.318732
 30
0.0
 40
1.5
  0
CIRCLE
  8
0
  6
PHANTOM
 62
     2
  5
8B
 10
-33.649207
 20
73.118735
 30
0.0
 40
1.5
  0
CIRCLE
  8
0
  6
PHANTOM
 62
     2
  5
8C
 10
-36.149207
 20
68.118735
 30
0.0
 40
1.5
  0
CIRCLE
  8
0
  6
PHANTOM
 62
     2
  5
8D
 10
-31.149207
 20
68.118735
 30
0.0
 40
2.25
  0
ARC
  8
0
  6
PHANTOM
 62
     2
  5
8E
 10
-31.149207
 20
68.118738
 30
0.0
 40
2.745906
 50
213.111342
 51
146.888658
  0
ARC
  8
0
  6
PHANTOM
 62
     2
  5
8F
 10
-36.149207
 20
68.118738
 30
0.0
 40
2.754288
 50
32.997705
 51
327.002295
  0
CIRCLE
  8
0
  6
PHANTOM
 62
     2
  5
90
 10
-34.149207
 20
60.607413
 30
0.0
 40
0.5
  0
CIRCLE
  8
0
  6
PHANTOM
 62
     2
  5
91
 10
-36.149207
 20
68.118735
 30
0.0
 40
2.25
  0
CIRCLE
  8
0
  6
PHANTOM
 62
     2
  5
92
 10
-33.149207
 20
60.607413
 30
0.0
 40
0.5
  0
CIRCLE
  8
0
  6
PHANTOM
 62
     2
  5
93
 10
-31.149207
 20
68.118735
 30
0.0
 40
1.5
  0
ARC
  8
0
  6
PHANTOM
 62
     2
  5
94
 10
-33.644207
 20
73.11874
 30
0.0
 40
1.700185
 50
216.027408
 51
323.972592
  0
ARC
  8
0
  6
CONTINUOUS
 62
     7
  5
95
 10
-15.152307
 20
66.114553
 30
0.0
 40
8.002263
 50
305.115373
 51
341.826917
  0
ARC
  8
0
  6
CONTINUOUS
 62
     7
  5
96
 10
-15.152567
 20
66.117826
 30
0.0
 40
8.004618
 50
275.40042
 51
294.924693
  0
ARC
  8
0
  6
CONTINUOUS
 62
     7
  5
97
 10
-15.126058
 20
66.111086
 30
0.0
 40
8.004398
 50
241.469203
 51
261.789222
  0
ARC
  8
0
  6
CONTINUOUS
 62
     7
  5
98
 10
-15.150145
 20
66.112511
 30
0.0
 40
8.000374
 50
128.671446
 51
214.173121
  0
ARC
  8
0
  6
CONTINUOUS
 62
     7
  5
99
 10
-15.152709
 20
66.117585
 30
0.0
 40
7.999453
 50
98.023071
 51
118.332967
  0
ARC
  8
0
  6
CONTINUOUS
 62
     7
  5
9A
 10
-15.139809
 20
66.116176
 30
0.0
 40
7.99693
 50
64.913381
 51
84.686179
  0
ARC
  8
0
  6
CONTINUOUS
 62
     7
  5
9B
 10
-15.138075
 20
66.095643
 30
0.0
 40
7.994158
 50
18.322575
 51
33.33534
  0
CIRCLE
  8
0
  6
CONTINUOUS
 62
     7
  5
9C
 10
-53.649192
 20
66.118735
 30
0.0
 40
4.949997
  0
ARC
  8
0
  6
CONTINUOUS
 62
     7
  5
9D
 10
-119.399207
 20
-16.581262
 30
0.0
 40
1.5
 50
90.0
 51
180.0
  0
ARC
  8
0
  6
CONTINUOUS
 62
     7
  5
9E
 10
148.050729
 20
-20.380631
 30
0.0
 40
1.74937
 50
283.556621
 51
89.997935
  0
ARC
  8
0
  6
CONTINUOUS
 62
     7
  5
9F
 10
-122.049207
 20
-9.869607
 30
0.0
 40
2.887063
 50
69.734385
 51
110.265615
  0
ARC
  8
0
  6
CONTINUOUS
 62
     7
  5
A0
 10
-120.049207
 20
-9.869607
 30
0.0
 40
2.887063
 50
69.734385
 51
110.265615
  0
CIRCLE
  8
0
  6
CONTINUOUS
 62
     7
  5
A1
 10
-124.349204
 20
-9.781259
 30
0.0
 40
1.75
  0
ARC
  8
0
  6
CONTINUOUS
 62
     7
  5
A2
 10
-124.349207
 20
-9.781262
 30
0.0
 40
2.0
 50
270.0
 51
360.0
  0
ARC
  8
0
  6
CONTINUOUS
 62
     7
  5
A3
 10
34.711632
 20
-8.003058
 30
0.0
 40
1.021787
 50
55.471824
 51
115.558964
  0
ARC
  8
0
  6
CONTINUOUS
 62
     7
  5
A4
 10
36.445793
 20
-10.802624
 30
0.0
 40
3.82015
 50
72.401547
 51
107.598453
  0
ARC
  8
0
  6
CONTINUOUS
 62
     7
  5
A5
 10
38.180013
 20
-8.003819
 30
0.0
 40
1.022448
 50
64.462457
 51
124.506755
  0
CIRCLE
  8
0
  6
CONTINUOUS
 62
     7
  5
A6
 10
36.450783
 20
71.218741
 30
0.0
 40
2.0
  0
CIRCLE
  8
0
  6
CONTINUOUS
 62
     7
  5
A7
 10
36.450783
 20
71.218741
 30
0.0
 40
1.349999
  0
ARC
  8
0
  6
CONTINUOUS
 62
     7
  5
A8
 10
148.050737
 20
-20.38182
 30
0.0
 40
1.750558
 50
89.998187
 51
256.119846
  0
CIRCLE
  8
0
  6
CONTINUOUS
 62
     7
  5
A9
 10
141.450799
 20
-9.781259
 30
0.0
 40
1.75
  0
CIRCLE
  8
0
  6
CONTINUOUS
 62
     7
  5
AA
 10
144.750802
 20
-15.081262
 30
0.0
 40
0.9
  0
ARC
  8
0
  6
CONTINUOUS
 62
     7
  5
AB
 10
141.450794
 20
-9.781263
 30
0.0
 40
1.999998
 50
269.999956
 51
0.000044
  0
ARC
  8
0
  6
CONTINUOUS
 62
     7
  5
AC
 10
148.0508
 20
-20.381269
 30
0.0
 40
2.000008
 50
90.000219
 51
179.999781
  0
ARC
  8
0
  6
CONTINUOUS
 62
     7
  5
AD
 10
58.49156
 20
-19.06215
 30
0.0
 40
0.420343
 50
28.549355
 51
51.923362
  0
ARC
  8
0
  6
CONTINUOUS
 62
     7
  5
AE
 10
58.487601
 20
-21.704839
 30
0.0
 40
0.426477
 50
269.085322
 51
331.051844
  0
ARC
  8
0
  6
CONTINUOUS
 62
     7
  5
AF
 10
56.050786
 20
-20.386262
 30
0.0
 40
3.197149
 50
331.511167
 51
28.488833
  0
ARC
  8
0
  6
CONTINUOUS
 62
     7
  5
B0
 10
58.483717
 20
-8.455344
 30
0.0
 40
0.424092
 50
27.235006
 51
90.395045
  0
ARC
  8
0
  6
CONTINUOUS
 62
     7
  5
B1
 10
58.487601
 20
-11.10484
 30
0.0
 40
0.426476
 50
269.085231
 51
331.051935
  0
ARC
  8
0
  6
CONTINUOUS
 62
     7
  5
B2
 10
56.050786
 20
-9.786262
 30
0.0
 40
3.197149
 50
331.511167
 51
28.488833
  0
ARC
  8
0
  6
CONTINUOUS
 62
     7
  5
B3
 10
58.250786
 20
-21.581255
 30
0.0
 40
0.500007
 50
270.000787
 51
359.999213
  0
ARC
  8
0
  6
CONTINUOUS
 62
     7
  5
B4
 10
61.350793
 20
58.618738
 30
0.0
 40
2.25
 50
180.0
 51
0.0
  0
CIRCLE
  8
0
  6
CONTINUOUS
 62
     7
  5
B5
 10
33.850793
 20
67.718741
 30
0.0
 40
1.5
  0
CIRCLE
  8
0
  6
CONTINUOUS
 62
     7
  5
B6
 10
33.850793
 20
74.718741
 30
0.0
 40
1.5
  0
ARC
  8
0
  6
CONTINUOUS
 62
     7
  5
B7
 10
58.483715
 20
69.244654
 30
0.0
 40
0.424094
 50
27.235192
 51
90.394859
  0
ARC
  8
0
  6
CONTINUOUS
 62
     7
  5
B8
 10
58.487606
 20
66.595151
 30
0.0
 40
0.426467
 50
269.08452
 51
331.052646
  0
ARC
  8
0
  6
CONTINUOUS
 62
     7
  5
B9
 10
56.050786
 20
67.913738
 30
0.0
 40
3.197149
 50
331.511167
 51
28.488833
  0
ARC
  8
0
  6
CONTINUOUS
 62
     7
  5
BA
 10
58.483718
 20
75.844659
 30
0.0
 40
0.42409
 50
27.23482
 51
90.39523
  0
ARC
  8
0
  6
CONTINUOUS
 62
     7
  5
BB
 10
58.486647
 20
73.193785
 30
0.0
 40
0.426648
 50
308.251723
 51
331.27556
  0
ARC
  8
0
  6
CONTINUOUS
 62
     7
  5
BC
 10
56.050786
 20
74.513738
 30
0.0
 40
3.197149
 50
331.511167
 51
28.488833
  0
ARC
  8
0
  6
CONTINUOUS
 62
     7
  5
BD
 10
58.250799
 20
75.718745
 30
0.0
 40
0.499994
 50
359.999301
 51
90.000699
  0
ARC
  8
0
  6
CONTINUOUS
 62
     7
  5
BE
 10
61.350248
 20
73.618727
 30
0.0
 40
2.250544
 50
181.782098
 51
0.000293
  0
ARC
  8
0
  6
CONTINUOUS
 62
     7
  5
BF
 10
-57.099206
 20
-16.581263
 30
0.0
 40
1.500002
 50
90.000058
 51
179.999942
  0
ARC
  8
0
  6
CONTINUOUS
 62
     7
  5
C0
 10
-50.199201
 20
-16.581255
 30
0.0
 40
1.499994
 50
359.999767
 51
90.000233
  0
ARC
  8
0
  6
CONTINUOUS
 62
     7
  5
C1
 10
-9.049207
 20
59.118738
 30
0.0
 40
1.5
 50
180.0
 51
0.0
  0
ARC
  8
0
  6
CONTINUOUS
 62
     7
  5
C2
 10
-13.249207
 20
59.118738
 30
0.0
 40
1.5
 50
180.0
 51
0.0
  0
ARC
  8
0
  6
CONTINUOUS
 62
     7
  5
C3
 10
-17.449207
 20
59.118738
 30
0.0
 40
1.5
 50
180.0
 51
0.0
  0
ARC
  8
0
  6
CONTINUOUS
 62
     7
  5
C4
 10
-21.649207
 20
63.118738
 30
0.0
 40
1.5
 50
180.0
 51
0.0
  0
ARC
  8
0
  6
CONTINUOUS
 62
     7
  5
C5
 10
-9.049207
 20
69.118738
 30
0.0
 40
1.5
 50
0.0
 51
180.0
  0
ARC
  8
0
  6
CONTINUOUS
 62
     7
  5
C6
 10
-13.249207
 20
73.118738
 30
0.0
 40
1.5
 50
0.0
 51
180.0
  0
ARC
  8
0
  6
CONTINUOUS
 62
     7
  5
C7
 10
-17.449207
 20
73.118738
 30
0.0
 40
1.5
 50
0.0
 51
180.0
  0
ARC
  8
0
  6
CONTINUOUS
 62
     7
  5
C8
 10
-21.649207
 20
73.118738
 30
0.0
 40
1.5
 50
0.0
 51
180.0
  0
ARC
  8
0
  6
CONTINUOUS
 62
     7
  5
C9
 10
61.350794
 20
58.618737
 30
0.0
 40
2.500002
 50
90.000035
 51
179.999965
  0
ARC
  8
0
  6
CONTINUOUS
 62
     7
  5
CA
 10
61.347965
 20
73.621023
 30
0.0
 40
2.502286
 50
192.601997
 51
270.064737
  0
ARC
  8
0
  6
CONTINUOUS
 62
     7
  5
CB
 10
6.350794
 20
73.618737
 30
0.0
 40
2.499998
 50
269.999965
 51
0.000035
  0
ARC
  8
0
  6
CONTINUOUS
 62
     7
  5
CC
 10
6.350791
 20
58.618737
 30
0.0
 40
2.500002
 50
0.000035
 51
89.999965
  0
ARC
  8
0
  6
CONTINUOUS
 62
     7
  5
CD
 10
-23.649209
 20
58.618737
 30
0.0
 40
2.500002
 50
0.000035
 51
89.999965
  0
ARC
  8
0
  6
CONTINUOUS
 62
     7
  5
CE
 10
1.150785
 20
73.618731
 30
0.0
 40
2.499992
 50
179.999825
 51
270.000175
  0
ARC
  8
0
  6
CONTINUOUS
 62
     7
  5
CF
 10
61.347508
 20
73.619338
 30
0.0
 40
2.253285
 50
359.984765
 51
159.220568
  0
CIRCLE
  8
0
  6
CONTINUOUS
 62
     7
  5
D0
 10
6.350793
 20
58.618735
 30
0.0
 40
2.25
  0
CIRCLE
  8
0
  6
CONTINUOUS
 62
     7
  5
D1
 10
6.350793
 20
73.618735
 30
0.0
 40
2.25
  0
CIRCLE
  8
0
  6
CONTINUOUS
 62
     7
  5
D2
 10
1.15078
 20
73.618735
 30
0.0
 40
2.25
  0
CIRCLE
  8
0
  6
CONTINUOUS
 62
     7
  5
D3
 10
-23.649207
 20
58.618735
 30
0.0
 40
2.25
  0
CIRCLE
  8
0
  6
CONTINUOUS
 62
     7
  5
D4
 10
-123.449211
 20
-82.581262
 30
0.0
 40
2.25
  0
CIRCLE
  8
0
  6
CONTINUOUS
 62
     7
  5
D5
 10
-15.149207
 20
-70.081262
 30
0.0
 40
2.599999
  0
CIRCLE
  8
0
  6
CONTINUOUS
 62
     7
  5
D6
 10
139.650796
 20
-75.081262
 30
0.0
 40
4.283
  0
CIRCLE
  8
0
  6
CONTINUOUS
 62
     2
  5
D7
 10
139.650796
 20
-75.081262
 30
0.0
 40
4.863999
  0
ARC
  8
0
  6
CONTINUOUS
 62
     7
  5
D8
 10
145.900804
 20
-24.787504
 30
0.0
 40
0.80002
 50
106.70875
 51
180.269137
  0
ARC
  8
0
  6
CONTINUOUS
 62
     7
  5
D9
 10
148.802183
 20
-24.78937
 30
0.0
 40
0.798611
 50
359.86427
 51
74.113267
  0
ARC
  8
0
  6
CONTINUOUS
 62
     7
  5
DA
 10
147.345793
 20
-29.781268
 30
0.0
 40
5.998608
 50
73.78566
 51
106.21434
  0
ARC
  8
0
  6
CONTINUOUS
 62
     7
  5
DB
 10
130.500808
 20
-24.787507
 30
0.0
 40
0.800024
 50
106.708961
 51
180.268927
  0
ARC
  8
0
  6
CONTINUOUS
 62
     7
  5
DC
 10
133.402187
 20
-24.789367
 30
0.0
 40
0.798607
 50
359.864058
 51
74.113479
  0
ARC
  8
0
  6
CONTINUOUS
 62
     7
  5
DD
 10
131.945793
 20
-29.781268
 30
0.0
 40
5.998608
 50
73.78566
 51
106.21434
  0
ARC
  8
0
  6
CONTINUOUS
 62
     7
  5
DE
 10
59.900804
 20
-24.787504
 30
0.0
 40
0.80002
 50
106.70875
 51
180.269137
  0
ARC
  8
0
  6
CONTINUOUS
 62
     7
  5
DF
 10
62.802183
 20
-24.78937
 30
0.0
 40
0.798611
 50
359.86427
 51
74.113267
  0
ARC
  8
0
  6
CONTINUOUS
 62
     7
  5
E0
 10
61.345793
 20
-29.781268
 30
0.0
 40
5.998608
 50
73.78566
 51
106.21434
  0
ARC
  8
0
  6
CONTINUOUS
 62
     7
  5
E1
 10
4.900794
 20
-24.787496
 30
0.0
 40
0.80001
 50
106.708224
 51
180.269663
  0
ARC
  8
0
  6
CONTINUOUS
 62
     7
  5
E2
 10
7.802183
 20
-24.78937
 30
0.0
 40
0.798611
 50
359.86427
 51
74.113267
  0
ARC
  8
0
  6
CONTINUOUS
 62
     7
  5
E3
 10
6.345793
 20
-29.781268
 30
0.0
 40
5.998608
 50
73.78566
 51
106.21434
  0
ARC
  8
0
  6
CONTINUOUS
 62
     7
  5
E4
 10
-25.099199
 20
-24.787502
 30
0.0
 40
0.800018
 50
106.708619
 51
180.269269
  0
ARC
  8
0
  6
CONTINUOUS
 62
     7
  5
E5
 10
-22.197814
 20
-24.789368
 30
0.0
 40
0.798609
 50
359.864137
 51
74.113399
  0
ARC
  8
0
  6
CONTINUOUS
 62
     7
  5
E6
 10
-23.654207
 20
-29.781268
 30
0.0
 40
5.998608
 50
73.78566
 51
106.21434
  0
ARC
  8
0
  6
CONTINUOUS
 62
     7
  5
E7
 10
-69.441099
 20
-70.032652
 30
0.0
 40
0.798611
 50
195.886733
 51
270.13573
  0
ARC
  8
0
  6
CONTINUOUS
 62
     7
  5
E8
 10
-69.442973
 20
-67.131263
 30
0.0
 40
0.80001
 50
89.730337
 51
163.291776
  0
ARC
  8
0
  6
CONTINUOUS
 62
     7
  5
E9
 10
-64.449193
 20
-68.576262
 30
0.0
 40
5.998616
 50
163.78568
 51
196.21432
  0
CIRCLE
  8
0
  6
CONTINUOUS
 62
     7
  5
EA
 10
-108.449211
 20
-68.581262
 30
0.0
 40
2.25
  0
ARC
  8
0
  6
CONTINUOUS
 62
     7
  5
EB
 10
61.350793
 20
58.618738
 30
0.0
 40
2.25
 50
0.0
 51
180.0
  0
CIRCLE
  8
0
  6
CONTINUOUS
 62
     2
  5
EC
 10
-115.949211
 20
-75.081262
 30
0.0
 40
6.5785
  0
CIRCLE
  8
0
  6
CONTINUOUS
 62
     7
  5
ED
 10
-115.949211
 20
-75.081262
 30
0.0
 40
5.7225
  0
ARC
  8
0
  6
CONTINUOUS
 62
     7
  5
EE
 10
-123.449209
 20
-82.581263
 30
0.0
 40
3.000002
 50
0.000029
 51
89.999971
  0
ARC
  8
0
  6
CONTINUOUS
 62
     7
  5
EF
 10
-108.449207
 20
-68.581262
 30
0.0
 40
3.0
 50
90.0
 51
270.0
  0
CIRCLE
  8
0
  6
CONTINUOUS
 62
     7
  5
F0
 10
58.850793
 20
-80.581262
 30
0.0
 40
2.599999
  0
CIRCLE
  8
0
  6
CONTINUOUS
 62
     7
  5
F1
 10
50.350793
 20
-59.581262
 30
0.0
 40
2.599999
  0
CIRCLE
  8
0
  6
CONTINUOUS
 62
     7
  5
F2
 10
43.850793
 20
-78.081262
 30
0.0
 40
3.099999
  0
CIRCLE
  8
0
  6
CONTINUOUS
 62
     7
  5
F3
 10
-7.149207
 20
-68.081262
 30
0.0
 40
3.099999
  0
ARC
  8
0
  6
CONTINUOUS
 62
     7
  5
F4
 10
-23.649207
 20
-82.581262
 30
0.0
 40
0.5
 50
180.0
 51
270.0
  0
ARC
  8
0
  6
CONTINUOUS
 62
     7
  5
F5
 10
-23.649207
 20
-56.581262
 30
0.0
 40
0.5
 50
90.0
 51
180.0
  0
ARC
  8
0
  6
CONTINUOUS
 62
     7
  5
F6
 10
61.350793
 20
-82.581262
 30
0.0
 40
0.5
 50
270.0
 51
0.0
  0
ARC
  8
0
  6
CONTINUOUS
 62
     7
  5
F7
 10
61.350793
 20
-56.581262
 30
0.0
 40
0.5
 50
0.0
 51
90.0
  0
LINE
  8
0
  6
PHANTOM
 62
     2
  5
F8
 10
8.450793
 20
-8.081262
 30
0.0
 11
9.350793
 21
-8.081262
 31
0.0
  0
LINE
  8
0
  6
PHANTOM
 62
     2
  5
F9
 10
-124.449207
 20
-22.581262
 30
0.0
 11
-124.449207
 21
-23.081262
 31
0.0
  0
LINE
  8
0
  6
CONTINUOUS
 62
     7
  5
FA
 10
134.700793
 20
-16.581262
 30
0.0
 11
134.700793
 21
-23.081262
 31
0.0
  0
LINE
  8
0
  6
PHANTOM
 62
     2
  5
FB
 10
12.350793
 20
68.718738
 30
0.0
 11
13.350793
 21
68.718738
 31
0.0
  0
LINE
  8
0
  6
PHANTOM
 62
     2
  5
FC
 10
14.350793
 20
72.718738
 30
0.0
 11
14.350793
 21
69.718738
 31
0.0
  0
LINE
  8
0
  6
PHANTOM
 62
     2
  5
FD
 10
12.350793
 20
73.718738
 30
0.0
 11
13.350793
 21
73.718738
 31
0.0
  0
LINE
  8
0
  6
PHANTOM
 62
     2
  5
FE
 10
11.350793
 20
72.718738
 30
0.0
 11
11.350793
 21
69.718738
 31
0.0
  0
LINE
  8
0
  6
PHANTOM
 62
     2
  5
FF
 10
8.750793
 20
66.168738
 30
0.0
 11
8.750793
 21
66.218738
 31
0.0
  0
LINE
  8
0
  6
PHANTOM
 62
     2
  5
100
 10
8.210793
 20
66.168738
 30
0.0
 11
8.750793
 21
66.168738
 31
0.0
  0
LINE
  8
0
  6
PHANTOM
 62
     2
  5
101
 10
10.850793
 20
70.218738
 30
0.0
 11
14.850793
 21
70.218738
 31
0.0
  0
LINE
  8
0
  6
PHANTOM
 62
     2
  5
102
 10
10.850793
 20
72.218738
 30
0.0
 11
14.850793
 21
72.218738
 31
0.0
  0
LINE
  8
0
  6
PHANTOM
 62
     2
  5
103
 10
12.850793
 20
74.218738
 30
0.0
 11
12.850793
 21
68.218738
 31
0.0
  0
LINE
  8
0
  6
PHANTOM
 62
     2
  5
104
 10
7.950793
 20
72.518738
 30
0.0
 11
8.750793
 21
72.518738
 31
0.0
  0
LINE
  8
0
  6
PHANTOM
 62
     2
  5
105
 10
8.210793
 20
72.768738
 30
0.0
 11
8.750793
 21
72.768738
 31
0.0
  0
LINE
  8
0
  6
PHANTOM
 62
     2
  5
106
 10
8.210793
 20
76.268738
 30
0.0
 11
8.750793
 21
76.268738
 31
0.0
  0
LINE
  8
0
  6
PHANTOM
 62
     2
  5
107
 10
9.350793
 20
76.218738
 30
0.0
 11
9.350793
 21
66.218738
 31
0.0
  0
LINE
  8
0
  6
PHANTOM
 62
     2
  5
108
 10
8.750793
 20
72.518738
 30
0.0
 11
8.750793
 21
76.268738
 31
0.0
  0
LINE
  8
0
  6
CENTER
 62
     2
  5
109
 10
4.450793
 20
74.518738
 30
0.0
 11
12.350793
 21
74.518738
 31
0.0
  0
LINE
  8
0
  6
CENTER
 62
     2
  5
10A
 10
4.450793
 20
67.918738
 30
0.0
 11
12.350793
 21
67.918738
 31
0.0
  0
LINE
  8
0
  6
PHANTOM
 62
     2
  5
10B
 10
7.950793
 20
66.718738
 30
0.0
 11
7.950793
 21
72.858738
 31
0.0
  0
LINE
  8
0
  6
PHANTOM
 62
     2
  5
10C
 10
8.450793
 20
66.218738
 30
0.0
 11
22.060793
 21
66.218738
 31
0.0
  0
LINE
  8
0
  6
PHANTOM
 62
     2
  5
10D
 10
8.750793
 20
76.218738
 30
0.0
 11
22.760793
 21
76.218738
 31
0.0
  0
LINE
  8
0
  6
PHANTOM
 62
     2
  5
10E
 10
11.350793
 20
-5.081262
 30
0.0
 11
11.350793
 21
-6.081262
 31
0.0
  0
LINE
  8
0
  6
PHANTOM
 62
     2
  5
10F
 10
14.350793
 20
-5.081262
 30
0.0
 11
11.350793
 21
-5.081262
 31
0.0
  0
LINE
  8
0
  6
PHANTOM
 62
     2
  5
110
 10
14.350793
 20
-6.081262
 30
0.0
 11
14.350793
 21
-5.081262
 31
0.0
  0
LINE
  8
0
  6
PHANTOM
 62
     2
  5
111
 10
11.350793
 20
-6.081262
 30
0.0
 11
14.350793
 21
-6.081262
 31
0.0
  0
LINE
  8
0
  6
CONTINUOUS
 62
     2
  5
112
 10
15.850793
 20
-1.921262
 30
0.0
 11
9.850793
 21
-0.321262
 31
0.0
  0
LINE
  8
0
  6
CONTINUOUS
 62
     2
  5
113
 10
15.850793
 20
0.148738
 30
0.0
 11
9.850793
 21
1.748738
 31
0.0
  0
LINE
  8
0
  6
PHANTOM
 62
     2
  5
114
 10
13.540793
 20
0.768738
 30
0.0
 11
13.540793
 21
4.918738
 31
0.0
  0
LINE
  8
0
  6
PHANTOM
 62
     2
  5
115
 10
12.160793
 20
1.138738
 30
0.0
 11
12.160793
 21
4.918738
 31
0.0
  0
LINE
  8
0
  6
PHANTOM
 62
     2
  5
116
 10
13.040793
 20
4.918738
 30
0.0
 11
13.040793
 21
10.418738
 31
0.0
  0
LINE
  8
0
  6
PHANTOM
 62
     2
  5
117
 10
12.660793
 20
4.918738
 30
0.0
 11
12.660793
 21
10.418738
 31
0.0
  0
LINE
  8
0
  6
PHANTOM
 62
     2
  5
118
 10
13.540793
 20
-5.081262
 30
0.0
 11
13.540793
 21
-1.301262
 31
0.0
  0
LINE
  8
0
  6
PHANTOM
 62
     2
  5
119
 10
12.160793
 20
-5.081262
 30
0.0
 11
12.160793
 21
-0.931262
 31
0.0
  0
LINE
  8
0
  6
PHANTOM
 62
     2
  5
11A
 10
14.350793
 20
-6.081262
 30
0.0
 11
24.370793
 21
-6.081262
 31
0.0
  0
LINE
  8
0
  6
PHANTOM
 62
     2
  5
11B
 10
13.040793
 20
10.418738
 30
0.0
 11
12.660793
 21
10.418738
 31
0.0
  0
LINE
  8
0
  6
PHANTOM
 62
     2
  5
11C
 10
13.540793
 20
4.918738
 30
0.0
 11
12.160793
 21
4.918738
 31
0.0
  0
LINE
  8
0
  6
CENTER
 62
     2
  5
11D
 10
12.850793
 20
-8.081262
 30
0.0
 11
12.850793
 21
13.528738
 31
0.0
  0
LINE
  8
0
  6
PHANTOM
 62
     2
  5
11E
 10
8.750793
 20
-8.031262
 30
0.0
 11
8.750793
 21
-8.081262
 31
0.0
  0
LINE
  8
0
  6
PHANTOM
 62
     2
  5
11F
 10
8.210793
 20
-8.031262
 30
0.0
 11
8.750793
 21
-8.031262
 31
0.0
  0
LINE
  8
0
  6
PHANTOM
 62
     2
  5
120
 10
8.210793
 20
-22.131262
 30
0.0
 11
8.750793
 21
-22.131262
 31
0.0
  0
LINE
  8
0
  6
PHANTOM
 62
     2
  5
121
 10
8.210793
 20
-18.631262
 30
0.0
 11
8.750793
 21
-18.631262
 31
0.0
  0
LINE
  8
0
  6
PHANTOM
 62
     2
  5
122
 10
8.750793
 20
-22.131262
 30
0.0
 11
8.750793
 21
-18.381262
 31
0.0
  0
LINE
  8
0
  6
PHANTOM
 62
     2
  5
123
 10
7.950793
 20
-18.381262
 30
0.0
 11
8.750793
 21
-18.381262
 31
0.0
  0
LINE
  8
0
  6
PHANTOM
 62
     2
  5
124
 10
9.350793
 20
-6.081262
 30
0.0
 11
11.350793
 21
-6.081262
 31
0.0
  0
LINE
  8
0
  6
CENTER
 62
     2
  5
125
 10
4.450793
 20
-20.381262
 30
0.0
 11
12.350793
 21
-20.381262
 31
0.0
  0
LINE
  8
0
  6
CENTER
 62
     2
  5
126
 10
4.450793
 20
-9.781262
 30
0.0
 11
12.350793
 21
-9.781262
 31
0.0
  0
LINE
  8
0
  6
PHANTOM
 62
     2
  5
127
 10
7.950793
 20
-18.721262
 30
0.0
 11
7.950793
 21
-8.581262
 31
0.0
  0
LINE
  8
0
  6
PHANTOM
 62
     2
  5
128
 10
8.750793
 20
-22.081262
 30
0.0
 11
9.350793
 21
-22.081262
 31
0.0
  0
LINE
  8
0
  6
PHANTOM
 62
     2
  5
129
 10
9.350793
 20
-22.081262
 30
0.0
 11
9.350793
 21
-6.081262
 31
0.0
  0
LINE
  8
0
  6
PHANTOM
 62
     2
  5
12A
 10
9.350793
 20
-22.081262
 30
0.0
 11
23.100793
 21
-22.081262
 31
0.0
  0
LINE
  8
0
  6
CONTINUOUS
 62
     7
  5
12B
 10
-26.149207
 20
-23.081262
 30
0.0
 11
27.850793
 21
-23.081262
 31
0.0
  0
LINE
  8
0
  6
PHANTOM
 62
     2
  5
12C
 10
-41.149207
 20
-23.081262
 30
0.0
 11
-26.149207
 21
-23.081262
 31
0.0
  0
LINE
  8
0
  6
CENTER
 62
     2
  5
12D
 10
-53.649207
 20
-12.101262
 30
0.0
 11
-53.649207
 21
-27.321262
 31
0.0
  0
LINE
  8
0
  6
CENTER
 62
     2
  5
12E
 10
-115.949207
 20
-12.561262
 30
0.0
 11
-115.949207
 21
-25.951262
 31
0.0
  0
LINE
  8
0
  6
PHANTOM
 62
     2
  5
12F
 10
-106.949207
 20
-23.081262
 30
0.0
 11
-107.949207
 21
-20.581262
 31
0.0
  0
LINE
  8
0
  6
PHANTOM
 62
     2
  5
130
 10
-111.449207
 20
-6.511262
 30
0.0
 11
-108.449207
 21
-6.511262
 31
0.0
  0
LINE
  8
0
  6
PHANTOM
 62
     2
  5
131
 10
-109.349207
 20
-0.031262
 30
0.0
 11
-109.349207
 21
-2.511262
 31
0.0
  0
LINE
  8
0
  6
PHANTOM
 62
     2
  5
132
 10
-110.549207
 20
0.008738
 30
0.0
 11
-110.549207
 21
-2.511262
 31
0.0
  0
LINE
  8
0
  6
PHANTOM
 62
     2
  5
133
 10
-111.049207
 20
-2.511262
 30
0.0
 11
-108.849207
 21
-2.511262
 31
0.0
  0
LINE
  8
0
  6
PHANTOM
 62
     2
  5
134
 10
-108.849207
 20
-2.511262
 30
0.0
 11
-108.849207
 21
-6.511262
 31
0.0
  0
LINE
  8
0
  6
PHANTOM
 62
     2
  5
135
 10
-111.049207
 20
-2.511262
 30
0.0
 11
-111.049207
 21
-6.511262
 31
0.0
  0
LINE
  8
0
  6
PHANTOM
 62
     2
  5
136
 10
-110.449207
 20
-2.511262
 30
0.0
 11
-110.449207
 21
-6.511262
 31
0.0
  0
LINE
  8
0
  6
PHANTOM
 62
     2
  5
137
 10
-109.449207
 20
-2.511262
 30
0.0
 11
-109.449207
 21
-6.511262
 31
0.0
  0
LINE
  8
0
  6
PHANTOM
 62
     2
  5
138
 10
-111.449207
 20
-14.181262
 30
0.0
 11
-111.449207
 21
-15.511262
 31
0.0
  0
LINE
  8
0
  6
PHANTOM
 62
     2
  5
139
 10
-108.449207
 20
-14.991262
 30
0.0
 11
-108.449207
 21
-20.581262
 31
0.0
  0
LINE
  8
0
  6
CONTINUOUS
 62
     2
  5
13A
 10
-106.949207
 20
-15.391262
 30
0.0
 11
-112.949207
 21
-13.781262
 31
0.0
  0
LINE
  8
0
  6
CONTINUOUS
 62
     2
  5
13B
 10
-106.949207
 20
-13.321262
 30
0.0
 11
-112.949207
 21
-11.711262
 31
0.0
  0
LINE
  8
0
  6
PHANTOM
 62
     2
  5
13C
 10
-108.449207
 20
-6.511262
 30
0.0
 11
-108.449207
 21
-12.921262
 31
0.0
  0
LINE
  8
0
  6
PHANTOM
 62
     2
  5
13D
 10
-111.449207
 20
-6.511262
 30
0.0
 11
-111.449207
 21
-12.111262
 31
0.0
  0
LINE
  8
0
  6
CENTER
 62
     2
  5
13E
 10
-109.949207
 20
0.248738
 30
0.0
 11
-109.949207
 21
-23.081262
 31
0.0
  0
LINE
  8
0
  6
CONTINUOUS
 62
     7
  5
13F
 10
-112.499207
 20
-15.081262
 30
0.0
 11
-119.399207
 21
-15.081262
 31
0.0
  0
LINE
  8
0
  6
CONTINUOUS
 62
     7
  5
140
 10
-110.999207
 20
-16.581262
 30
0.0
 11
-110.999207
 21
-23.081262
 31
0.0
  0
LINE
  8
0
  6
PHANTOM
 62
     2
  5
141
 10
-107.949207
 20
-20.581262
 30
0.0
 11
-110.999207
 21
-20.581262
 31
0.0
  0
LINE
  8
0
  6
CENTER
 62
     2
  5
142
 10
-1.149207
 20
-20.271262
 30
0.0
 11
-1.149207
 21
-41.811262
 31
0.0
  0
LINE
  8
0
  6
CONTINUOUS
 62
     7
  5
143
 10
-32.989207
 20
62.808738
 30
0.0
 11
-28.559207
 21
62.808738
 31
0.0
  0
LINE
  8
0
  6
CONTINUOUS
 62
     7
  5
144
 10
-38.849207
 20
62.808738
 30
0.0
 11
-34.789207
 21
62.808738
 31
0.0
  0
LINE
  8
0
  6
CONTINUOUS
 62
     7
  5
145
 10
35.350793
 20
-8.781262
 30
0.0
 11
35.350793
 21
-9.081262
 31
0.0
  0
LINE
  8
0
  6
CONTINUOUS
 62
     7
  5
146
 10
32.350793
 20
-8.781262
 30
0.0
 11
32.350793
 21
-9.081262
 31
0.0
  0
LINE
  8
0
  6
CONTINUOUS
 62
     7
  5
147
 10
35.350793
 20
-8.781262
 30
0.0
 11
32.350793
 21
-8.781262
 31
0.0
  0
LINE
  8
0
  6
CONTINUOUS
 62
     7
  5
148
 10
32.250793
 20
-9.081262
 30
0.0
 11
35.450793
 21
-9.081262
 31
0.0
  0
LINE
  8
0
  6
CONTINUOUS
 62
     7
  5
149
 10
32.250793
 20
-8.081262
 30
0.0
 11
32.250793
 21
-9.081262
 31
0.0
  0
LINE
  8
0
  6
CONTINUOUS
 62
     7
  5
14A
 10
35.450793
 20
-8.081262
 30
0.0
 11
35.450793
 21
-9.081262
 31
0.0
  0
LINE
  8
0
  6
CENTER
 62
     2
  5
14B
 10
33.850793
 20
-4.921262
 30
0.0
 11
33.850793
 21
-11.501262
 31
0.0
  0
LINE
  8
0
  6
CONTINUOUS
 62
     7
  5
14C
 10
-126.049207
 20
-22.081262
 30
0.0
 11
-126.049207
 21
-10.201262
 31
0.0
  0
LINE
  8
0
  6
PHANTOM
 62
     2
  5
14D
 10
-120.899207
 20
-20.581262
 30
0.0
 11
-121.449207
 21
-20.581262
 31
0.0
  0
LINE
  8
0
  6
PHANTOM
 62
     2
  5
14E
 10
-121.449207
 20
-20.581262
 30
0.0
 11
-121.949207
 21
-23.081262
 31
0.0
  0
LINE
  8
0
  6
PHANTOM
 62
     2
  5
14F
 10
130.750793
 20
-23.081262
 30
0.0
 11
131.750793
 21
-20.581262
 31
0.0
  0
LINE
  8
0
  6
PHANTOM
 62
     2
  5
150
 10
131.750793
 20
-20.581262
 30
0.0
 11
139.750793
 21
-20.581262
 31
0.0
  0
LINE
  8
0
  6
PHANTOM
 62
     2
  5
151
 10
-33.839207
 20
71.618738
 30
0.0
 11
-33.449207
 21
71.618738
 31
0.0
  0
LINE
  8
0
  6
PHANTOM
 62
     2
  5
152
 10
-30.749207
 20
69.558738
 30
0.0
 11
-30.749207
 21
66.668738
 31
0.0
  0
LINE
  8
0
  6
PHANTOM
 62
     2
  5
153
 10
-31.549207
 20
69.558738
 30
0.0
 11
-31.549207
 21
66.668738
 31
0.0
  0
LINE
  8
0
  6
PHANTOM
 62
     2
  5
154
 10
-35.749207
 20
69.558738
 30
0.0
 11
-35.749207
 21
66.668738
 31
0.0
  0
LINE
  8
0
  6
PHANTOM
 62
     2
  5
155
 10
-36.549207
 20
69.558738
 30
0.0
 11
-36.549207
 21
66.668738
 31
0.0
  0
LINE
  8
0
  6
PHANTOM
 62
     2
  5
156
 10
-33.839207
 20
66.618738
 30
0.0
 11
-33.449207
 21
66.618738
 31
0.0
  0
LINE
  8
0
  6
PHANTOM
 62
     2
  5
157
 10
-33.839207
 20
69.618738
 30
0.0
 11
-33.449207
 21
69.618738
 31
0.0
  0
LINE
  8
0
  6
PHANTOM
 62
     2
  5
158
 10
-32.849207
 20
71.618738
 30
0.0
 11
-28.149207
 21
71.618738
 31
0.0
  0
LINE
  8
0
  6
PHANTOM
 62
     2
  5
159
 10
-32.269207
 20
72.118738
 30
0.0
 11
-27.149207
 21
72.118738
 31
0.0
  0
LINE
  8
0
  6
PHANTOM
 62
     2
  5
15A
 10
-39.149207
 20
71.618738
 30
0.0
 11
-40.149207
 21
72.118738
 31
0.0
  0
LINE
  8
0
  6
PHANTOM
 62
     2
  5
15B
 10
-28.149207
 20
71.618738
 30
0.0
 11
-27.149207
 21
72.118738
 31
0.0
  0
LINE
  8
0
  6
PHANTOM
 62
     2
  5
15C
 10
-28.149207
 20
58.118738
 30
0.0
 11
-27.149207
 21
57.118738
 31
0.0
  0
LINE
  8
0
  6
PHANTOM
 62
     2
  5
15D
 10
-39.149207
 20
58.118738
 30
0.0
 11
-40.149207
 21
57.118738
 31
0.0
  0
LINE
  8
0
  6
PHANTOM
 62
     2
  5
15E
 10
-39.149207
 20
58.118738
 30
0.0
 11
-28.149207
 21
58.118738
 31
0.0
  0
LINE
  8
0
  6
PHANTOM
 62
     2
  5
15F
 10
-28.149207
 20
71.618738
 30
0.0
 11
-28.149207
 21
58.118738
 31
0.0
  0
LINE
  8
0
  6
PHANTOM
 62
     2
  5
160
 10
-39.149207
 20
71.618738
 30
0.0
 11
-39.149207
 21
58.118738
 31
0.0
  0
LINE
  8
0
  6
PHANTOM
 62
     2
  5
161
 10
-39.149207
 20
71.618738
 30
0.0
 11
-34.449207
 21
71.618738
 31
0.0
  0
LINE
  8
0
  6
PHANTOM
 62
     2
  5
162
 10
-40.149207
 20
72.118738
 30
0.0
 11
-35.019207
 21
72.118738
 31
0.0
  0
LINE
  8
0
  6
PHANTOM
 62
     2
  5
163
 10
-40.149207
 20
57.118738
 30
0.0
 11
-27.149207
 21
57.118738
 31
0.0
  0
LINE
  8
0
  6
PHANTOM
 62
     2
  5
164
 10
-27.149207
 20
75.518738
 30
0.0
 11
-27.149207
 21
57.118738
 31
0.0
  0
LINE
  8
0
  6
PHANTOM
 62
     2
  5
165
 10
-40.149207
 20
75.518738
 30
0.0
 11
-40.149207
 21
57.118738
 31
0.0
  0
LINE
  8
0
  6
PHANTOM
 62
     2
  5
166
 10
-40.149207
 20
75.518738
 30
0.0
 11
-27.149207
 21
75.518738
 31
0.0
  0
LINE
  8
0
  6
CONTINUOUS
 62
     7
  5
167
 10
-41.149207
 20
76.318738
 30
0.0
 11
-41.149207
 21
55.918738
 31
0.0
  0
LINE
  8
0
  6
CONTINUOUS
 62
     7
  5
168
 10
-26.149207
 20
55.918738
 30
0.0
 11
-26.149207
 21
55.618738
 31
0.0
  0
LINE
  8
0
  6
CONTINUOUS
 62
     7
  5
169
 10
-26.149207
 20
76.618738
 30
0.0
 11
-26.149207
 21
76.318738
 31
0.0
  0
LINE
  8
0
  6
CONTINUOUS
 62
     7
  5
16A
 10
-26.149207
 20
76.318738
 30
0.0
 11
-26.149207
 21
55.918738
 31
0.0
  0
LINE
  8
0
  6
CONTINUOUS
 62
     7
  5
16B
 10
3.850793
 20
55.918738
 30
0.0
 11
63.850793
 21
55.918738
 31
0.0
  0
LINE
  8
0
  6
CONTINUOUS
 62
     7
  5
16C
 10
3.850793
 20
76.318738
 30
0.0
 11
63.850793
 21
76.318738
 31
0.0
  0
LINE
  8
0
  6
CONTINUOUS
 62
     7
  5
16D
 10
-126.149207
 20
-23.081262
 30
0.0
 11
-126.049207
 21
-23.081262
 31
0.0
  0
LINE
  8
0
  6
CONTINUOUS
 62
     7
  5
16E
 10
-105.749207
 20
-23.081262
 30
0.0
 11
-120.899207
 21
-23.081262
 31
0.0
  0
LINE
  8
0
  6
PHANTOM
 62
     2
  5
16F
 10
-34.749207
 20
-2.511262
 30
0.0
 11
-34.749207
 21
-6.511262
 31
0.0
  0
LINE
  8
0
  6
PHANTOM
 62
     2
  5
170
 10
-33.149207
 20
-2.511262
 30
0.0
 11
-33.149207
 21
-6.511262
 31
0.0
  0
LINE
  8
0
  6
PHANTOM
 62
     2
  5
171
 10
-32.549207
 20
-2.511262
 30
0.0
 11
-32.549207
 21
-6.511262
 31
0.0
  0
LINE
  8
0
  6
PHANTOM
 62
     2
  5
172
 10
-34.749207
 20
-2.511262
 30
0.0
 11
-32.549207
 21
-2.511262
 31
0.0
  0
LINE
  8
0
  6
PHANTOM
 62
     2
  5
173
 10
-33.049207
 20
-0.031262
 30
0.0
 11
-33.049207
 21
-2.511262
 31
0.0
  0
LINE
  8
0
  6
PHANTOM
 62
     2
  5
174
 10
-34.249207
 20
0.008738
 30
0.0
 11
-34.249207
 21
-2.511262
 31
0.0
  0
LINE
  8
0
  6
PHANTOM
 62
     2
  5
175
 10
-34.149207
 20
-2.511262
 30
0.0
 11
-34.149207
 21
-6.511262
 31
0.0
  0
LINE
  8
0
  6
PHANTOM
 62
     2
  5
176
 10
135.250793
 20
-6.511262
 30
0.0
 11
132.250793
 21
-6.511262
 31
0.0
  0
LINE
  8
0
  6
PHANTOM
 62
     2
  5
177
 10
133.150793
 20
-0.031262
 30
0.0
 11
133.150793
 21
-2.511262
 31
0.0
  0
LINE
  8
0
  6
PHANTOM
 62
     2
  5
178
 10
134.350793
 20
0.008738
 30
0.0
 11
134.350793
 21
-2.511262
 31
0.0
  0
LINE
  8
0
  6
PHANTOM
 62
     2
  5
179
 10
134.850793
 20
-2.511262
 30
0.0
 11
132.650793
 21
-2.511262
 31
0.0
  0
LINE
  8
0
  6
PHANTOM
 62
     2
  5
17A
 10
132.650793
 20
-2.511262
 30
0.0
 11
132.650793
 21
-6.511262
 31
0.0
  0
LINE
  8
0
  6
PHANTOM
 62
     2
  5
17B
 10
134.850793
 20
-2.511262
 30
0.0
 11
134.850793
 21
-6.511262
 31
0.0
  0
LINE
  8
0
  6
PHANTOM
 62
     2
  5
17C
 10
134.250793
 20
-2.511262
 30
0.0
 11
134.250793
 21
-6.511262
 31
0.0
  0
LINE
  8
0
  6
PHANTOM
 62
     2
  5
17D
 10
133.250793
 20
-2.511262
 30
0.0
 11
133.250793
 21
-6.511262
 31
0.0
  0
LINE
  8
0
  6
PHANTOM
 62
     2
  5
17E
 10
135.250793
 20
-14.991262
 30
0.0
 11
135.250793
 21
-20.581262
 31
0.0
  0
LINE
  8
0
  6
PHANTOM
 62
     2
  5
17F
 10
132.250793
 20
-14.181262
 30
0.0
 11
132.250793
 21
-20.581262
 31
0.0
  0
LINE
  8
0
  6
CONTINUOUS
 62
     2
  5
180
 10
136.750793
 20
-15.391262
 30
0.0
 11
130.750793
 21
-13.781262
 31
0.0
  0
LINE
  8
0
  6
CONTINUOUS
 62
     2
  5
181
 10
136.750793
 20
-13.321262
 30
0.0
 11
130.750793
 21
-11.711262
 31
0.0
  0
LINE
  8
0
  6
PHANTOM
 62
     2
  5
182
 10
132.250793
 20
-6.511262
 30
0.0
 11
132.250793
 21
-12.111262
 31
0.0
  0
LINE
  8
0
  6
PHANTOM
 62
     2
  5
183
 10
135.250793
 20
-6.511262
 30
0.0
 11
135.250793
 21
-12.921262
 31
0.0
  0
LINE
  8
0
  6
CENTER
 62
     2
  5
184
 10
133.750793
 20
0.248738
 30
0.0
 11
133.750793
 21
-23.081262
 31
0.0
  0
LINE
  8
0
  6
PHANTOM
 62
     2
  5
185
 10
-35.149207
 20
-6.511262
 30
0.0
 11
-32.149207
 21
-6.511262
 31
0.0
  0
LINE
  8
0
  6
PHANTOM
 62
     2
  5
186
 10
-32.149207
 20
-14.991262
 30
0.0
 11
-32.149207
 21
-20.581262
 31
0.0
  0
LINE
  8
0
  6
PHANTOM
 62
     2
  5
187
 10
-35.149207
 20
-14.181262
 30
0.0
 11
-35.149207
 21
-20.581262
 31
0.0
  0
LINE
  8
0
  6
CONTINUOUS
 62
     2
  5
188
 10
56.850793
 20
-1.921262
 30
0.0
 11
50.850793
 21
-0.321262
 31
0.0
  0
LINE
  8
0
  6
CONTINUOUS
 62
     2
  5
189
 10
56.850793
 20
0.148738
 30
0.0
 11
50.850793
 21
1.748738
 31
0.0
  0
LINE
  8
0
  6
CENTER
 62
     2
  5
18A
 10
-33.649207
 20
3.038738
 30
0.0
 11
-33.649207
 21
-27.901262
 31
0.0
  0
LINE
  8
0
  6
PHANTOM
 62
     2
  5
18B
 10
-35.149207
 20
-6.511262
 30
0.0
 11
-35.149207
 21
-12.111262
 31
0.0
  0
LINE
  8
0
  6
PHANTOM
 62
     2
  5
18C
 10
-32.149207
 20
-6.511262
 30
0.0
 11
-32.149207
 21
-12.921262
 31
0.0
  0
LINE
  8
0
  6
CENTER
 62
     2
  5
18D
 10
-53.649207
 20
72.118738
 30
0.0
 11
-53.649207
 21
60.118738
 31
0.0
  0
LINE
  8
0
  6
CENTER
 62
     2
  5
18E
 10
-59.649207
 20
66.118738
 30
0.0
 11
-47.649207
 21
66.118738
 31
0.0
  0
LINE
  8
0
  6
CONTINUOUS
 62
     7
  5
18F
 10
136.200793
 20
-15.081262
 30
0.0
 11
139.750793
 21
-15.081262
 31
0.0
  0
LINE
  8
0
  6
CONTINUOUS
 62
     7
  5
190
 10
-120.899207
 20
-16.581262
 30
0.0
 11
-120.899207
 21
-22.081262
 31
0.0
  0
LINE
  8
0
  6
PHANTOM
 62
     2
  5
191
 10
-28.149207
 20
-20.581262
 30
0.0
 11
-27.149207
 21
-23.081262
 31
0.0
  0
LINE
  8
0
  6
PHANTOM
 62
     2
  5
192
 10
-40.149207
 20
-23.081262
 30
0.0
 11
-39.149207
 21
-20.581262
 31
0.0
  0
LINE
  8
0
  6
PHANTOM
 62
     2
  5
193
 10
-39.149207
 20
-20.581262
 30
0.0
 11
-28.149207
 21
-20.581262
 31
0.0
  0
LINE
  8
0
  6
CONTINUOUS
 62
     7
  5
194
 10
-66.149207
 20
76.318738
 30
0.0
 11
-66.149207
 21
55.918738
 31
0.0
  0
LINE
  8
0
  6
CONTINUOUS
 62
     7
  5
195
 10
-66.149207
 20
-23.081262
 30
0.0
 11
-66.149207
 21
-63.081262
 31
0.0
  0
LINE
  8
0
  6
CONTINUOUS
 62
     7
  5
196
 10
-41.149207
 20
-23.081262
 30
0.0
 11
-41.149207
 21
-63.081262
 31
0.0
  0
LINE
  8
0
  6
CONTINUOUS
 62
     7
  5
197
 10
-24.149207
 20
54.518738
 30
0.0
 11
61.850793
 21
54.518738
 31
0.0
  0
LINE
  8
0
  6
CONTINUOUS
 62
     7
  5
198
 10
-24.149207
 20
77.718738
 30
0.0
 11
61.850793
 21
77.718738
 31
0.0
  0
LINE
  8
0
  6
CONTINUOUS
 62
     7
  5
199
 10
151.250793
 20
-56.081262
 30
0.0
 11
151.250793
 21
-83.081262
 31
0.0
  0
LINE
  8
0
  6
CONTINUOUS
 62
     7
  5
19A
 10
128.050793
 20
-56.081262
 30
0.0
 11
128.050793
 21
-83.081262
 31
0.0
  0
LINE
  8
0
  6
CONTINUOUS
 62
     7
  5
19B
 10
-104.349207
 20
-56.081262
 30
0.0
 11
-104.349207
 21
-83.081262
 31
0.0
  0
LINE
  8
0
  6
CONTINUOUS
 62
     7
  5
19C
 10
-127.549207
 20
-56.081262
 30
0.0
 11
-127.549207
 21
-83.081262
 31
0.0
  0
LINE
  8
0
  6
CONTINUOUS
 62
     7
  5
19D
 10
-121.999207
 20
-6.581262
 30
0.0
 11
-120.099207
 21
-6.581262
 31
0.0
  0
LINE
  8
0
  6
CONTINUOUS
 62
     7
  5
19E
 10
-121.999207
 20
-6.581262
 30
0.0
 11
-121.999207
 21
-6.981262
 31
0.0
  0
LINE
  8
0
  6
CONTINUOUS
 62
     7
  5
19F
 10
-120.099207
 20
-6.581262
 30
0.0
 11
-120.099207
 21
-6.981262
 31
0.0
  0
LINE
  8
0
  6
CONTINUOUS
 62
     7
  5
1A0
 10
35.500793
 20
-6.581262
 30
0.0
 11
35.500793
 21
-6.981262
 31
0.0
  0
LINE
  8
0
  6
CONTINUOUS
 62
     7
  5
1A1
 10
37.400793
 20
-6.581262
 30
0.0
 11
37.400793
 21
-6.981262
 31
0.0
  0
LINE
  8
0
  6
CENTER
 62
     2
  5
1A2
 10
36.450793
 20
-5.781262
 30
0.0
 11
36.450793
 21
-8.571262
 31
0.0
  0
LINE
  8
0
  6
CONTINUOUS
 62
     7
  5
1A3
 10
35.500793
 20
-6.581262
 30
0.0
 11
37.400793
 21
-6.581262
 31
0.0
  0
LINE
  8
0
  6
CENTER
 62
     2
  5
1A4
 10
-115.949207
 20
-67.581262
 30
0.0
 11
-115.949207
 21
-82.581262
 31
0.0
  0
LINE
  8
0
  6
CENTER
 62
     2
  5
1A5
 10
-123.449207
 20
-75.081262
 30
0.0
 11
-108.449207
 21
-75.081262
 31
0.0
  0
LINE
  8
0
  6
CONTINUOUS
 62
     7
  5
1A6
 10
129.450793
 20
-23.081262
 30
0.0
 11
139.750793
 21
-23.081262
 31
0.0
  0
LINE
  8
0
  6
CONTINUOUS
 62
     7
  5
1A7
 10
149.750793
 20
-23.081262
 30
0.0
 11
149.850793
 21
-23.081262
 31
0.0
  0
LINE
  8
0
  6
CONTINUOUS
 62
     7
  5
1A8
 10
38.850793
 20
-23.081262
 30
0.0
 11
63.850793
 21
-23.081262
 31
0.0
  0
LINE
  8
0
  6
CENTER
 62
     2
  5
1A9
 10
139.650793
 20
-69.081262
 30
0.0
 11
139.650793
 21
-81.081262
 31
0.0
  0
LINE
  8
0
  6
CENTER
 62
     2
  5
1AA
 10
133.650793
 20
-75.081262
 30
0.0
 11
145.650793
 21
-75.081262
 31
0.0
  0
LINE
  8
0
  6
CONTINUOUS
 62
     7
  5
1AB
 10
-105.749207
 20
-23.081262
 30
0.0
 11
-105.749207
 21
-63.081262
 31
0.0
  0
LINE
  8
0
  6
CONTINUOUS
 62
     7
  5
1AC
 10
-126.149207
 20
-23.081262
 30
0.0
 11
-126.149207
 21
-63.081262
 31
0.0
  0
LINE
  8
0
  6
CONTINUOUS
 62
     7
  5
1AD
 10
-123.049207
 20
-6.981262
 30
0.0
 11
-123.049207
 21
-8.081262
 31
0.0
  0
LINE
  8
0
  6
CONTINUOUS
 62
     7
  5
1AE
 10
-121.049207
 20
-7.161262
 30
0.0
 11
-121.049207
 21
-8.081262
 31
0.0
  0
LINE
  8
0
  6
CONTINUOUS
 62
     7
  5
1AF
 10
-119.049207
 20
-6.981262
 30
0.0
 11
-123.049207
 21
-6.981262
 31
0.0
  0
LINE
  8
0
  6
CONTINUOUS
 62
     7
  5
1B0
 10
-119.049207
 20
-6.981262
 30
0.0
 11
-119.049207
 21
-8.081262
 31
0.0
  0
LINE
  8
0
  6
CONTINUOUS
 62
     7
  5
1B1
 10
-119.109207
 20
0.428738
 30
0.0
 11
-119.109207
 21
4.918738
 31
0.0
  0
LINE
  8
0
  6
CONTINUOUS
 62
     7
  5
1B2
 10
-120.489207
 20
0.798738
 30
0.0
 11
-120.489207
 21
4.918738
 31
0.0
  0
LINE
  8
0
  6
CONTINUOUS
 62
     7
  5
1B3
 10
-121.609207
 20
1.098738
 30
0.0
 11
-121.609207
 21
4.918738
 31
0.0
  0
LINE
  8
0
  6
CONTINUOUS
 62
     7
  5
1B4
 10
-122.989207
 20
1.468738
 30
0.0
 11
-122.989207
 21
4.918738
 31
0.0
  0
LINE
  8
0
  6
CONTINUOUS
 62
     7
  5
1B5
 10
-119.989207
 20
4.918738
 30
0.0
 11
-119.989207
 21
10.418738
 31
0.0
  0
LINE
  8
0
  6
CONTINUOUS
 62
     7
  5
1B6
 10
-119.609207
 20
4.918738
 30
0.0
 11
-119.609207
 21
10.418738
 31
0.0
  0
LINE
  8
0
  6
CONTINUOUS
 62
     7
  5
1B7
 10
-122.489207
 20
4.918738
 30
0.0
 11
-122.489207
 21
10.418738
 31
0.0
  0
LINE
  8
0
  6
CONTINUOUS
 62
     7
  5
1B8
 10
-122.109207
 20
4.918738
 30
0.0
 11
-122.109207
 21
10.418738
 31
0.0
  0
LINE
  8
0
  6
CONTINUOUS
 62
     7
  5
1B9
 10
-119.109207
 20
-5.081262
 30
0.0
 11
-119.109207
 21
-1.641262
 31
0.0
  0
LINE
  8
0
  6
CONTINUOUS
 62
     7
  5
1BA
 10
-120.489207
 20
-5.081262
 30
0.0
 11
-120.489207
 21
-1.271262
 31
0.0
  0
LINE
  8
0
  6
CONTINUOUS
 62
     7
  5
1BB
 10
-122.989207
 20
-5.081262
 30
0.0
 11
-122.989207
 21
-0.601262
 31
0.0
  0
LINE
  8
0
  6
CONTINUOUS
 62
     7
  5
1BC
 10
-121.609207
 20
-5.081262
 30
0.0
 11
-121.609207
 21
-0.971262
 31
0.0
  0
LINE
  8
0
  6
CONTINUOUS
 62
     7
  5
1BD
 10
-118.549207
 20
-6.081262
 30
0.0
 11
-116.049207
 21
-6.081262
 31
0.0
  0
LINE
  8
0
  6
CENTER
 62
     2
  5
1BE
 10
-126.849207
 20
-9.781262
 30
0.0
 11
-121.849207
 21
-9.781262
 31
0.0
  0
LINE
  8
0
  6
CENTER
 62
     2
  5
1BF
 10
-124.349207
 20
-12.281262
 30
0.0
 11
-124.349207
 21
-7.281262
 31
0.0
  0
LINE
  8
0
  6
CONTINUOUS
 62
     7
  5
1C0
 10
-123.929207
 20
-8.081262
 30
0.0
 11
-116.049207
 21
-8.081262
 31
0.0
  0
LINE
  8
0
  6
CONTINUOUS
 62
     7
  5
1C1
 10
-126.049207
 20
-9.371262
 30
0.0
 11
-126.049207
 21
-6.081262
 31
0.0
  0
LINE
  8
0
  6
CONTINUOUS
 62
     7
  5
1C2
 10
-116.049207
 20
-15.081262
 30
0.0
 11
-116.049207
 21
-6.081262
 31
0.0
  0
LINE
  8
0
  6
CONTINUOUS
 62
     7
  5
1C3
 10
-124.349207
 20
-11.781262
 30
0.0
 11
-126.049207
 21
-11.781262
 31
0.0
  0
LINE
  8
0
  6
CONTINUOUS
 62
     7
  5
1C4
 10
-122.349207
 20
-9.781262
 30
0.0
 11
-122.349207
 21
-8.081262
 31
0.0
  0
LINE
  8
0
  6
CONTINUOUS
 62
     7
  5
1C5
 10
-126.049207
 20
-8.081262
 30
0.0
 11
-124.759207
 21
-8.081262
 31
0.0
  0
LINE
  8
0
  6
CONTINUOUS
 62
     2
  5
1C6
 10
-116.799207
 20
-0.191262
 30
0.0
 11
-125.299207
 21
2.088738
 31
0.0
  0
LINE
  8
0
  6
CONTINUOUS
 62
     2
  5
1C7
 10
-116.799207
 20
-2.261262
 30
0.0
 11
-125.299207
 21
0.018738
 31
0.0
  0
LINE
  8
0
  6
CONTINUOUS
 62
     7
  5
1C8
 10
-121.609207
 20
4.918738
 30
0.0
 11
-122.989207
 21
4.918738
 31
0.0
  0
LINE
  8
0
  6
CONTINUOUS
 62
     7
  5
1C9
 10
-119.109207
 20
4.918738
 30
0.0
 11
-120.489207
 21
4.918738
 31
0.0
  0
LINE
  8
0
  6
CONTINUOUS
 62
     7
  5
1CA
 10
-122.109207
 20
10.418738
 30
0.0
 11
-122.489207
 21
10.418738
 31
0.0
  0
LINE
  8
0
  6
CONTINUOUS
 62
     7
  5
1CB
 10
-119.609207
 20
10.418738
 30
0.0
 11
-119.989207
 21
10.418738
 31
0.0
  0
LINE
  8
0
  6
CENTER
 62
     2
  5
1CC
 10
-119.799207
 20
-8.081262
 30
0.0
 11
-119.799207
 21
13.528738
 31
0.0
  0
LINE
  8
0
  6
CENTER
 62
     2
  5
1CD
 10
-122.299207
 20
-8.081262
 30
0.0
 11
-122.299207
 21
13.528738
 31
0.0
  0
LINE
  8
0
  6
CONTINUOUS
 62
     7
  5
1CE
 10
-126.049207
 20
-6.081262
 30
0.0
 11
-123.549207
 21
-6.081262
 31
0.0
  0
LINE
  8
0
  6
CONTINUOUS
 62
     7
  5
1CF
 10
34.140793
 20
-7.161262
 30
0.0
 11
34.140793
 21
-8.081262
 31
0.0
  0
LINE
  8
0
  6
CONTINUOUS
 62
     7
  5
1D0
 10
34.450793
 20
-6.981262
 30
0.0
 11
34.140793
 21
-7.161262
 31
0.0
  0
LINE
  8
0
  6
CONTINUOUS
 62
     7
  5
1D1
 10
35.290793
 20
-7.161262
 30
0.0
 11
35.290793
 21
-8.081262
 31
0.0
  0
LINE
  8
0
  6
CONTINUOUS
 62
     7
  5
1D2
 10
37.600793
 20
-7.161262
 30
0.0
 11
37.600793
 21
-8.081262
 31
0.0
  0
LINE
  8
0
  6
CONTINUOUS
 62
     7
  5
1D3
 10
38.450793
 20
-6.981262
 30
0.0
 11
34.450793
 21
-6.981262
 31
0.0
  0
LINE
  8
0
  6
CONTINUOUS
 62
     7
  5
1D4
 10
38.450793
 20
-6.981262
 30
0.0
 11
38.750793
 21
-7.161262
 31
0.0
  0
LINE
  8
0
  6
CONTINUOUS
 62
     7
  5
1D5
 10
38.750793
 20
-7.161262
 30
0.0
 11
38.750793
 21
-8.081262
 31
0.0
  0
LINE
  8
0
  6
CENTER
 62
     2
  5
1D6
 10
36.450793
 20
74.218738
 30
0.0
 11
36.450793
 21
68.218738
 31
0.0
  0
LINE
  8
0
  6
CENTER
 62
     2
  5
1D7
 10
33.450793
 20
71.218738
 30
0.0
 11
39.450793
 21
71.218738
 31
0.0
  0
LINE
  8
0
  6
CONTINUOUS
 62
     7
  5
1D8
 10
37.600793
 20
69.218738
 30
0.0
 11
38.750793
 21
71.218738
 31
0.0
  0
LINE
  8
0
  6
CONTINUOUS
 62
     7
  5
1D9
 10
34.140793
 20
71.218738
 30
0.0
 11
35.290793
 21
73.218738
 31
0.0
  0
LINE
  8
0
  6
CONTINUOUS
 62
     7
  5
1DA
 10
38.750793
 20
71.218738
 30
0.0
 11
37.600793
 21
73.218738
 31
0.0
  0
LINE
  8
0
  6
CONTINUOUS
 62
     7
  5
1DB
 10
35.290793
 20
69.218738
 30
0.0
 11
34.140793
 21
71.218738
 31
0.0
  0
LINE
  8
0
  6
CONTINUOUS
 62
     7
  5
1DC
 10
35.290793
 20
73.218738
 30
0.0
 11
37.600793
 21
73.218738
 31
0.0
  0
LINE
  8
0
  6
CONTINUOUS
 62
     7
  5
1DD
 10
35.290793
 20
69.218738
 30
0.0
 11
37.600793
 21
69.218738
 31
0.0
  0
LINE
  8
0
  6
CENTER
 62
     2
  5
1DE
 10
33.850793
 20
69.718738
 30
0.0
 11
33.850793
 21
65.718738
 31
0.0
  0
LINE
  8
0
  6
CENTER
 62
     2
  5
1DF
 10
33.850793
 20
76.718738
 30
0.0
 11
33.850793
 21
72.718738
 31
0.0
  0
LINE
  8
0
  6
CENTER
 62
     2
  5
1E0
 10
31.850793
 20
67.718738
 30
0.0
 11
35.850793
 21
67.718738
 31
0.0
  0
LINE
  8
0
  6
CENTER
 62
     2
  5
1E1
 10
31.850793
 20
74.718738
 30
0.0
 11
35.850793
 21
74.718738
 31
0.0
  0
LINE
  8
0
  6
CONTINUOUS
 62
     7
  5
1E2
 10
146.690793
 20
0.428738
 30
0.0
 11
146.690793
 21
4.918738
 31
0.0
  0
LINE
  8
0
  6
CONTINUOUS
 62
     7
  5
1E3
 10
145.310793
 20
0.798738
 30
0.0
 11
145.310793
 21
4.918738
 31
0.0
  0
LINE
  8
0
  6
CONTINUOUS
 62
     7
  5
1E4
 10
144.190793
 20
1.098738
 30
0.0
 11
144.190793
 21
4.918738
 31
0.0
  0
LINE
  8
0
  6
CONTINUOUS
 62
     7
  5
1E5
 10
142.810793
 20
1.468738
 30
0.0
 11
142.810793
 21
4.918738
 31
0.0
  0
LINE
  8
0
  6
CONTINUOUS
 62
     7
  5
1E6
 10
145.810793
 20
4.918738
 30
0.0
 11
145.810793
 21
10.418738
 31
0.0
  0
LINE
  8
0
  6
CONTINUOUS
 62
     7
  5
1E7
 10
146.190793
 20
4.918738
 30
0.0
 11
146.190793
 21
10.418738
 31
0.0
  0
LINE
  8
0
  6
CONTINUOUS
 62
     7
  5
1E8
 10
143.310793
 20
4.918738
 30
0.0
 11
143.310793
 21
10.418738
 31
0.0
  0
LINE
  8
0
  6
CONTINUOUS
 62
     7
  5
1E9
 10
143.690793
 20
4.918738
 30
0.0
 11
143.690793
 21
10.418738
 31
0.0
  0
LINE
  8
0
  6
CONTINUOUS
 62
     7
  5
1EA
 10
146.690793
 20
-5.081262
 30
0.0
 11
146.690793
 21
-1.641262
 31
0.0
  0
LINE
  8
0
  6
CONTINUOUS
 62
     7
  5
1EB
 10
145.310793
 20
-5.081262
 30
0.0
 11
145.310793
 21
-1.271262
 31
0.0
  0
LINE
  8
0
  6
CONTINUOUS
 62
     7
  5
1EC
 10
142.810793
 20
-5.081262
 30
0.0
 11
142.810793
 21
-0.601262
 31
0.0
  0
LINE
  8
0
  6
CONTINUOUS
 62
     7
  5
1ED
 10
144.190793
 20
-5.081262
 30
0.0
 11
144.190793
 21
-0.971262
 31
0.0
  0
LINE
  8
0
  6
CONTINUOUS
 62
     7
  5
1EE
 10
147.250793
 20
-6.081262
 30
0.0
 11
149.750793
 21
-6.081262
 31
0.0
  0
LINE
  8
0
  6
CENTER
 62
     2
  5
1EF
 10
138.950793
 20
-9.781262
 30
0.0
 11
143.950793
 21
-9.781262
 31
0.0
  0
LINE
  8
0
  6
CENTER
 62
     2
  5
1F0
 10
145.550793
 20
-20.381262
 30
0.0
 11
150.550793
 21
-20.381262
 31
0.0
  0
LINE
  8
0
  6
CENTER
 62
     2
  5
1F1
 10
148.050793
 20
-22.881262
 30
0.0
 11
148.050793
 21
-17.881262
 31
0.0
  0
LINE
  8
0
  6
CENTER
 62
     2
  5
1F2
 10
141.450793
 20
-12.281262
 30
0.0
 11
141.450793
 21
-7.281262
 31
0.0
  0
LINE
  8
0
  6
CONTINUOUS
 62
     7
  5
1F3
 10
141.860793
 20
-8.081262
 30
0.0
 11
149.750793
 21
-8.081262
 31
0.0
  0
LINE
  8
0
  6
CONTINUOUS
 62
     7
  5
1F4
 10
139.750793
 20
-9.371262
 30
0.0
 11
139.750793
 21
-6.081262
 31
0.0
  0
LINE
  8
0
  6
CONTINUOUS
 62
     7
  5
1F5
 10
149.750793
 20
-19.971262
 30
0.0
 11
149.750793
 21
-6.081262
 31
0.0
  0
LINE
  8
0
  6
CONTINUOUS
 62
     7
  5
1F6
 10
141.450793
 20
-11.781262
 30
0.0
 11
139.750793
 21
-11.781262
 31
0.0
  0
LINE
  8
0
  6
CONTINUOUS
 62
     7
  5
1F7
 10
148.050793
 20
-18.381262
 30
0.0
 11
149.750793
 21
-18.381262
 31
0.0
  0
LINE
  8
0
  6
CONTINUOUS
 62
     7
  5
1F8
 10
143.450793
 20
-9.781262
 30
0.0
 11
143.450793
 21
-8.081262
 31
0.0
  0
LINE
  8
0
  6
CONTINUOUS
 62
     7
  5
1F9
 10
139.750793
 20
-8.081262
 30
0.0
 11
141.030793
 21
-8.081262
 31
0.0
  0
LINE
  8
0
  6
CONTINUOUS
 62
     7
  5
1FA
 10
146.050793
 20
-20.381262
 30
0.0
 11
146.050793
 21
-22.081262
 31
0.0
  0
LINE
  8
0
  6
CONTINUOUS
 62
     7
  5
1FB
 10
139.750793
 20
-22.081262
 30
0.0
 11
139.750793
 21
-10.201262
 31
0.0
  0
LINE
  8
0
  6
CONTINUOUS
 62
     7
  5
1FC
 10
149.750793
 20
-22.081262
 30
0.0
 11
149.750793
 21
-20.801262
 31
0.0
  0
LINE
  8
0
  6
CONTINUOUS
 62
     2
  5
1FD
 10
149.000793
 20
-0.191262
 30
0.0
 11
140.500793
 21
2.088738
 31
0.0
  0
LINE
  8
0
  6
CONTINUOUS
 62
     2
  5
1FE
 10
149.000793
 20
-2.261262
 30
0.0
 11
140.500793
 21
0.018738
 31
0.0
  0
LINE
  8
0
  6
CONTINUOUS
 62
     7
  5
1FF
 10
144.190793
 20
4.918738
 30
0.0
 11
142.810793
 21
4.918738
 31
0.0
  0
LINE
  8
0
  6
CONTINUOUS
 62
     7
  5
200
 10
146.690793
 20
4.918738
 30
0.0
 11
145.310793
 21
4.918738
 31
0.0
  0
LINE
  8
0
  6
CONTINUOUS
 62
     7
  5
201
 10
143.690793
 20
10.418738
 30
0.0
 11
143.310793
 21
10.418738
 31
0.0
  0
LINE
  8
0
  6
CONTINUOUS
 62
     7
  5
202
 10
146.190793
 20
10.418738
 30
0.0
 11
145.810793
 21
10.418738
 31
0.0
  0
LINE
  8
0
  6
CENTER
 62
     2
  5
203
 10
146.000793
 20
-8.081262
 30
0.0
 11
146.000793
 21
13.528738
 31
0.0
  0
LINE
  8
0
  6
CENTER
 62
     2
  5
204
 10
143.500793
 20
-8.081262
 30
0.0
 11
143.500793
 21
13.528738
 31
0.0
  0
LINE
  8
0
  6
CONTINUOUS
 62
     7
  5
205
 10
139.750793
 20
-6.081262
 30
0.0
 11
142.250793
 21
-6.081262
 31
0.0
  0
LINE
  8
0
  6
CONTINUOUS
 62
     7
  5
206
 10
53.160793
 20
1.138738
 30
0.0
 11
53.160793
 21
4.918738
 31
0.0
  0
LINE
  8
0
  6
CONTINUOUS
 62
     7
  5
207
 10
54.540793
 20
0.768738
 30
0.0
 11
54.540793
 21
4.918738
 31
0.0
  0
LINE
  8
0
  6
CONTINUOUS
 62
     7
  5
208
 10
53.660793
 20
4.918738
 30
0.0
 11
53.660793
 21
10.418738
 31
0.0
  0
LINE
  8
0
  6
CONTINUOUS
 62
     7
  5
209
 10
54.040793
 20
4.918738
 30
0.0
 11
54.040793
 21
10.418738
 31
0.0
  0
LINE
  8
0
  6
CONTINUOUS
 62
     7
  5
20A
 10
53.160793
 20
-5.081262
 30
0.0
 11
53.160793
 21
-0.931262
 31
0.0
  0
LINE
  8
0
  6
CONTINUOUS
 62
     7
  5
20B
 10
54.540793
 20
-5.081262
 30
0.0
 11
54.540793
 21
-1.301262
 31
0.0
  0
LINE
  8
0
  6
CONTINUOUS
 62
     7
  5
20C
 10
52.350793
 20
-6.081262
 30
0.0
 11
38.850793
 21
-6.081262
 31
0.0
  0
LINE
  8
0
  6
CONTINUOUS
 62
     2
  5
20D
 10
-30.649207
 20
-15.391262
 30
0.0
 11
-36.649207
 21
-13.781262
 31
0.0
  0
LINE
  8
0
  6
CONTINUOUS
 62
     2
  5
20E
 10
-30.649207
 20
-13.321262
 30
0.0
 11
-36.649207
 21
-11.711262
 31
0.0
  0
LINE
  8
0
  6
CONTINUOUS
 62
     7
  5
20F
 10
53.660793
 20
10.418738
 30
0.0
 11
54.040793
 21
10.418738
 31
0.0
  0
LINE
  8
0
  6
CONTINUOUS
 62
     7
  5
210
 10
53.160793
 20
4.918738
 30
0.0
 11
54.540793
 21
4.918738
 31
0.0
  0
LINE
  8
0
  6
CENTER
 62
     2
  5
211
 10
53.850793
 20
-8.081262
 30
0.0
 11
53.850793
 21
13.528738
 31
0.0
  0
LINE
  8
0
  6
CONTINUOUS
 62
     7
  5
212
 10
57.950793
 20
-22.131262
 30
0.0
 11
57.950793
 21
-22.081262
 31
0.0
  0
LINE
  8
0
  6
CONTINUOUS
 62
     7
  5
213
 10
58.480793
 20
-22.131262
 30
0.0
 11
57.950793
 21
-22.131262
 31
0.0
  0
LINE
  8
0
  6
CONTINUOUS
 62
     7
  5
214
 10
58.480793
 20
-8.031262
 30
0.0
 11
57.950793
 21
-8.031262
 31
0.0
  0
LINE
  8
0
  6
CONTINUOUS
 62
     7
  5
215
 10
58.480793
 20
-11.531262
 30
0.0
 11
57.950793
 21
-11.531262
 31
0.0
  0
LINE
  8
0
  6
CONTINUOUS
 62
     7
  5
216
 10
57.950793
 20
-8.031262
 30
0.0
 11
57.950793
 21
-11.781262
 31
0.0
  0
LINE
  8
0
  6
CONTINUOUS
 62
     7
  5
217
 10
58.750793
 20
-11.781262
 30
0.0
 11
57.950793
 21
-11.781262
 31
0.0
  0
LINE
  8
0
  6
CONTINUOUS
 62
     7
  5
218
 10
57.350793
 20
-6.081262
 30
0.0
 11
55.350793
 21
-6.081262
 31
0.0
  0
LINE
  8
0
  6
CENTER
 62
     2
  5
219
 10
62.250793
 20
-9.781262
 30
0.0
 11
54.350793
 21
-9.781262
 31
0.0
  0
LINE
  8
0
  6
CENTER
 62
     2
  5
21A
 10
62.250793
 20
-20.381262
 30
0.0
 11
54.350793
 21
-20.381262
 31
0.0
  0
LINE
  8
0
  6
CONTINUOUS
 62
     7
  5
21B
 10
58.750793
 20
-11.441262
 30
0.0
 11
58.750793
 21
-21.581262
 31
0.0
  0
LINE
  8
0
  6
CONTINUOUS
 62
     7
  5
21C
 10
57.950793
 20
-8.081262
 30
0.0
 11
57.350793
 21
-8.081262
 31
0.0
  0
LINE
  8
0
  6
CONTINUOUS
 62
     7
  5
21D
 10
57.350793
 20
-22.081262
 30
0.0
 11
57.350793
 21
-6.081262
 31
0.0
  0
LINE
  8
0
  6
CONTINUOUS
 62
     7
  5
21E
 10
38.850793
 20
-22.081262
 30
0.0
 11
38.850793
 21
-6.081262
 31
0.0
  0
LINE
  8
0
  6
CONTINUOUS
 62
     7
  5
21F
 10
58.250793
 20
-22.081262
 30
0.0
 11
38.850793
 21
-22.081262
 31
0.0
  0
LINE
  8
0
  6
CONTINUOUS
 62
     7
  5
220
 10
25.450793
 20
-8.081262
 30
0.0
 11
38.850793
 21
-8.081262
 31
0.0
  0
LINE
  8
0
  6
CONTINUOUS
 62
     7
  5
221
 10
27.850793
 20
-8.081262
 30
0.0
 11
27.850793
 21
-22.081262
 31
0.0
  0
LINE
  8
0
  6
CONTINUOUS
 62
     7
  5
222
 10
25.450793
 20
-8.081262
 30
0.0
 11
25.450793
 21
-22.081262
 31
0.0
  0
LINE
  8
0
  6
CONTINUOUS
 62
     7
  5
223
 10
25.450793
 20
-22.081262
 30
0.0
 11
27.850793
 21
-22.081262
 31
0.0
  0
LINE
  8
0
  6
CONTINUOUS
 62
     7
  5
224
 10
25.450793
 20
76.218738
 30
0.0
 11
38.850793
 21
76.218738
 31
0.0
  0
LINE
  8
0
  6
CONTINUOUS
 62
     7
  5
225
 10
25.450793
 20
66.218738
 30
0.0
 11
38.850793
 21
66.218738
 31
0.0
  0
LINE
  8
0
  6
CONTINUOUS
 62
     7
  5
226
 10
25.450793
 20
76.218738
 30
0.0
 11
25.450793
 21
66.218738
 31
0.0
  0
LINE
  8
0
  6
CONTINUOUS
 62
     7
  5
227
 10
27.850793
 20
76.218738
 30
0.0
 11
27.850793
 21
66.218738
 31
0.0
  0
LINE
  8
0
  6
CENTER
 62
     2
  5
228
 10
55.850793
 20
70.218738
 30
0.0
 11
51.850793
 21
70.218738
 31
0.0
  0
LINE
  8
0
  6
CENTER
 62
     2
  5
229
 10
55.850793
 20
72.218738
 30
0.0
 11
51.850793
 21
72.218738
 31
0.0
  0
LINE
  8
0
  6
CENTER
 62
     2
  5
22A
 10
53.850793
 20
74.218738
 30
0.0
 11
53.850793
 21
68.218738
 31
0.0
  0
LINE
  8
0
  6
CONTINUOUS
 62
     7
  5
22B
 10
58.750793
 20
69.918738
 30
0.0
 11
57.950793
 21
69.918738
 31
0.0
  0
LINE
  8
0
  6
CONTINUOUS
 62
     7
  5
22C
 10
58.480793
 20
69.668738
 30
0.0
 11
57.950793
 21
69.668738
 31
0.0
  0
LINE
  8
0
  6
CONTINUOUS
 62
     7
  5
22D
 10
58.480793
 20
66.168738
 30
0.0
 11
57.950793
 21
66.168738
 31
0.0
  0
LINE
  8
0
  6
CONTINUOUS
 62
     7
  5
22E
 10
58.480793
 20
76.268738
 30
0.0
 11
57.950793
 21
76.268738
 31
0.0
  0
LINE
  8
0
  6
CONTINUOUS
 62
     7
  5
22F
 10
57.350793
 20
76.218738
 30
0.0
 11
57.350793
 21
66.218738
 31
0.0
  0
LINE
  8
0
  6
CONTINUOUS
 62
     7
  5
230
 10
57.950793
 20
69.918738
 30
0.0
 11
57.950793
 21
66.168738
 31
0.0
  0
LINE
  8
0
  6
CENTER
 62
     2
  5
231
 10
62.250793
 20
67.918738
 30
0.0
 11
54.350793
 21
67.918738
 31
0.0
  0
LINE
  8
0
  6
CENTER
 62
     2
  5
232
 10
62.250793
 20
74.518738
 30
0.0
 11
54.350793
 21
74.518738
 31
0.0
  0
LINE
  8
0
  6
CONTINUOUS
 62
     7
  5
233
 10
58.750793
 20
75.718738
 30
0.0
 11
58.750793
 21
69.568738
 31
0.0
  0
LINE
  8
0
  6
CONTINUOUS
 62
     7
  5
234
 10
57.950793
 20
76.268738
 30
0.0
 11
57.950793
 21
76.218738
 31
0.0
  0
LINE
  8
0
  6
CONTINUOUS
 62
     7
  5
235
 10
38.850793
 20
76.218738
 30
0.0
 11
38.850793
 21
66.218738
 31
0.0
  0
LINE
  8
0
  6
CONTINUOUS
 62
     7
  5
236
 10
58.250793
 20
76.218738
 30
0.0
 11
38.850793
 21
76.218738
 31
0.0
  0
LINE
  8
0
  6
CONTINUOUS
 62
     7
  5
237
 10
57.950793
 20
66.218738
 30
0.0
 11
38.850793
 21
66.218738
 31
0.0
  0
LINE
  8
0
  6
CONTINUOUS
 62
     7
  5
238
 10
58.850793
 20
76.068738
 30
0.0
 11
58.850793
 21
76.318738
 31
0.0
  0
LINE
  8
0
  6
CONTINUOUS
 62
     7
  5
239
 10
-50.199207
 20
-15.081262
 30
0.0
 11
-57.099207
 21
-15.081262
 31
0.0
  0
LINE
  8
0
  6
CONTINUOUS
 62
     7
  5
23A
 10
-48.699207
 20
-16.581262
 30
0.0
 11
-48.699207
 21
-23.081262
 31
0.0
  0
LINE
  8
0
  6
CONTINUOUS
 62
     7
  5
23B
 10
-58.599207
 20
-16.581262
 30
0.0
 11
-58.599207
 21
-23.081262
 31
0.0
  0
LINE
  8
0
  6
CENTER
 62
     2
  5
23C
 10
58.850793
 20
-77.081262
 30
0.0
 11
58.850793
 21
-84.081262
 31
0.0
  0
LINE
  8
0
  6
CENTER
 62
     2
  5
23D
 10
50.350793
 20
-56.081262
 30
0.0
 11
50.350793
 21
-63.081262
 31
0.0
  0
LINE
  8
0
  6
CENTER
 62
     2
  5
23E
 10
-15.149207
 20
-66.581262
 30
0.0
 11
-15.149207
 21
-73.581262
 31
0.0
  0
LINE
  8
0
  6
CENTER
 62
     2
  5
23F
 10
55.350793
 20
-80.581262
 30
0.0
 11
62.350793
 21
-80.581262
 31
0.0
  0
LINE
  8
0
  6
CENTER
 62
     2
  5
240
 10
46.850793
 20
-59.581262
 30
0.0
 11
53.850793
 21
-59.581262
 31
0.0
  0
LINE
  8
0
  6
CENTER
 62
     2
  5
241
 10
-18.649207
 20
-70.081262
 30
0.0
 11
-11.649207
 21
-70.081262
 31
0.0
  0
LINE
  8
0
  6
CENTER
 62
     2
  5
242
 10
-111.449207
 20
-68.581262
 30
0.0
 11
-105.449207
 21
-68.581262
 31
0.0
  0
LINE
  8
0
  6
CENTER
 62
     2
  5
243
 10
-108.449207
 20
-65.581262
 30
0.0
 11
-108.449207
 21
-71.581262
 31
0.0
  0
LINE
  8
0
  6
CENTER
 62
     2
  5
244
 10
58.350793
 20
58.618738
 30
0.0
 11
64.350793
 21
58.618738
 31
0.0
  0
LINE
  8
0
  6
CENTER
 62
     2
  5
245
 10
61.350793
 20
61.618738
 30
0.0
 11
61.350793
 21
55.618738
 31
0.0
  0
LINE
  8
0
  6
CENTER
 62
     2
  5
246
 10
58.350793
 20
73.618738
 30
0.0
 11
64.350793
 21
73.618738
 31
0.0
  0
LINE
  8
0
  6
CENTER
 62
     2
  5
247
 10
61.350793
 20
76.618738
 30
0.0
 11
61.350793
 21
70.618738
 31
0.0
  0
LINE
  8
0
  6
CENTER
 62
     2
  5
248
 10
3.350793
 20
58.618738
 30
0.0
 11
9.350793
 21
58.618738
 31
0.0
  0
LINE
  8
0
  6
CENTER
 62
     2
  5
249
 10
6.350793
 20
61.618738
 30
0.0
 11
6.350793
 21
55.618738
 31
0.0
  0
LINE
  8
0
  6
CENTER
 62
     2
  5
24A
 10
6.350793
 20
76.618738
 30
0.0
 11
6.350793
 21
70.618738
 31
0.0
  0
LINE
  8
0
  6
CENTER
 62
     2
  5
24B
 10
1.150793
 20
76.618738
 30
0.0
 11
1.150793
 21
70.618738
 31
0.0
  0
LINE
  8
0
  6
CENTER
 62
     2
  5
24C
 10
-26.649207
 20
58.618738
 30
0.0
 11
-20.649207
 21
58.618738
 31
0.0
  0
LINE
  8
0
  6
CENTER
 62
     2
  5
24D
 10
-23.649207
 20
61.618738
 30
0.0
 11
-23.649207
 21
55.618738
 31
0.0
  0
LINE
  8
0
  6
CENTER
 62
     2
  5
24E
 10
-126.449207
 20
-82.581262
 30
0.0
 11
-120.449207
 21
-82.581262
 31
0.0
  0
LINE
  8
0
  6
CENTER
 62
     2
  5
24F
 10
-123.449207
 20
-79.581262
 30
0.0
 11
-123.449207
 21
-85.581262
 31
0.0
  0
LINE
  8
0
  6
CONTINUOUS
 62
     7
  5
250
 10
-7.549207
 20
69.118738
 30
0.0
 11
-7.549207
 21
59.118738
 31
0.0
  0
LINE
  8
0
  6
CONTINUOUS
 62
     7
  5
251
 10
-10.549207
 20
69.118738
 30
0.0
 11
-10.549207
 21
59.118738
 31
0.0
  0
LINE
  8
0
  6
CONTINUOUS
 62
     7
  5
252
 10
-11.749207
 20
73.118738
 30
0.0
 11
-11.749207
 21
59.118738
 31
0.0
  0
LINE
  8
0
  6
CONTINUOUS
 62
     7
  5
253
 10
-14.749207
 20
73.118738
 30
0.0
 11
-14.749207
 21
59.118738
 31
0.0
  0
LINE
  8
0
  6
CONTINUOUS
 62
     7
  5
254
 10
-18.949207
 20
73.118738
 30
0.0
 11
-18.949207
 21
59.118738
 31
0.0
  0
LINE
  8
0
  6
CONTINUOUS
 62
     7
  5
255
 10
-15.949207
 20
73.118738
 30
0.0
 11
-15.949207
 21
59.118738
 31
0.0
  0
LINE
  8
0
  6
CONTINUOUS
 62
     7
  5
256
 10
-23.149207
 20
73.118738
 30
0.0
 11
-23.149207
 21
63.118738
 31
0.0
  0
LINE
  8
0
  6
CONTINUOUS
 62
     7
  5
257
 10
-20.149207
 20
73.118738
 30
0.0
 11
-20.149207
 21
63.118738
 31
0.0
  0
LINE
  8
0
  6
CONTINUOUS
 62
     7
  5
258
 10
-2.499207
 20
60.618738
 30
0.0
 11
-2.499207
 21
55.918738
 31
0.0
  0
LINE
  8
0
  6
CONTINUOUS
 62
     7
  5
259
 10
0.200793
 20
60.618738
 30
0.0
 11
0.200793
 21
55.918738
 31
0.0
  0
LINE
  8
0
  6
CONTINUOUS
 62
     7
  5
25A
 10
0.200793
 20
-23.081262
 30
0.0
 11
0.200793
 21
-40.081262
 31
0.0
  0
LINE
  8
0
  6
CONTINUOUS
 62
     7
  5
25B
 10
-2.499207
 20
-23.081262
 30
0.0
 11
-2.499207
 21
-40.081262
 31
0.0
  0
LINE
  8
0
  6
CENTER
 62
     2
  5
25C
 10
43.850793
 20
-74.081262
 30
0.0
 11
43.850793
 21
-82.081262
 31
0.0
  0
LINE
  8
0
  6
CENTER
 62
     2
  5
25D
 10
-7.149207
 20
-64.081262
 30
0.0
 11
-7.149207
 21
-72.081262
 31
0.0
  0
LINE
  8
0
  6
CENTER
 62
     2
  5
25E
 10
39.850793
 20
-78.081262
 30
0.0
 11
47.850793
 21
-78.081262
 31
0.0
  0
LINE
  8
0
  6
CENTER
 62
     2
  5
25F
 10
-11.149207
 20
-68.081262
 30
0.0
 11
-3.149207
 21
-68.081262
 31
0.0
  0
LINE
  8
0
  6
CONTINUOUS
 62
     7
  5
260
 10
58.850793
 20
58.618738
 30
0.0
 11
58.850793
 21
55.918738
 31
0.0
  0
LINE
  8
0
  6
CONTINUOUS
 62
     7
  5
261
 10
61.350793
 20
61.118738
 30
0.0
 11
63.850793
 21
61.118738
 31
0.0
  0
LINE
  8
0
  6
CONTINUOUS
 62
     7
  5
262
 10
61.350793
 20
71.118738
 30
0.0
 11
63.850793
 21
71.118738
 31
0.0
  0
LINE
  8
0
  6
CONTINUOUS
 62
     7
  5
263
 10
8.850793
 20
73.618738
 30
0.0
 11
8.850793
 21
76.318738
 31
0.0
  0
LINE
  8
0
  6
CONTINUOUS
 62
     7
  5
264
 10
6.350793
 20
71.118738
 30
0.0
 11
3.850793
 21
71.118738
 31
0.0
  0
LINE
  8
0
  6
CONTINUOUS
 62
     7
  5
265
 10
6.350793
 20
61.118738
 30
0.0
 11
3.850793
 21
61.118738
 31
0.0
  0
LINE
  8
0
  6
CONTINUOUS
 62
     7
  5
266
 10
8.850793
 20
58.618738
 30
0.0
 11
8.850793
 21
55.918738
 31
0.0
  0
LINE
  8
0
  6
CONTINUOUS
 62
     7
  5
267
 10
-23.649207
 20
61.118738
 30
0.0
 11
-26.149207
 21
61.118738
 31
0.0
  0
LINE
  8
0
  6
CONTINUOUS
 62
     7
  5
268
 10
-21.149207
 20
58.618738
 30
0.0
 11
-21.149207
 21
55.918738
 31
0.0
  0
LINE
  8
0
  6
CONTINUOUS
 62
     7
  5
269
 10
1.150793
 20
71.118738
 30
0.0
 11
3.650793
 21
71.118738
 31
0.0
  0
LINE
  8
0
  6
CONTINUOUS
 62
     7
  5
26A
 10
-1.349207
 20
73.618738
 30
0.0
 11
-1.349207
 21
76.318738
 31
0.0
  0
LINE
  8
0
  6
CONTINUOUS
 62
     7
  5
26B
 10
63.850793
 20
55.918738
 30
0.0
 11
63.850793
 21
55.618738
 31
0.0
  0
LINE
  8
0
  6
CONTINUOUS
 62
     7
  5
26C
 10
63.850793
 20
76.618738
 30
0.0
 11
63.850793
 21
76.318738
 31
0.0
  0
LINE
  8
0
  6
CONTINUOUS
 62
     7
  5
26D
 10
-26.149207
 20
55.618738
 30
0.0
 11
63.850793
 21
55.618738
 31
0.0
  0
LINE
  8
0
  6
CONTINUOUS
 62
     7
  5
26E
 10
-26.149207
 20
76.618738
 30
0.0
 11
63.850793
 21
76.618738
 31
0.0
  0
LINE
  8
0
  6
CONTINUOUS
 62
     7
  5
26F
 10
61.850793
 20
55.618738
 30
0.0
 11
61.850793
 21
54.518738
 31
0.0
  0
LINE
  8
0
  6
CONTINUOUS
 62
     7
  5
270
 10
-24.149207
 20
55.618738
 30
0.0
 11
-24.149207
 21
54.518738
 31
0.0
  0
LINE
  8
0
  6
CONTINUOUS
 62
     7
  5
271
 10
61.850793
 20
77.718738
 30
0.0
 11
61.850793
 21
76.618738
 31
0.0
  0
LINE
  8
0
  6
CONTINUOUS
 62
     7
  5
272
 10
-24.149207
 20
77.718738
 30
0.0
 11
-24.149207
 21
76.618738
 31
0.0
  0
LINE
  8
0
  6
CONTINUOUS
 62
     7
  5
273
 10
3.850793
 20
76.318738
 30
0.0
 11
3.850793
 21
55.918738
 31
0.0
  0
LINE
  8
0
  6
CONTINUOUS
 62
     7
  5
274
 10
3.650793
 20
76.318738
 30
0.0
 11
3.650793
 21
55.918738
 31
0.0
  0
LINE
  8
0
  6
CONTINUOUS
 62
     7
  5
275
 10
144.950793
 20
-25.481262
 30
0.0
 11
144.950793
 21
-26.081262
 31
0.0
  0
LINE
  8
0
  6
CONTINUOUS
 62
     7
  5
276
 10
149.750793
 20
-25.481262
 30
0.0
 11
149.750793
 21
-26.081262
 31
0.0
  0
LINE
  8
0
  6
CENTER
 62
     2
  5
277
 10
147.350793
 20
-22.831262
 30
0.0
 11
147.350793
 21
-27.751262
 31
0.0
  0
LINE
  8
0
  6
DASHED
 62
     7
  5
279
 10
147.910793
 20
-25.201262
 30
0.0
 11
147.350793
 21
-25.501262
 31
0.0
  0
LINE
  8
0
  6
DASHED
 62
     7
  5
27A
 10
148.650793
 20
-23.931262
 30
0.0
 11
147.910793
 21
-25.201262
 31
0.0
  0
LINE
  8
0
  6
DASHED
 62
     7
  5
27B
 10
146.780793
 20
-25.201262
 30
0.0
 11
147.350793
 21
-25.501262
 31
0.0
  0
LINE
  8
0
  6
DASHED
 62
     7
  5
27C
 10
146.050793
 20
-23.931262
 30
0.0
 11
146.780793
 21
-25.201262
 31
0.0
  0
LINE
  8
0
  6
CONTINUOUS
 62
     7
  5
27D
 10
145.100793
 20
-24.791262
 30
0.0
 11
145.100793
 21
-25.481262
 31
0.0
  0
LINE
  8
0
  6
CONTINUOUS
 62
     7
  5
27E
 10
147.050793
 20
-26.081262
 30
0.0
 11
146.890793
 21
-25.481262
 31
0.0
  0
LINE
  8
0
  6
CONTINUOUS
 62
     7
  5
27F
 10
147.650793
 20
-25.481262
 30
0.0
 11
147.810793
 21
-26.081262
 31
0.0
  0
LINE
  8
0
  6
CONTINUOUS
 62
     7
  5
280
 10
149.750793
 20
-25.481262
 30
0.0
 11
144.950793
 21
-25.481262
 31
0.0
  0
LINE
  8
0
  6
CONTINUOUS
 62
     7
  5
281
 10
149.600793
 20
-24.791262
 30
0.0
 11
149.600793
 21
-25.481262
 31
0.0
  0
LINE
  8
0
  6
CONTINUOUS
 62
     7
  5
282
 10
129.550793
 20
-25.481262
 30
0.0
 11
129.550793
 21
-26.081262
 31
0.0
  0
LINE
  8
0
  6
CONTINUOUS
 62
     7
  5
283
 10
134.350793
 20
-25.481262
 30
0.0
 11
134.350793
 21
-26.081262
 31
0.0
  0
LINE
  8
0
  6
CENTER
 62
     2
  5
284
 10
131.950793
 20
-22.831262
 30
0.0
 11
131.950793
 21
-27.751262
 31
0.0
  0
LINE
  8
0
  6
DASHED
 62
     7
  5
285
 10
132.510793
 20
-25.201262
 30
0.0
 11
131.950793
 21
-25.501262
 31
0.0
  0
LINE
  8
0
  6
DASHED
 62
     7
  5
286
 10
133.250793
 20
-23.931262
 30
0.0
 11
132.510793
 21
-25.201262
 31
0.0
  0
LINE
  8
0
  6
DASHED
 62
     7
  5
287
 10
131.380793
 20
-25.201262
 30
0.0
 11
131.950793
 21
-25.501262
 31
0.0
  0
LINE
  8
0
  6
DASHED
 62
     7
  5
288
 10
130.650793
 20
-23.931262
 30
0.0
 11
131.380793
 21
-25.201262
 31
0.0
  0
LINE
  8
0
  6
CONTINUOUS
 62
     7
  5
289
 10
129.700793
 20
-24.791262
 30
0.0
 11
129.700793
 21
-25.481262
 31
0.0
  0
LINE
  8
0
  6
CONTINUOUS
 62
     7
  5
28A
 10
131.650793
 20
-26.081262
 30
0.0
 11
131.490793
 21
-25.481262
 31
0.0
  0
LINE
  8
0
  6
CONTINUOUS
 62
     7
  5
28B
 10
132.250793
 20
-25.481262
 30
0.0
 11
132.410793
 21
-26.081262
 31
0.0
  0
LINE
  8
0
  6
CONTINUOUS
 62
     7
  5
28C
 10
134.350793
 20
-25.481262
 30
0.0
 11
129.550793
 21
-25.481262
 31
0.0
  0
LINE
  8
0
  6
CONTINUOUS
 62
     7
  5
28D
 10
134.200793
 20
-24.791262
 30
0.0
 11
134.200793
 21
-25.481262
 31
0.0
  0
LINE
  8
0
  6
CONTINUOUS
 62
     7
  5
28E
 10
144.850793
 20
-26.081262
 30
0.0
 11
149.850793
 21
-26.081262
 31
0.0
  0
LINE
  8
0
  6
CONTINUOUS
 62
     7
  5
28F
 10
134.450793
 20
-23.081262
 30
0.0
 11
134.450793
 21
-26.081262
 31
0.0
  0
LINE
  8
0
  6
CONTINUOUS
 62
     7
  5
290
 10
144.850793
 20
-23.081262
 30
0.0
 11
144.850793
 21
-26.081262
 31
0.0
  0
LINE
  8
0
  6
CONTINUOUS
 62
     7
  5
291
 10
129.450793
 20
-26.081262
 30
0.0
 11
134.450793
 21
-26.081262
 31
0.0
  0
LINE
  8
0
  6
CONTINUOUS
 62
     7
  5
292
 10
58.950793
 20
-25.481262
 30
0.0
 11
58.950793
 21
-26.081262
 31
0.0
  0
LINE
  8
0
  6
CONTINUOUS
 62
     7
  5
293
 10
63.750793
 20
-25.481262
 30
0.0
 11
63.750793
 21
-26.081262
 31
0.0
  0
LINE
  8
0
  6
CENTER
 62
     2
  5
294
 10
61.350793
 20
-22.831262
 30
0.0
 11
61.350793
 21
-27.751262
 31
0.0
  0
LINE
  8
0
  6
DASHED
 62
     7
  5
295
 10
61.910793
 20
-25.201262
 30
0.0
 11
61.350793
 21
-25.501262
 31
0.0
  0
LINE
  8
0
  6
DASHED
 62
     7
  5
296
 10
62.650793
 20
-23.931262
 30
0.0
 11
61.910793
 21
-25.201262
 31
0.0
  0
LINE
  8
0
  6
DASHED
 62
     7
  5
297
 10
60.780793
 20
-25.201262
 30
0.0
 11
61.350793
 21
-25.501262
 31
0.0
  0
LINE
  8
0
  6
DASHED
 62
     7
  5
298
 10
60.050793
 20
-23.931262
 30
0.0
 11
60.780793
 21
-25.201262
 31
0.0
  0
LINE
  8
0
  6
CONTINUOUS
 62
     7
  5
299
 10
59.100793
 20
-24.791262
 30
0.0
 11
59.100793
 21
-25.481262
 31
0.0
  0
LINE
  8
0
  6
CONTINUOUS
 62
     7
  5
29A
 10
61.050793
 20
-26.081262
 30
0.0
 11
60.880793
 21
-25.481262
 31
0.0
  0
LINE
  8
0
  6
CONTINUOUS
 62
     7
  5
29B
 10
61.650793
 20
-25.481262
 30
0.0
 11
61.810793
 21
-26.081262
 31
0.0
  0
LINE
  8
0
  6
CONTINUOUS
 62
     7
  5
29C
 10
63.750793
 20
-25.481262
 30
0.0
 11
58.950793
 21
-25.481262
 31
0.0
  0
LINE
  8
0
  6
CONTINUOUS
 62
     7
  5
29D
 10
63.600793
 20
-24.791262
 30
0.0
 11
63.600793
 21
-25.481262
 31
0.0
  0
LINE
  8
0
  6
CONTINUOUS
 62
     7
  5
29E
 10
3.950793
 20
-25.481262
 30
0.0
 11
3.950793
 21
-26.081262
 31
0.0
  0
LINE
  8
0
  6
CONTINUOUS
 62
     7
  5
29F
 10
8.750793
 20
-25.481262
 30
0.0
 11
8.750793
 21
-26.081262
 31
0.0
  0
LINE
  8
0
  6
CENTER
 62
     2
  5
2A0
 10
6.350793
 20
-22.831262
 30
0.0
 11
6.350793
 21
-27.751262
 31
0.0
  0
LINE
  8
0
  6
DASHED
 62
     7
  5
2A1
 10
6.910793
 20
-25.201262
 30
0.0
 11
6.350793
 21
-25.501262
 31
0.0
  0
LINE
  8
0
  6
DASHED
 62
     7
  5
2A2
 10
7.650793
 20
-23.931262
 30
0.0
 11
6.910793
 21
-25.201262
 31
0.0
  0
LINE
  8
0
  6
DASHED
 62
     7
  5
2A3
 10
5.780793
 20
-25.201262
 30
0.0
 11
6.350793
 21
-25.501262
 31
0.0
  0
LINE
  8
0
  6
DASHED
 62
     7
  5
2A4
 10
5.050793
 20
-23.931262
 30
0.0
 11
5.780793
 21
-25.201262
 31
0.0
  0
LINE
  8
0
  6
CONTINUOUS
 62
     7
  5
2A5
 10
4.100793
 20
-24.791262
 30
0.0
 11
4.100793
 21
-25.481262
 31
0.0
  0
LINE
  8
0
  6
CONTINUOUS
 62
     7
  5
2A6
 10
6.050793
 20
-26.081262
 30
0.0
 11
5.880793
 21
-25.481262
 31
0.0
  0
LINE
  8
0
  6
CONTINUOUS
 62
     7
  5
2A7
 10
6.650793
 20
-25.481262
 30
0.0
 11
6.810793
 21
-26.081262
 31
0.0
  0
LINE
  8
0
  6
CONTINUOUS
 62
     7
  5
2A8
 10
8.750793
 20
-25.481262
 30
0.0
 11
3.950793
 21
-25.481262
 31
0.0
  0
LINE
  8
0
  6
CONTINUOUS
 62
     7
  5
2A9
 10
8.600793
 20
-24.791262
 30
0.0
 11
8.600793
 21
-25.481262
 31
0.0
  0
LINE
  8
0
  6
CONTINUOUS
 62
     7
  5
2AA
 10
-26.049207
 20
-25.481262
 30
0.0
 11
-26.049207
 21
-26.081262
 31
0.0
  0
LINE
  8
0
  6
CONTINUOUS
 62
     7
  5
2AB
 10
-21.249207
 20
-25.481262
 30
0.0
 11
-21.249207
 21
-26.081262
 31
0.0
  0
LINE
  8
0
  6
CENTER
 62
     2
  5
2AC
 10
-23.649207
 20
-22.831262
 30
0.0
 11
-23.649207
 21
-27.751262
 31
0.0
  0
LINE
  8
0
  6
DASHED
 62
     7
  5
2AD
 10
-23.089207
 20
-25.201262
 30
0.0
 11
-23.649207
 21
-25.501262
 31
0.0
  0
LINE
  8
0
  6
DASHED
 62
     7
  5
2AE
 10
-22.349207
 20
-23.931262
 30
0.0
 11
-23.089207
 21
-25.201262
 31
0.0
  0
LINE
  8
0
  6
DASHED
 62
     7
  5
2AF
 10
-24.219207
 20
-25.201262
 30
0.0
 11
-23.649207
 21
-25.501262
 31
0.0
  0
LINE
  8
0
  6
DASHED
 62
     7
  5
2B0
 10
-24.949207
 20
-23.931262
 30
0.0
 11
-24.219207
 21
-25.201262
 31
0.0
  0
LINE
  8
0
  6
CONTINUOUS
 62
     7
  5
2B1
 10
-25.899207
 20
-24.791262
 30
0.0
 11
-25.899207
 21
-25.481262
 31
0.0
  0
LINE
  8
0
  6
CONTINUOUS
 62
     7
  5
2B2
 10
-23.949207
 20
-26.081262
 30
0.0
 11
-24.119207
 21
-25.481262
 31
0.0
  0
LINE
  8
0
  6
CONTINUOUS
 62
     7
  5
2B3
 10
-23.349207
 20
-25.481262
 30
0.0
 11
-23.189207
 21
-26.081262
 31
0.0
  0
LINE
  8
0
  6
CONTINUOUS
 62
     7
  5
2B4
 10
-21.249207
 20
-25.481262
 30
0.0
 11
-26.049207
 21
-25.481262
 31
0.0
  0
LINE
  8
0
  6
CONTINUOUS
 62
     7
  5
2B5
 10
-21.399207
 20
-24.791262
 30
0.0
 11
-21.399207
 21
-25.481262
 31
0.0
  0
LINE
  8
0
  6
CONTINUOUS
 62
     7
  5
2B6
 10
-68.749207
 20
-70.981262
 30
0.0
 11
-68.149207
 21
-70.981262
 31
0.0
  0
LINE
  8
0
  6
CONTINUOUS
 62
     7
  5
2B7
 10
-68.749207
 20
-66.181262
 30
0.0
 11
-68.149207
 21
-66.181262
 31
0.0
  0
LINE
  8
0
  6
DASHED
 62
     7
  5
2B8
 10
-69.029207
 20
-68.011262
 30
0.0
 11
-68.729207
 21
-68.581262
 31
0.0
  0
LINE
  8
0
  6
DASHED
 62
     7
  5
2B9
 10
-70.299207
 20
-67.281262
 30
0.0
 11
-69.029207
 21
-68.011262
 31
0.0
  0
LINE
  8
0
  6
DASHED
 62
     7
  5
2BA
 10
-69.029207
 20
-69.141262
 30
0.0
 11
-68.729207
 21
-68.581262
 31
0.0
  0
LINE
  8
0
  6
DASHED
 62
     7
  5
2BB
 10
-70.299207
 20
-69.881262
 30
0.0
 11
-69.029207
 21
-69.141262
 31
0.0
  0
LINE
  8
0
  6
CONTINUOUS
 62
     7
  5
2BC
 10
-69.439207
 20
-70.831262
 30
0.0
 11
-68.749207
 21
-70.831262
 31
0.0
  0
LINE
  8
0
  6
CONTINUOUS
 62
     7
  5
2BD
 10
-68.149207
 20
-68.881262
 30
0.0
 11
-68.749207
 21
-69.041262
 31
0.0
  0
LINE
  8
0
  6
CONTINUOUS
 62
     7
  5
2BE
 10
-68.749207
 20
-68.281262
 30
0.0
 11
-68.149207
 21
-68.111262
 31
0.0
  0
LINE
  8
0
  6
CONTINUOUS
 62
     7
  5
2BF
 10
-68.749207
 20
-66.181262
 30
0.0
 11
-68.749207
 21
-70.981262
 31
0.0
  0
LINE
  8
0
  6
CONTINUOUS
 62
     7
  5
2C0
 10
-69.439207
 20
-66.331262
 30
0.0
 11
-68.749207
 21
-66.331262
 31
0.0
  0
LINE
  8
0
  6
CONTINUOUS
 62
     2
  5
2C1
 10
-23.649207
 20
-22.831262
 30
0.0
 11
-23.649207
 21
-27.751262
 31
0.0
  0
LINE
  8
0
  6
CONTINUOUS
 62
     7
  5
2C2
 10
129.450793
 20
-40.081262
 30
0.0
 11
149.850793
 21
-40.081262
 31
0.0
  0
LINE
  8
0
  6
CONTINUOUS
 62
     7
  5
2C3
 10
129.450793
 20
-30.081262
 30
0.0
 11
149.850793
 21
-30.081262
 31
0.0
  0
LINE
  8
0
  6
CONTINUOUS
 62
     7
  5
2C4
 10
150.150793
 20
-83.081262
 30
0.0
 11
151.250793
 21
-83.081262
 31
0.0
  0
LINE
  8
0
  6
CONTINUOUS
 62
     7
  5
2C5
 10
150.150793
 20
-56.081262
 30
0.0
 11
151.250793
 21
-56.081262
 31
0.0
  0
LINE
  8
0
  6
CONTINUOUS
 62
     7
  5
2C6
 10
128.050793
 20
-83.081262
 30
0.0
 11
129.150793
 21
-83.081262
 31
0.0
  0
LINE
  8
0
  6
CONTINUOUS
 62
     7
  5
2C7
 10
128.050793
 20
-56.081262
 30
0.0
 11
129.150793
 21
-56.081262
 31
0.0
  0
LINE
  8
0
  6
CONTINUOUS
 62
     7
  5
2C8
 10
129.150793
 20
-54.081262
 30
0.0
 11
150.150793
 21
-54.081262
 31
0.0
  0
LINE
  8
0
  6
CONTINUOUS
 62
     7
  5
2C9
 10
129.150793
 20
-54.081262
 30
0.0
 11
129.150793
 21
-85.081262
 31
0.0
  0
LINE
  8
0
  6
CONTINUOUS
 62
     7
  5
2CA
 10
150.150793
 20
-54.081262
 30
0.0
 11
150.150793
 21
-85.081262
 31
0.0
  0
LINE
  8
0
  6
CONTINUOUS
 62
     7
  5
2CB
 10
-105.449207
 20
-83.081262
 30
0.0
 11
-104.349207
 21
-83.081262
 31
0.0
  0
LINE
  8
0
  6
CONTINUOUS
 62
     7
  5
2CC
 10
-105.449207
 20
-56.081262
 30
0.0
 11
-104.349207
 21
-56.081262
 31
0.0
  0
LINE
  8
0
  6
CONTINUOUS
 62
     7
  5
2CD
 10
-127.549207
 20
-83.081262
 30
0.0
 11
-126.449207
 21
-83.081262
 31
0.0
  0
LINE
  8
0
  6
CONTINUOUS
 62
     7
  5
2CE
 10
-127.549207
 20
-56.081262
 30
0.0
 11
-126.449207
 21
-56.081262
 31
0.0
  0
LINE
  8
0
  6
CONTINUOUS
 62
     7
  5
2CF
 10
-105.749207
 20
-54.081262
 30
0.0
 11
-105.449207
 21
-54.081262
 31
0.0
  0
LINE
  8
0
  6
CONTINUOUS
 62
     7
  5
2D0
 10
-41.149207
 20
-54.081262
 30
0.0
 11
63.850793
 21
-54.081262
 31
0.0
  0
LINE
  8
0
  6
CONTINUOUS
 62
     7
  5
2D1
 10
-126.449207
 20
-54.081262
 30
0.0
 11
-126.449207
 21
-85.081262
 31
0.0
  0
LINE
  8
0
  6
CONTINUOUS
 62
     7
  5
2D2
 10
-105.449207
 20
-54.081262
 30
0.0
 11
-105.449207
 21
-85.081262
 31
0.0
  0
LINE
  8
0
  6
CONTINUOUS
 62
     7
  5
2D3
 10
-105.949207
 20
-23.081262
 30
0.0
 11
-105.949207
 21
-63.081262
 31
0.0
  0
LINE
  8
0
  6
CONTINUOUS
 62
     7
  5
2D4
 10
-125.949207
 20
-23.081262
 30
0.0
 11
-125.949207
 21
-63.081262
 31
0.0
  0
LINE
  8
0
  6
CONTINUOUS
 62
     7
  5
2D5
 10
-120.449207
 20
-82.581262
 30
0.0
 11
-120.449207
 21
-85.081262
 31
0.0
  0
LINE
  8
0
  6
CONTINUOUS
 62
     7
  5
2D6
 10
-123.449207
 20
-79.581262
 30
0.0
 11
-126.149207
 21
-79.581262
 31
0.0
  0
LINE
  8
0
  6
CONTINUOUS
 62
     7
  5
2D7
 10
-108.449207
 20
-71.581262
 30
0.0
 11
-105.749207
 21
-71.581262
 31
0.0
  0
LINE
  8
0
  6
CONTINUOUS
 62
     7
  5
2D8
 10
-108.449207
 20
-65.581262
 30
0.0
 11
-105.749207
 21
-65.581262
 31
0.0
  0
LINE
  8
0
  6
CENTER
 62
     2
  5
2D9
 10
-73.509207
 20
-68.581262
 30
0.0
 11
-65.099207
 21
-68.581262
 31
0.0
  0
LINE
  8
0
  6
CONTINUOUS
 62
     7
  5
2DA
 10
-71.149207
 20
-63.081262
 30
0.0
 11
-26.149207
 21
-63.081262
 31
0.0
  0
LINE
  8
0
  6
CONTINUOUS
 62
     7
  5
2DB
 10
-105.449207
 20
-85.081262
 30
0.0
 11
-126.449207
 21
-85.081262
 31
0.0
  0
LINE
  8
0
  6
CONTINUOUS
 62
     7
  5
2DC
 10
-105.749207
 20
-63.081262
 30
0.0
 11
-105.749207
 21
-85.081262
 31
0.0
  0
LINE
  8
0
  6
CONTINUOUS
 62
     7
  5
2DD
 10
-126.149207
 20
-63.081262
 30
0.0
 11
-126.149207
 21
-85.081262
 31
0.0
  0
LINE
  8
0
  6
CONTINUOUS
 62
     7
  5
2DE
 10
-71.149207
 20
-71.581262
 30
0.0
 11
-68.149207
 21
-71.581262
 31
0.0
  0
LINE
  8
0
  6
CONTINUOUS
 62
     7
  5
2DF
 10
-71.149207
 20
-65.581262
 30
0.0
 11
-68.149207
 21
-65.581262
 31
0.0
  0
LINE
  8
0
  6
CONTINUOUS
 62
     7
  5
2E0
 10
-68.149207
 20
-65.581262
 30
0.0
 11
-68.149207
 21
-71.581262
 31
0.0
  0
LINE
  8
0
  6
CONTINUOUS
 62
     7
  5
2E1
 10
-126.149207
 20
-63.081262
 30
0.0
 11
-105.749207
 21
-63.081262
 31
0.0
  0
LINE
  8
0
  6
CONTINUOUS
 62
     7
  5
2E2
 10
58.850793
 20
-26.081262
 30
0.0
 11
63.850793
 21
-26.081262
 31
0.0
  0
LINE
  8
0
  6
CONTINUOUS
 62
     7
  5
2E3
 10
58.850793
 20
-23.081262
 30
0.0
 11
58.850793
 21
-26.081262
 31
0.0
  0
LINE
  8
0
  6
CONTINUOUS
 62
     7
  5
2E4
 10
8.850793
 20
-23.081262
 30
0.0
 11
8.850793
 21
-26.081262
 31
0.0
  0
LINE
  8
0
  6
CONTINUOUS
 62
     7
  5
2E5
 10
3.850793
 20
-26.081262
 30
0.0
 11
8.850793
 21
-26.081262
 31
0.0
  0
LINE
  8
0
  6
CONTINUOUS
 62
     7
  5
2E6
 10
-21.149207
 20
-23.081262
 30
0.0
 11
-21.149207
 21
-26.081262
 31
0.0
  0
LINE
  8
0
  6
CONTINUOUS
 62
     7
  5
2E7
 10
-26.149207
 20
-26.081262
 30
0.0
 11
-21.149207
 21
-26.081262
 31
0.0
  0
LINE
  8
0
  6
CONTINUOUS
 62
     7
  5
2E8
 10
3.650793
 20
-23.081262
 30
0.0
 11
3.650793
 21
-40.081262
 31
0.0
  0
LINE
  8
0
  6
CONTINUOUS
 62
     7
  5
2E9
 10
3.850793
 20
-23.081262
 30
0.0
 11
3.850793
 21
-40.081262
 31
0.0
  0
LINE
  8
0
  6
CONTINUOUS
 62
     7
  5
2EA
 10
3.850793
 20
-30.081262
 30
0.0
 11
63.850793
 21
-30.081262
 31
0.0
  0
LINE
  8
0
  6
CONTINUOUS
 62
     7
  5
2EB
 10
-26.149207
 20
-40.081262
 30
0.0
 11
63.850793
 21
-40.081262
 31
0.0
  0
LINE
  8
0
  6
CONTINUOUS
 62
     7
  5
2EC
 10
61.850793
 20
-56.581262
 30
0.0
 11
61.850793
 21
-82.581262
 31
0.0
  0
LINE
  8
0
  6
CONTINUOUS
 62
     7
  5
2ED
 10
-24.149207
 20
-56.581262
 30
0.0
 11
-24.149207
 21
-82.581262
 31
0.0
  0
LINE
  8
0
  6
CONTINUOUS
 62
     7
  5
2EE
 10
-23.649207
 20
-83.081262
 30
0.0
 11
61.350793
 21
-83.081262
 31
0.0
  0
LINE
  8
0
  6
CONTINUOUS
 62
     7
  5
2EF
 10
-23.649207
 20
-56.081262
 30
0.0
 11
61.350793
 21
-56.081262
 31
0.0
  0
LINE
  8
0
  6
CONTINUOUS
 62
     7
  5
2F0
 10
-126.449207
 20
-54.081262
 30
0.0
 11
-126.149207
 21
-54.081262
 31
0.0
  0
LINE
  8
0
  6
CONTINUOUS
 62
     7
  5
2F1
 10
-26.149207
 20
-23.081262
 30
0.0
 11
-26.149207
 21
-85.081262
 31
0.0
  0
LINE
  8
0
  6
CONTINUOUS
 62
     7
  5
2F2
 10
129.150793
 20
-85.081262
 30
0.0
 11
150.150793
 21
-85.081262
 31
0.0
  0
LINE
  8
0
  6
CONTINUOUS
 62
     7
  5
2F3
 10
63.850793
 20
-23.081262
 30
0.0
 11
63.850793
 21
-85.081262
 31
0.0
  0
LINE
  8
0
  6
CONTINUOUS
 62
     7
  5
2F4
 10
-71.149207
 20
-63.081262
 30
0.0
 11
-71.149207
 21
-85.081262
 31
0.0
  0
LINE
  8
0
  6
CONTINUOUS
 62
     7
  5
2F5
 10
129.450793
 20
-23.081262
 30
0.0
 11
129.450793
 21
-54.081262
 31
0.0
  0
LINE
  8
0
  6
CONTINUOUS
 62
     7
  5
2F6
 10
-71.149207
 20
76.318738
 30
0.0
 11
3.650793
 21
76.318738
 31
0.0
  0
LINE
  8
0
  6
CONTINUOUS
 62
     7
  5
2F7
 10
-66.149207
 20
-23.081262
 30
0.0
 11
-41.149207
 21
-23.081262
 31
0.0
  0
LINE
  8
0
  6
CONTINUOUS
 62
     7
  5
2F8
 10
-71.149207
 20
76.318738
 30
0.0
 11
-71.149207
 21
55.918738
 31
0.0
  0
LINE
  8
0
  6
CONTINUOUS
 62
     7
  5
2F9
 10
-71.149207
 20
55.918738
 30
0.0
 11
3.650793
 21
55.918738
 31
0.0
  0
LINE
  8
0
  6
CONTINUOUS
 62
     7
  5
2FA
 10
149.850793
 20
-23.081262
 30
0.0
 11
149.850793
 21
-54.081262
 31
0.0
  0
LINE
  8
0
  6
CONTINUOUS
 62
     7
  5
2FB
 10
63.850793
 20
76.318738
 30
0.0
 11
63.850793
 21
55.918738
 31
0.0
  0
LINE
  8
0
  6
CONTINUOUS
 62
     7
  5
2FC
 10
-71.149207
 20
-85.081262
 30
0.0
 11
63.850793
 21
-85.081262
 31
0.0
  0
ENDSEC
  0
EOF
