  0
SECTION
  2
HEADER
  9
$ACADVER
  1
AC1012
  9
$DWGCODEPAGE
  3
dos932
  9
$INSBASE
 10
0.0
 20
0.0
 30
0.0
  9
$EXTMIN
 10
-281.25
 20
-195.0
 30
0.0
  9
$EXTMAX
 10
285.6319057062413
 20
195.5
 30
0.0
  9
$LIMMIN
 10
-281.25
 20
-195.0
  9
$LIMMAX
 10
285.6319057062413
 20
195.5
  9
$ORTHOMODE
 70
               0
  9
$REGENMODE
 70
               1
  9
$FILLMODE
 70
               1
  9
$QTEXTMODE
 70
               0
  9
$MIRRTEXT
 70
               1
  9
$DRAGMODE
 70
               2
  9
$LTSCALE
 40
1.0
  9
$OSMODE
 70
               0
  9
$ATTMODE
 70
               1
  9
$TEXTSIZE
 40
3.2000000476837158
  9
$TRACEWID
 40
0.05
  9
$TEXTSTYLE
  7
MX_NOTE_STANDARD
  9
$CLAYER
  8
0
  9
$CELTYPE
  6
CONTINUOUS
  9
$CECOLOR
 62
             256
  9
$CELTSCALE
 40
1.0
  9
$DELOBJ
 70
               1
  9
$DISPSILH
 70
               0
  9
$DIMSCALE
 40
1.0
  9
$DIMASZ
 40
2.5
  9
$DIMEXO
 40
1.5
  9
$DIMDLI
 40
3.75
  9
$DIMRND
 40
0.0
  9
$DIMDLE
 40
0.0
  9
$DIMEXE
 40
1.5
  9
$DIMTP
 40
0.0
  9
$DIMTM
 40
0.0
  9
$DIMTXT
 40
3.2000000476837158
  9
$DIMCEN
 40
2.5
  9
$DIMTSZ
 40
0.0
  9
$DIMTOL
 70
               0
  9
$DIMLIM
 70
               0
  9
$DIMTIH
 70
               0
  9
$DIMTOH
 70
               0
  9
$DIMSE1
 70
               0
  9
$DIMSE2
 70
               0
  9
$DIMTAD
 70
               1
  9
$DIMZIN
 70
               8
  9
$DIMBLK
  1

  9
$DIMASO
 70
               1
  9
$DIMSHO
 70
               1
  9
$DIMPOST
  1

  9
$DIMAPOST
  1

  9
$DIMALT
 70
               0
  9
$DIMALTD
 70
               4
  9
$DIMALTF
 40
0.03937007874016
  9
$DIMLFAC
 40
1.0
  9
$DIMTOFL
 70
               1
  9
$DIMTVP
 40
0.0
  9
$DIMTIX
 70
               0
  9
$DIMSOXD
 70
               0
  9
$DIMSAH
 70
               0
  9
$DIMBLK1
  1

  9
$DIMBLK2
  1

  9
$DIMSTYLE
  2
MXDIMSTYLE
  9
$DIMCLRD
 70
               0
  9
$DIMCLRE
 70
               0
  9
$DIMCLRT
 70
               0
  9
$DIMTFAC
 40
1.0
  9
$DIMGAP
 40
1.0
  9
$DIMJUST
 70
               0
  9
$DIMSD1
 70
               0
  9
$DIMSD2
 70
               0
  9
$DIMTOLJ
 70
               1
  9
$DIMTZIN
 70
               0
  9
$DIMALTZ
 70
               0
  9
$DIMALTTZ
 70
               0
  9
$DIMFIT
 70
               3
  9
$DIMUPT
 70
               1
  9
$DIMUNIT
 70
               2
  9
$DIMDEC
 70
               4
  9
$DIMTDEC
 70
               4
  9
$DIMALTU
 70
               2
  9
$DIMALTTD
 70
               4
  9
$DIMTXSTY
  7
MX_NOTE_STANDARD
  9
$DIMAUNIT
 70
               0
  9
$LUNITS
 70
               2
  9
$LUPREC
 70
               4
  9
$SKETCHINC
 40
0.1
  9
$FILLETRAD
 40
0.0
  9
$AUNITS
 70
               0
  9
$AUPREC
 70
               0
  9
$MENU
  1
acad
  9
$ELEVATION
 40
0.0
  9
$PELEVATION
 40
0.0
  9
$THICKNESS
 40
0.0
  9
$LIMCHECK
 70
               0
  9
$BLIPMODE
 70
               1
  9
$CHAMFERA
 40
0.0
  9
$CHAMFERB
 40
0.0
  9
$CHAMFERC
 40
0.0
  9
$CHAMFERD
 40
0.0
  9
$SKPOLY
 70
               0
  9
$TDCREATE
 40
2453378.356736111
  9
$TDUPDATE
 40
2453378.356736111
  9
$TDINDWG
 40
0.0000000000
  9
$TDUSRTIMER
 40
0.0000000000
  9
$USRTIMER
 70
               1
  9
$ANGBASE
 50
0.0
  9
$ANGDIR
 70
               0
  9
$PDMODE
 70
               0
  9
$PDSIZE
 40
0.0
  9
$PLINEWID
 40
0.0
  9
$COORDS
 70
               1
  9
$SPLFRAME
 70
               0
  9
$SPLINETYPE
 70
               6
  9
$SPLINESEGS
 70
               8
  9
$ATTDIA
 70
               0
  9
$ATTREQ
 70
               1
  9
$HANDLING
 70
               1
  9
$HANDSEED
  5
41C
  9
$SURFTAB1
 70
               6
  9
$SURFTAB2
 70
               6
  9
$SURFTYPE
 70
               6
  9
$SURFU
 70
               6
  9
$SURFV
 70
               6
  9
$UCSNAME
  2

  9
$UCSORG
 10
0.0
 20
0.0
 30
0.0
  9
$UCSXDIR
 10
1.0
 20
0.0
 30
0.0
  9
$UCSYDIR
 10
0.0
 20
1.0
 30
0.0
  9
$PUCSNAME
  2

  9
$PUCSORG
 10
0.0
 20
0.0
 30
0.0
  9
$PUCSXDIR
 10
1.0
 20
0.0
 30
0.0
  9
$PUCSYDIR
 10
0.0
 20
1.0
 30
0.0
  9
$USERI1
 70
               0
  9
$USERI2
 70
               0
  9
$USERI3
 70
               0
  9
$USERI4
 70
               0
  9
$USERI5
 70
               0
  9
$USERR1
 40
0.0
  9
$USERR2
 40
0.0
  9
$USERR3
 40
0.0
  9
$USERR4
 40
0.0
  9
$USERR5
 40
0.0
  9
$WORLDVIEW
 70
               1
  9
$SHADEDGE
 70
               3
  9
$SHADEDIF
 70
              70
  9
$TILEMODE
 70
               1
  9
$MAXACTVP
 70
              16
  9
$PINSBASE
 10
0.0
 20
0.0
 30
0.0
  9
$PLIMCHECK
 70
               0
  9
$PEXTMIN
 10
1.0000000000000000E+20
 20
1.0000000000000000E+20
 30
1.0000000000000000E+20
  9
$PEXTMAX
 10
-1.0000000000000000E+20
 20
-1.0000000000000000E+20
 30
-1.0000000000000000E+20
  9
$PLIMMIN
 10
0.0
 20
0.0
  9
$PLIMMAX
 10
12.0
 20
9.0
  9
$UNITMODE
 70
               0
  9
$VISRETAIN
 70
               0
  9
$PLINEGEN
 70
               1
  9
$PSLTSCALE
 70
               0
  9
$TREEDEPTH
 70
            3020
  9
$PICKSTYLE
 70
               1
  9
$CMLSTYLE
  2
Standard
  9
$CMLJUST
 70
               0
  9
$CMLSCALE
 40
1.0
  9
$SAVEIMAGES
 70
               0
  0
ENDSEC
  0
SECTION
  2
CLASSES
  0
CLASS
  1
LWPOLYLINE
  2
AcDbPolyline
  3
"AutoCAD"
 90
        0
280
               0
281
               1
  0
CLASS
  1
IMAGE
  2
AcDbRasterImage
  3
ISM
 90
      127
280
               0
281
               1
  0
CLASS
  1
OLE2FRAME
  2
AcDbOle2Frame
  3
""
 90
        0
280
               0
281
               1
  0
CLASS
  1
HATCH
  2
AcDbHatch
  3
"ACAD_SEDONA"
 90
        0
280
               0
281
               1
  0
CLASS
  1
DICTIONARYVAR
  2
AcDbDictionaryVar
  3
"AutoCAD"
 90
        0
280
               0
281
               0
  0
CLASS
  1
RASTERVARIABLES
  2
AcDbRasterVariables
  3
ISM
 90
        0
280
               0
281
               0
  0
CLASS
  1
IMAGEDEF
  2
AcDbRasterImageDef
  3
ISM
 90
        0
280
               0
281
               0
  0
CLASS
  1
IMAGEDEF_REACTOR
  2
AcDbRasterImageDefReactor
  3
ISM
 90
        1
280
               0
281
               0
  0
CLASS
  1
IDBUFFER
  2
AcDbIdBuffer
  3
"Acad"
 90
        0
280
               0
281
               0
  0
CLASS
  1
SPATIAL_FILTER
  2
AcDbSpatialFilter
  3
"Acad"
 90
        0
280
               0
281
               0
  0
CLASS
  1
XRECORD
  2
AcDbXrecord
  3
"<Built In>"
 90
        0
280
               0
281
               0
  0
CLASS
  1
SORTENTSTABLE
  2
AcDbSortentsTable
  3
"AutoCAD"
 90
        0
280
               0
281
               0
  0
CLASS
  1
LAYER_INDEX
  2
AcDbLayerIndex
  3
"Acad"
 90
        0
280
               0
281
               0
  0
CLASS
  1
SPATIAL_INDEX
  2
AcDbSpatialIndex
  3
"Acad"
 90
        0
280
               0
281
               0
  0
CLASS
  1
OBJECT_PTR
  2
CAseDLPNTableRecord
  3
"ASE-LPNTableRecord"
 90
        1
280
               0
281
               0
  0
CLASS
  1
LAYOUT
  2
AcDbLayout
  3
"AutoCAD 2000"
 90
        1
280
               0
281
               0
  0
CLASS
  1
PLOTSETTINGS
  2
AcDbPlotSettings
  3
"AutoCAD 2000"
 90
        1
280
               0
281
               0
  0
CLASS
  1
ACDBDICTIONARYWDFLT
  2
AcDbDictionaryWithDefault
  3
"AutoCAD 2000"
 90
        1
280
               0
281
               0
  0
CLASS
  1
ACDBPLACEHOLDER
  2
AcDbPlaceHolder
  3
"AutoCAD 2000"
 90
        1
280
               0
281
               0
  0
ENDSEC
  0
SECTION
  2
TABLES
  0
TABLE
  2
VPORT
  5
7
100
AcDbSymbolTable
 70
               1
  0
VPORT
  5
15
100
AcDbSymbolTableRecord
100
AcDbViewportTableRecord
  2
*ACTIVE
 70
               0
 10
0.0
 20
0.0
 11
1.0
 21
1.0
 12
2.1909528531206206
 22
0.25
 13
0.0
 23
0.0
 14
1.0
 24
1.0
 15
0.0
 25
0.0
 16
0.0
 26
0.0
 36
1.0
 17
0.0
 27
0.0
 37
0.0
 40
394.40500000000003
 41
1.7320508075688772
 42
50.0
 43
0.0
 44
0.0
 50
0.0
 51
0.0
 71
               0
 72
             100
 73
               1
 74
               1
 75
               0
 76
               0
 77
               0
 78
               0
  0
ENDTAB
  0
TABLE
  2
LTYPE
  5
4
100
AcDbSymbolTable
 70
               6
  0
LTYPE
  5
11
100
AcDbSymbolTableRecord
100
AcDbLinetypeTableRecord
  2
BYBLOCK
 70
              64
  3

 72
              65
 73
               0
 40
0.0
  0
LTYPE
  5
12
100
AcDbSymbolTableRecord
100
AcDbLinetypeTableRecord
  2
BYLAYER
 70
              64
  3

 72
              65
 73
               0
 40
0.0
  0
LTYPE
  5
13
100
AcDbSymbolTableRecord
100
AcDbLinetypeTableRecord
  2
CONTINUOUS
 70
              64
  3
Solid line
 72
              65
 73
               0
 40
0.0
  0
LTYPE
  5
25
100
AcDbSymbolTableRecord
100
AcDbLinetypeTableRecord
  2
CENTER
 70
              64
  3
Center ____ _ ____ _ ____ _ ____ _ ____ _ ____
 72
              65
 73
               4
 40
26.0
 49
20.0
 74
               0
 49
-2.0
 74
               0
 49
2.0
 74
               0
 49
-2.0
 74
               0
  0
LTYPE
  5
2B
100
AcDbSymbolTableRecord
100
AcDbLinetypeTableRecord
  2
DASHED
 70
              64
  3
Dashed __ __ __ __ __ __ __ __ __ __ __ __ __ _
 72
              65
 73
               2
 40
4.0
 49
2.0
 74
               0
 49
-2.0
 74
               0
  0
LTYPE
  5
AA
100
AcDbSymbolTableRecord
100
AcDbLinetypeTableRecord
  2
PHANTOM
 70
              64
  3
Phantom ______  __  __  ______  __  __  ______
 72
              65
 73
               6
 40
30.0
 49
20.0
 74
               0
 49
-2.0
 74
               0
 49
2.0
 74
               0
 49
-2.0
 74
               0
 49
2.0
 74
               0
 49
-2.0
 74
               0
  0
ENDTAB
  0
TABLE
  2
LAYER
  5
2
100
AcDbSymbolTable
 70
               2
  0
LAYER
  5
14
100
AcDbSymbolTableRecord
100
AcDbLayerTableRecord
  2
0
 70
               0
 62
               7
  6
CONTINUOUS
  0
LAYER
  5
1D
100
AcDbSymbolTableRecord
100
AcDbLayerTableRecord
  2
DEFPOINTS
 70
               0
 62
               7
  6
CONTINUOUS
  0
ENDTAB
  0
TABLE
  2
STYLE
  5
3
100
AcDbSymbolTable
 70
               1
  0
STYLE
  5
17
100
AcDbSymbolTableRecord
100
AcDbTextStyleTableRecord
  2
MX_NOTE_STANDARD
 70
               0
 40
0.0
 41
1.0
 50
0.0
 71
               0
 42
3.2000000476837158
  3
txt.shx
  4
extfont.shx
  0
ENDTAB
  0
TABLE
  2
VIEW
  5
5
100
AcDbSymbolTable
 70
               0
  0
ENDTAB
  0
TABLE
  2
UCS
  5
6
100
AcDbSymbolTable
 70
               0
  0
ENDTAB
  0
TABLE
  2
APPID
  5
8
100
AcDbSymbolTable
 70
               1
  0
APPID
  5
16
100
AcDbSymbolTableRecord
100
AcDbRegAppTableRecord
  2
ACAD
 70
               0
  0
ENDTAB
  0
TABLE
  2
DIMSTYLE
  5
9
100
AcDbSymbolTable
 70
               1
  0
DIMSTYLE
105
18
100
AcDbSymbolTableRecord
100
AcDbDimStyleTableRecord
  2
MXDIMSTYLE
 70
               0
  3

  4

  5

  6

  7

 40
1.0
 41
2.5
 42
1.5
 43
3.75
 44
1.5
 45
0.0
 46
0.0
 47
0.0
 48
0.0
 71
               0
 72
               0
 73
               0
 74
               0
 75
               0
 76
               0
 77
               1
 78
               8
140
3.2000000476837158
141
2.5
142
0.0
143
0.03937007874016
144
1.0
145
0.0
146
1.0
147
1.0
170
               0
171
               4
172
               1
173
               0
174
               0
175
               0
176
               0
177
               0
178
               0
270
               2
271
               4
272
               4
273
               2
274
               4
275
               0
280
               0
281
               0
282
               0
283
               1
284
               0
285
               0
286
               0
287
               3
288
               1
340
17
  0
ENDTAB
  0
TABLE
  2
BLOCK_RECORD
  5
1
100
AcDbSymbolTable
 70
               7
  0
BLOCK_RECORD
  5
A
100
AcDbSymbolTableRecord
100
AcDbBlockTableRecord
  2
*MODEL_SPACE
  0
BLOCK_RECORD
  5
B
100
AcDbSymbolTableRecord
100
AcDbBlockTableRecord
  2
*PAPER_SPACE
  0
BLOCK_RECORD
  5
1E
100
AcDbSymbolTableRecord
100
AcDbBlockTableRecord
  2
MV090-05-F-1
  0
BLOCK_RECORD
  5
1F
100
AcDbSymbolTableRecord
100
AcDbBlockTableRecord
  2
MV090-05-F-2
  0
BLOCK_RECORD
  5
20
100
AcDbSymbolTableRecord
100
AcDbBlockTableRecord
  2
MV090-05-F-3
  0
BLOCK_RECORD
  5
21
100
AcDbSymbolTableRecord
100
AcDbBlockTableRecord
  2
MV090-05-F-4
  0
BLOCK_RECORD
  5
22
100
AcDbSymbolTableRecord
100
AcDbBlockTableRecord
  2
MV090-05-F-5
  0
BLOCK_RECORD
  5
23
100
AcDbSymbolTableRecord
100
AcDbBlockTableRecord
  2
MV090-05-F-6
  0
BLOCK_RECORD
  5
40F
100
AcDbSymbolTableRecord
100
AcDbBlockTableRecord
  2
_OPEN30
  0
ENDTAB
  0
ENDSEC
  0
SECTION
  2
BLOCKS
  0
BLOCK
  5
D
100
AcDbEntity
  8
0
100
AcDbBlockBegin
  2
*MODEL_SPACE
 70
               0
 10
0.0
 20
0.0
 30
0.0
  3
*MODEL_SPACE
  1

  0
ENDBLK
  5
E
100
AcDbEntity
  8
0
100
AcDbBlockEnd
  0
BLOCK
  5
F
100
AcDbEntity
 67
               1
  8
0
100
AcDbBlockBegin
  2
*PAPER_SPACE
 70
               0
 10
0.0
 20
0.0
 30
0.0
  3
*PAPER_SPACE
  1

  0
ENDBLK
  5
10
100
AcDbEntity
 67
               1
  8
0
100
AcDbBlockEnd
  0
BLOCK
  5
24
100
AcDbEntity
  8
0
100
AcDbBlockBegin
  2
MV090-05-F-1
 70
               0
 10
0.0
 20
0.0
 30
0.0
  3
MV090-05-F-1
  1

  0
LINE
  5
26
100
AcDbEntity
  8
0
  6
CENTER
 62
             200
100
AcDbLine
 10
0.0
 20
-1.6999999999999886
 30
0.0
 11
0.0
 21
3.3000000000000114
 31
0.0
  0
LINE
  5
27
100
AcDbEntity
  8
0
  6
CENTER
 62
             200
100
AcDbLine
 10
-7.7000000000000171
 20
19.0
 30
0.0
 11
-0.4512971541956006
 21
19.0
 31
0.0
  0
LINE
  5
28
100
AcDbEntity
  8
0
  6
CENTER
 62
             200
100
AcDbLine
 10
-7.7000000000000171
 20
6.0
 30
0.0
 11
-0.4512971541956006
 21
6.0
 31
0.0
  0
ARC
  5
29
100
AcDbEntity
  8
0
  6
CONTINUOUS
 62
               4
100
AcDbCircle
 10
-5.5
 20
0.5
 30
0.0
 40
0.5
100
AcDbArc
 50
179.99999999999963
 51
269.99999999999937
  0
ARC
  5
2A
100
AcDbEntity
  8
0
  6
CONTINUOUS
 62
               4
100
AcDbCircle
 10
-4.0
 20
2.0
 30
0.0
 40
0.4
100
AcDbArc
 50
179.99999999999963
 51
269.99999999999937
  0
ARC
  5
2C
100
AcDbEntity
  8
0
  6
DASHED
 62
             200
100
AcDbCircle
 10
-4.0
 20
2.0
 30
0.0
 40
2.0
100
AcDbArc
 50
179.99999999999963
 51
269.99999999999937
  0
ARC
  5
2D
100
AcDbEntity
  8
0
  6
CONTINUOUS
 62
               4
100
AcDbCircle
 10
3.5
 20
0.5
 30
0.0
 40
0.5
100
AcDbArc
 50
269.99999999999937
 51
0.0
  0
ARC
  5
2E
100
AcDbEntity
  8
0
  6
CONTINUOUS
 62
               4
100
AcDbCircle
 10
3.5
 20
1.0999999999999943
 30
0.0
 40
0.5
100
AcDbArc
 50
0.0
 51
89.999999999999815
  0
ARC
  5
2F
100
AcDbEntity
  8
0
  6
CONTINUOUS
 62
               4
100
AcDbCircle
 10
-4.9000000000000057
 20
22.5
 30
0.0
 40
0.5
100
AcDbArc
 50
0.0
 51
89.999999999999815
  0
ARC
  5
30
100
AcDbEntity
  8
0
  6
CONTINUOUS
 62
               4
100
AcDbCircle
 10
-5.5
 20
22.5
 30
0.0
 40
0.5
100
AcDbArc
 50
89.999999999999815
 51
179.99999999999963
  0
LINE
  5
31
100
AcDbEntity
  8
0
  6
CONTINUOUS
 62
               4
100
AcDbLine
 10
-5.5
 20
23.0
 30
0.0
 11
-4.9000000000000057
 21
23.0
 31
0.0
  0
LINE
  5
32
100
AcDbEntity
  8
0
  6
CONTINUOUS
 62
               4
100
AcDbLine
 10
3.5
 20
1.5999999999999943
 30
0.0
 11
-5.9595917942265544
 21
1.5999999999999943
 31
0.0
  0
LINE
  5
33
100
AcDbEntity
  8
0
  6
CONTINUOUS
 62
               4
100
AcDbLine
 10
3.5
 20
0.0
 30
0.0
 11
-5.5
 21
0.0
 31
0.0
  0
LINE
  5
34
100
AcDbEntity
  8
0
  6
CONTINUOUS
 62
               4
100
AcDbLine
 10
-4.4000000000000057
 20
22.5
 30
0.0
 11
-4.4000000000000057
 21
2.0
 31
0.0
  0
LINE
  5
35
100
AcDbEntity
  8
0
  6
CONTINUOUS
 62
               4
100
AcDbLine
 10
-6.0
 20
2.0
 30
0.0
 11
-6.0
 21
0.5
 31
0.0
  0
LINE
  5
36
100
AcDbEntity
  8
0
  6
CONTINUOUS
 62
               4
100
AcDbLine
 10
4.0
 20
1.0999999999999943
 30
0.0
 11
4.0
 21
0.5
 31
0.0
  0
LINE
  5
37
100
AcDbEntity
  8
0
  6
CONTINUOUS
 62
               4
100
AcDbLine
 10
-2.0500000000000114
 20
21.25
 30
0.0
 11
-1.8000000000000114
 21
21.0
 31
0.0
  0
LINE
  5
38
100
AcDbEntity
  8
0
  6
CONTINUOUS
 62
               4
100
AcDbLine
 10
-2.0500000000000114
 20
16.75
 30
0.0
 11
-1.8000000000000114
 21
17.0
 31
0.0
  0
LINE
  5
39
100
AcDbEntity
  8
0
  6
CONTINUOUS
 62
               4
100
AcDbLine
 10
-2.0500000000000114
 20
21.25
 30
0.0
 11
-2.0500000000000114
 21
16.75
 31
0.0
  0
LINE
  5
3A
100
AcDbEntity
  8
0
  6
CONTINUOUS
 62
               4
100
AcDbLine
 10
-1.8000000000000114
 20
21.0
 30
0.0
 11
-1.8000000000000114
 21
17.0
 31
0.0
  0
LINE
  5
3B
100
AcDbEntity
  8
0
  6
CONTINUOUS
 62
               4
100
AcDbLine
 10
-2.0500000000000114
 20
21.25
 30
0.0
 11
-4.4000000000000057
 21
21.25
 31
0.0
  0
LINE
  5
3C
100
AcDbEntity
  8
0
  6
CONTINUOUS
 62
               4
100
AcDbLine
 10
-2.0500000000000114
 20
16.75
 30
0.0
 11
-4.4000000000000057
 21
16.75
 31
0.0
  0
LINE
  5
3D
100
AcDbEntity
  8
0
  6
CONTINUOUS
 62
               4
100
AcDbLine
 10
-2.0500000000000114
 20
3.75
 30
0.0
 11
-4.4000000000000057
 21
3.75
 31
0.0
  0
LINE
  5
3E
100
AcDbEntity
  8
0
  6
CONTINUOUS
 62
               4
100
AcDbLine
 10
-2.0500000000000114
 20
8.25
 30
0.0
 11
-4.4000000000000057
 21
8.25
 31
0.0
  0
LINE
  5
3F
100
AcDbEntity
  8
0
  6
CONTINUOUS
 62
               4
100
AcDbLine
 10
-1.8000000000000114
 20
8.0
 30
0.0
 11
-1.8000000000000114
 21
4.0
 31
0.0
  0
LINE
  5
40
100
AcDbEntity
  8
0
  6
CONTINUOUS
 62
               4
100
AcDbLine
 10
-2.0500000000000114
 20
8.25
 30
0.0
 11
-2.0500000000000114
 21
3.75
 31
0.0
  0
LINE
  5
41
100
AcDbEntity
  8
0
  6
CONTINUOUS
 62
               4
100
AcDbLine
 10
-2.0500000000000114
 20
3.75
 30
0.0
 11
-1.8000000000000114
 21
4.0
 31
0.0
  0
LINE
  5
42
100
AcDbEntity
  8
0
  6
CONTINUOUS
 62
               4
100
AcDbLine
 10
-2.0500000000000114
 20
8.25
 30
0.0
 11
-1.8000000000000114
 21
8.0
 31
0.0
  0
LINE
  5
43
100
AcDbEntity
  8
0
  6
CENTER
 62
               2
100
AcDbLine
 10
-14.541484900062244
 20
41.0
 30
0.0
 11
-6.7999999999999545
 21
41.0
 31
0.0
  0
LINE
  5
44
100
AcDbEntity
  8
0
  6
CENTER
 62
               2
100
AcDbLine
 10
-12.0
 20
57.266310481853196
 30
0.0
 11
-12.0
 21
52.985716831808276
 31
0.0
  0
LINE
  5
45
100
AcDbEntity
  8
0
  6
CONTINUOUS
 62
               7
100
AcDbLine
 10
-15.25
 20
56.199999999999989
 30
0.0
 11
-8.75
 21
56.199999999999989
 31
0.0
  0
CIRCLE
  5
46
100
AcDbEntity
  8
0
  6
CONTINUOUS
 62
               7
100
AcDbCircle
 10
-10.0
 20
11.0
 30
0.0
 40
2.1000000000000001
  0
CIRCLE
  5
47
100
AcDbEntity
  8
0
  6
CONTINUOUS
 62
               2
100
AcDbCircle
 10
-10.0
 20
11.0
 30
0.0
 40
2.5
  0
CIRCLE
  5
48
100
AcDbEntity
  8
0
  6
CONTINUOUS
 62
               2
100
AcDbCircle
 10
-11.0
 20
41.0
 30
0.0
 40
2.5
  0
CIRCLE
  5
49
100
AcDbEntity
  8
0
  6
CONTINUOUS
 62
               7
100
AcDbCircle
 10
-11.0
 20
41.0
 30
0.0
 40
2.1000000000000001
  0
ARC
  5
4A
100
AcDbEntity
  8
0
  6
CONTINUOUS
 62
               7
100
AcDbCircle
 10
-7.5
 20
46.0
 30
0.0
 40
1.7
100
AcDbArc
 50
28.072486935852801
 51
331.9275130641463
  0
LINE
  5
4B
100
AcDbEntity
  8
0
  6
CENTER
 62
               2
100
AcDbLine
 10
-9.9066589702860028
 20
46.0
 30
0.0
 11
-5.1701962909166355
 21
46.0
 31
0.0
  0
LINE
  5
4C
100
AcDbEntity
  8
0
  6
CENTER
 62
               2
100
AcDbLine
 10
-7.5
 20
48.135137094546309
 30
0.0
 11
-7.5
 21
44.047118710566792
 31
0.0
  0
ARC
  5
4D
100
AcDbEntity
  8
0
  6
CONTINUOUS
 62
               7
100
AcDbCircle
 10
-14.5
 20
25.5
 30
0.0
 40
1.7
100
AcDbArc
 50
208.0724869358524
 51
151.92751306414652
  0
LINE
  5
4E
100
AcDbEntity
  8
0
  6
CENTER
 62
               2
100
AcDbLine
 10
-16.757613917231026
 20
25.5
 30
0.0
 11
-11.823798626221276
 21
25.5
 31
0.0
  0
LINE
  5
4F
100
AcDbEntity
  8
0
  6
CENTER
 62
               2
100
AcDbLine
 10
-14.5
 20
23.325094488325732
 30
0.0
 11
-14.5
 21
27.554079023476959
 31
0.0
  0
LINE
  5
50
100
AcDbEntity
  8
0
  6
CENTER
 62
               2
100
AcDbLine
 10
-11.0
 20
36.330469218969284
 30
0.0
 11
-11.0
 21
44.899774867390676
 31
0.0
  0
LINE
  5
51
100
AcDbEntity
  8
0
  6
CENTER
 62
               2
100
AcDbLine
 10
-6.6652521861325909
 20
11.0
 30
0.0
 11
-14.366369528469136
 21
11.0
 31
0.0
  0
LINE
  5
52
100
AcDbEntity
  8
0
  6
CENTER
 62
               2
100
AcDbLine
 10
-10.0
 20
13.895239509007752
 30
0.0
 11
-10.0
 21
8.0136459308991448
 31
0.0
  0
LINE
  5
53
100
AcDbEntity
  8
0
  6
CENTER
 62
               2
100
AcDbLine
 10
-6.1999999999999886
 20
29.497447365852054
 30
0.0
 11
-12.199999999999989
 21
29.497447365852054
 31
0.0
  0
LINE
  5
54
100
AcDbEntity
  8
0
  6
CENTER
 62
               2
100
AcDbLine
 10
-9.0000000000000568
 20
32.497447365852054
 30
0.0
 11
-9.0000000000000568
 21
26.497447365852054
 31
0.0
  0
CIRCLE
  5
55
100
AcDbEntity
  8
0
  6
CONTINUOUS
 62
               2
100
AcDbCircle
 10
-9.0000000000000568
 20
29.497447365852054
 30
0.0
 40
2.5
  0
CIRCLE
  5
56
100
AcDbEntity
  8
0
  6
CONTINUOUS
 62
               7
100
AcDbCircle
 10
-9.0000000000000568
 20
29.497447365852054
 30
0.0
 40
2.1000000000000001
  0
LINE
  5
57
100
AcDbEntity
  8
0
  6
CONTINUOUS
 62
               7
100
AcDbLine
 10
-15.25
 20
56.199999999999989
 30
0.0
 11
-14.75
 21
56.699999999999989
 31
0.0
  0
LINE
  5
58
100
AcDbEntity
  8
0
  6
CONTINUOUS
 62
               7
100
AcDbLine
 10
-15.25
 20
53.5
 30
0.0
 11
-15.25
 21
56.199999999999989
 31
0.0
  0
LINE
  5
59
100
AcDbEntity
  8
0
  6
CONTINUOUS
 62
               7
100
AcDbLine
 10
-9.25
 20
56.699999999999989
 30
0.0
 11
-14.75
 21
56.699999999999989
 31
0.0
  0
LINE
  5
5A
100
AcDbEntity
  8
0
  6
CONTINUOUS
 62
               7
100
AcDbLine
 10
-8.75
 20
56.199999999999989
 30
0.0
 11
-9.25
 21
56.699999999999989
 31
0.0
  0
LINE
  5
5B
100
AcDbEntity
  8
0
  6
CONTINUOUS
 62
               7
100
AcDbLine
 10
-8.75
 20
53.5
 30
0.0
 11
-8.75
 21
56.199999999999989
 31
0.0
  0
LINE
  5
5C
100
AcDbEntity
  8
0
  6
CONTINUOUS
 62
               7
100
AcDbLine
 10
-26.0
 20
2.0
 30
0.0
 11
-6.0
 21
2.0
 31
0.0
  0
LINE
  5
5D
100
AcDbEntity
  8
0
  6
CONTINUOUS
 62
               7
100
AcDbLine
 10
-16.0
 20
68.5
 30
0.0
 11
-16.0
 21
2.0
 31
0.0
  0
LINE
  5
5E
100
AcDbEntity
  8
0
  6
CONTINUOUS
 62
               7
100
AcDbLine
 10
-6.0
 20
53.5
 30
0.0
 11
-6.0
 21
2.0
 31
0.0
  0
LINE
  5
5F
100
AcDbEntity
  8
0
  6
CONTINUOUS
 62
               7
100
AcDbLine
 10
-6.0
 20
53.5
 30
0.0
 11
-16.0
 21
53.5
 31
0.0
  0
CIRCLE
  5
60
100
AcDbEntity
  8
0
  6
CONTINUOUS
 62
               7
100
AcDbCircle
 10
-7.5
 20
46.0
 30
0.0
 40
1.5
  0
LINE
  5
61
100
AcDbEntity
  8
0
  6
CONTINUOUS
 62
               7
100
AcDbLine
 10
-6.7221825406948028
 20
46.777817459305226
 30
0.0
 11
-8.2778174593051972
 21
45.222182540694803
 31
0.0
  0
LINE
  5
62
100
AcDbEntity
  8
0
  6
CONTINUOUS
 62
               7
100
AcDbLine
 10
-8.2778174593051972
 20
46.777817459305226
 30
0.0
 11
-6.7221825406948028
 21
45.222182540694803
 31
0.0
  0
LINE
  5
63
100
AcDbEntity
  8
0
  6
CONTINUOUS
 62
               7
100
AcDbLine
 10
-13.722182540694803
 20
26.277817459305226
 30
0.0
 11
-15.277817459305197
 21
24.722182540694803
 31
0.0
  0
LINE
  5
64
100
AcDbEntity
  8
0
  6
CONTINUOUS
 62
               7
100
AcDbLine
 10
-15.277817459305197
 20
26.277817459305226
 30
0.0
 11
-13.722182540694803
 21
24.722182540694803
 31
0.0
  0
CIRCLE
  5
65
100
AcDbEntity
  8
0
  6
CONTINUOUS
 62
               7
100
AcDbCircle
 10
-14.5
 20
25.5
 30
0.0
 40
1.5
  0
LINE
  5
66
100
AcDbEntity
  8
0
  6
CONTINUOUS
 62
               2
100
AcDbLine
 10
-15.248081825185182
 20
81.636187275061729
 30
0.0
 11
-22.968683298765427
 21
78.714878609382708
 31
0.0
  0
LINE
  5
67
100
AcDbEntity
  8
0
  6
CONTINUOUS
 62
               7
100
AcDbLine
 10
-21.5
 20
84.934434807572018
 30
0.0
 11
-21.5
 21
79.270596614320993
 31
0.0
  0
LINE
  5
68
100
AcDbEntity
  8
0
  6
CENTER
 62
               2
100
AcDbLine
 10
-21.0
 20
11.776303680708395
 30
0.0
 11
-21.0
 21
5.1057223203130491
 31
0.0
  0
LINE
  5
69
100
AcDbEntity
  8
0
  6
CONTINUOUS
 62
               7
100
AcDbLine
 10
-16.049999999999955
 20
60.300000000000125
 30
0.0
 11
-16.049999999999955
 21
66.500000000000114
 31
0.0
  0
LINE
  5
6A
100
AcDbEntity
  8
0
  6
CONTINUOUS
 62
               7
100
AcDbLine
 10
-25.950000000000045
 20
60.300000000000125
 30
0.0
 11
-25.950000000000045
 21
66.500000000000114
 31
0.0
  0
LINE
  5
6B
100
AcDbEntity
  8
0
  6
CONTINUOUS
 62
               7
100
AcDbLine
 10
-16.0
 20
68.000000000000114
 30
0.0
 11
-26.0
 21
68.000000000000114
 31
0.0
  0
LINE
  5
6C
100
AcDbEntity
  8
0
  6
CONTINUOUS
 62
               7
100
AcDbLine
 10
-16.049999999999955
 20
60.300000000000125
 30
0.0
 11
-16.350000000000023
 21
60.000000000000114
 31
0.0
  0
LINE
  5
6D
100
AcDbEntity
  8
0
  6
CONTINUOUS
 62
               7
100
AcDbLine
 10
-25.950000000000045
 20
60.300000000000125
 30
0.0
 11
-25.649999999999977
 21
60.000000000000114
 31
0.0
  0
ARC
  5
6E
100
AcDbEntity
  8
0
  6
CONTINUOUS
 62
               7
100
AcDbCircle
 10
-17.549999999999955
 20
66.500000000000114
 30
0.0
 40
1.5
100
AcDbArc
 50
0.0
 51
89.999999999999815
  0
ARC
  5
6F
100
AcDbEntity
  8
0
  6
CONTINUOUS
 62
               7
100
AcDbCircle
 10
-24.450000000000045
 20
66.500000000000114
 30
0.0
 40
1.5
100
AcDbArc
 50
89.999999999999815
 51
179.99999999999963
  0
LINE
  5
70
100
AcDbEntity
  8
0
  6
CONTINUOUS
 62
               7
100
AcDbLine
 10
-16.0
 20
60.000000000000114
 30
0.0
 11
-26.0
 21
60.000000000000114
 31
0.0
  0
CIRCLE
  5
71
100
AcDbEntity
  8
0
  6
CONTINUOUS
 62
               7
100
AcDbCircle
 10
-21.0
 20
8.5
 30
0.0
 40
2.1000000000000001
  0
CIRCLE
  5
72
100
AcDbEntity
  8
0
  6
CONTINUOUS
 62
               2
100
AcDbCircle
 10
-21.0
 20
8.5
 30
0.0
 40
2.5
  0
LINE
  5
73
100
AcDbEntity
  8
0
  6
CONTINUOUS
 62
               7
100
AcDbLine
 10
-26.0
 20
16.0
 30
0.0
 11
-16.0
 21
16.0
 31
0.0
  0
LINE
  5
74
100
AcDbEntity
  8
0
  6
CONTINUOUS
 62
               7
100
AcDbLine
 10
-21.5
 20
68.5
 30
0.0
 11
-21.5
 21
78.270596614320993
 31
0.0
  0
LINE
  5
75
100
AcDbEntity
  8
0
  6
CONTINUOUS
 62
               7
100
AcDbLine
 10
-16.5
 20
68.5
 30
0.0
 11
-16.5
 21
80.162488506212867
 31
0.0
  0
LINE
  5
76
100
AcDbEntity
  8
0
  6
CONTINUOUS
 62
               7
100
AcDbLine
 10
-22.0
 20
68.0
 30
0.0
 11
-22.0
 21
68.5
 31
0.0
  0
LINE
  5
77
100
AcDbEntity
  8
0
  6
CONTINUOUS
 62
               7
100
AcDbLine
 10
-16.0
 20
68.5
 30
0.0
 11
-22.0
 21
68.5
 31
0.0
  0
LINE
  5
78
100
AcDbEntity
  8
0
  6
CENTER
 62
               2
100
AcDbLine
 10
-24.0
 20
8.5
 30
0.0
 11
-18.0
 21
8.5
 31
0.0
  0
LINE
  5
79
100
AcDbEntity
  8
0
  6
CONTINUOUS
 62
               2
100
AcDbLine
 10
-15.248081825185182
 20
80.636187275061729
 30
0.0
 11
-22.968683298765427
 21
77.714878609382708
 31
0.0
  0
LINE
  5
7A
100
AcDbEntity
  8
0
  6
CONTINUOUS
 62
               7
100
AcDbLine
 10
-16.5
 20
84.934434807572018
 30
0.0
 11
-16.5
 21
81.162488506212867
 31
0.0
  0
LINE
  5
7B
100
AcDbEntity
  8
0
  6
CONTINUOUS
 62
               7
100
AcDbLine
 10
-16.5
 20
84.934434807572018
 30
0.0
 11
-21.5
 21
84.934434807572018
 31
0.0
  0
LINE
  5
7C
100
AcDbEntity
  8
0
  6
CONTINUOUS
 62
               7
100
AcDbLine
 10
-20.899999999999977
 20
88.5
 30
0.0
 11
-20.899999999999977
 21
93.5
 31
0.0
  0
LINE
  5
7D
100
AcDbEntity
  8
0
  6
CONTINUOUS
 62
               7
100
AcDbLine
 10
-20.100000000000023
 20
88.5
 30
0.0
 11
-20.100000000000023
 21
93.5
 31
0.0
  0
LINE
  5
7E
100
AcDbEntity
  8
0
  6
CONTINUOUS
 62
               7
100
AcDbLine
 10
-21.214999999999918
 20
88.5
 30
0.0
 11
-16.784999999999968
 21
88.5
 31
0.0
  0
LINE
  5
7F
100
AcDbEntity
  8
0
  6
CONTINUOUS
 62
               7
100
AcDbLine
 10
-20.899999999999977
 20
93.5
 30
0.0
 11
-20.100000000000023
 21
93.5
 31
0.0
  0
LINE
  5
80
100
AcDbEntity
  8
0
  6
CONTINUOUS
 62
               7
100
AcDbLine
 10
-21.214999999999918
 20
84.934434807572018
 30
0.0
 11
-21.214999999999918
 21
88.5
 31
0.0
  0
LINE
  5
81
100
AcDbEntity
  8
0
  6
CONTINUOUS
 62
               7
100
AcDbLine
 10
-19.784999999999968
 20
84.934434807572018
 30
0.0
 11
-19.784999999999968
 21
88.5
 31
0.0
  0
LINE
  5
82
100
AcDbEntity
  8
0
  6
CONTINUOUS
 62
               7
100
AcDbLine
 10
-19.899999999999977
 20
88.5
 30
0.0
 11
-19.899999999999977
 21
93.5
 31
0.0
  0
LINE
  5
83
100
AcDbEntity
  8
0
  6
CONTINUOUS
 62
               7
100
AcDbLine
 10
-19.100000000000023
 20
88.5
 30
0.0
 11
-19.100000000000023
 21
93.5
 31
0.0
  0
LINE
  5
84
100
AcDbEntity
  8
0
  6
CONTINUOUS
 62
               7
100
AcDbLine
 10
-19.899999999999977
 20
93.5
 30
0.0
 11
-19.100000000000023
 21
93.5
 31
0.0
  0
LINE
  5
85
100
AcDbEntity
  8
0
  6
CONTINUOUS
 62
               7
100
AcDbLine
 10
-18.784999999999968
 20
84.934434807572018
 30
0.0
 11
-18.784999999999968
 21
88.5
 31
0.0
  0
LINE
  5
86
100
AcDbEntity
  8
0
  6
CONTINUOUS
 62
               7
100
AcDbLine
 10
-18.899999999999977
 20
88.5
 30
0.0
 11
-18.899999999999977
 21
93.5
 31
0.0
  0
LINE
  5
87
100
AcDbEntity
  8
0
  6
CONTINUOUS
 62
               7
100
AcDbLine
 10
-18.100000000000023
 20
88.5
 30
0.0
 11
-18.100000000000023
 21
93.5
 31
0.0
  0
LINE
  5
88
100
AcDbEntity
  8
0
  6
CONTINUOUS
 62
               7
100
AcDbLine
 10
-18.899999999999977
 20
93.5
 30
0.0
 11
-18.100000000000023
 21
93.5
 31
0.0
  0
LINE
  5
89
100
AcDbEntity
  8
0
  6
CONTINUOUS
 62
               7
100
AcDbLine
 10
-17.784999999999968
 20
84.934434807572018
 30
0.0
 11
-17.784999999999968
 21
88.5
 31
0.0
  0
LINE
  5
8A
100
AcDbEntity
  8
0
  6
CONTINUOUS
 62
               7
100
AcDbLine
 10
-17.899999999999977
 20
88.5
 30
0.0
 11
-17.899999999999977
 21
93.5
 31
0.0
  0
LINE
  5
8B
100
AcDbEntity
  8
0
  6
CONTINUOUS
 62
               7
100
AcDbLine
 10
-17.100000000000023
 20
88.5
 30
0.0
 11
-17.100000000000023
 21
93.5
 31
0.0
  0
LINE
  5
8C
100
AcDbEntity
  8
0
  6
CONTINUOUS
 62
               7
100
AcDbLine
 10
-17.899999999999977
 20
93.5
 30
0.0
 11
-17.100000000000023
 21
93.5
 31
0.0
  0
LINE
  5
8D
100
AcDbEntity
  8
0
  6
CONTINUOUS
 62
               7
100
AcDbLine
 10
-16.784999999999968
 20
84.934434807572018
 30
0.0
 11
-16.784999999999968
 21
88.5
 31
0.0
  0
LINE
  5
8E
100
AcDbEntity
  8
0
  6
CONTINUOUS
 62
               7
100
AcDbLine
 10
-26.0
 20
2.0
 30
0.0
 11
-26.0
 21
68.000000000000114
 31
0.0
  0
ENDBLK
  5
8F
100
AcDbEntity
  8
0
100
AcDbBlockEnd
  0
BLOCK
  5
90
100
AcDbEntity
  8
0
100
AcDbBlockBegin
  2
MV090-05-F-2
 70
               0
 10
0.0
 20
0.0
 30
0.0
  3
MV090-05-F-2
  1

  0
LINE
  5
91
100
AcDbEntity
  8
0
  6
CONTINUOUS
 62
               4
100
AcDbLine
 10
-20.499999999999986
 20
2.0
 30
0.0
 11
-20.499999999999986
 21
0.5
 31
0.0
  0
LINE
  5
92
100
AcDbEntity
  8
0
  6
CONTINUOUS
 62
               4
100
AcDbLine
 10
-12.5
 20
2.0
 30
0.0
 11
-12.5
 21
0.0
 31
0.0
  0
LINE
  5
93
100
AcDbEntity
  8
0
  6
CENTER
 62
             200
100
AcDbLine
 10
-10.0
 20
-1.7000000000000171
 30
0.0
 11
-10.0
 21
3.2999999999999829
 31
0.0
  0
LINE
  5
94
100
AcDbEntity
  8
0
  6
CENTER
 62
             200
100
AcDbLine
 10
0.0
 20
-1.7000000000000171
 30
0.0
 11
0.0
 21
3.2999999999999829
 31
0.0
  0
ARC
  5
95
100
AcDbEntity
  8
0
  6
CONTINUOUS
 62
               4
100
AcDbCircle
 10
4.0
 20
1.0999999999999943
 30
0.0
 40
0.5
100
AcDbArc
 50
0.0
 51
89.999999999999815
  0
ARC
  5
96
100
AcDbEntity
  8
0
  6
CONTINUOUS
 62
               4
100
AcDbCircle
 10
4.0
 20
0.5
 30
0.0
 40
0.5
100
AcDbArc
 50
270.00000000000023
 51
0.0
  0
ARC
  5
97
100
AcDbEntity
  8
0
  6
CONTINUOUS
 62
               4
100
AcDbCircle
 10
-20.0
 20
0.5
 30
0.0
 40
0.5
100
AcDbArc
 50
179.99999999999963
 51
269.99999999999937
  0
LINE
  5
98
100
AcDbEntity
  8
0
  6
CONTINUOUS
 62
               4
100
AcDbLine
 10
4.5
 20
1.0999999999999943
 30
0.0
 11
4.5
 21
0.5
 31
0.0
  0
LINE
  5
99
100
AcDbEntity
  8
0
  6
CONTINUOUS
 62
               4
100
AcDbLine
 10
-12.5
 20
1.5999999999999943
 30
0.0
 11
4.0
 21
1.5999999999999943
 31
0.0
  0
LINE
  5
9A
100
AcDbEntity
  8
0
  6
CONTINUOUS
 62
               4
100
AcDbLine
 10
-20.0
 20
0.0
 30
0.0
 11
4.0
 21
0.0
 31
0.0
  0
LINE
  5
9B
100
AcDbEntity
  8
0
  6
CONTINUOUS
 62
               4
100
AcDbLine
 10
-10.0
 20
0.0
 30
0.0
 11
-10.0
 21
1.5999999999999943
 31
0.0
  0
LINE
  5
9C
100
AcDbEntity
  8
0
  6
CONTINUOUS
 62
               7
100
AcDbLine
 10
-28.000000000000014
 20
68.000000000000114
 30
0.0
 11
-28.000000000000014
 21
67.000000000000114
 31
0.0
  0
LINE
  5
9D
100
AcDbEntity
  8
0
  6
CONTINUOUS
 62
               7
100
AcDbLine
 10
-29.000000000000014
 20
68.000000000000114
 30
0.0
 11
-29.000000000000014
 21
67.000000000000114
 31
0.0
  0
LINE
  5
9E
100
AcDbEntity
  8
0
  6
CONTINUOUS
 62
               7
100
AcDbLine
 10
-29.000000000000014
 20
67.000000000000114
 30
0.0
 11
-28.000000000000014
 21
67.000000000000114
 31
0.0
  0
LINE
  5
9F
100
AcDbEntity
  8
0
  6
CONTINUOUS
 62
               7
100
AcDbLine
 10
-25.050000000000026
 20
68.000000000000114
 30
0.0
 11
-28.000000000000014
 21
68.000000000000114
 31
0.0
  0
LINE
  5
A0
100
AcDbEntity
  8
0
  6
CONTINUOUS
 62
               7
100
AcDbLine
 10
-29.000000000000014
 20
68.000000000000114
 30
0.0
 11
-31.950000000000003
 21
68.000000000000114
 31
0.0
  0
LINE
  5
A1
100
AcDbEntity
  8
0
  6
CONTINUOUS
 62
               7
100
AcDbLine
 10
-35.5
 20
60.000000000000171
 30
0.0
 11
-12.5
 21
60.000000000000171
 31
0.0
  0
LINE
  5
A2
100
AcDbEntity
  8
0
  6
CENTER
 62
               2
100
AcDbLine
 10
-15.909853225461234
 20
14.200000000000017
 30
0.0
 11
-12.153991849947644
 21
14.200000000000017
 31
0.0
  0
LINE
  5
A3
100
AcDbEntity
  8
0
  6
CENTER
 62
               2
100
AcDbLine
 10
-14.100000000000023
 20
12.588431204879953
 30
0.0
 11
-14.100000000000023
 21
16.178008641669351
 31
0.0
  0
LINE
  5
A4
100
AcDbEntity
  8
0
  6
CONTINUOUS
 62
               7
100
AcDbLine
 10
-61.29999999999994
 20
14.200000000000045
 30
0.0
 11
-62.166025403784417
 21
13.700000000000045
 31
0.0
  0
LINE
  5
A5
100
AcDbEntity
  8
0
  6
CONTINUOUS
 62
               7
100
AcDbLine
 10
-65.599999999999952
 20
19.500000000000057
 30
0.0
 11
-65.599999999999952
 21
14.200000000000045
 31
0.0
  0
LINE
  5
A6
100
AcDbEntity
  8
0
  6
CONTINUOUS
 62
               7
100
AcDbLine
 10
-65.699999999999974
 20
19.500000000000057
 30
0.0
 11
-69.699999999999974
 21
19.500000000000057
 31
0.0
  0
LINE
  5
A7
100
AcDbEntity
  8
0
  6
CONTINUOUS
 62
               7
100
AcDbLine
 10
-69.699999999999974
 20
14.400244132795649
 30
0.0
 11
-69.699999999999974
 21
13.200000000000045
 31
0.0
  0
LINE
  5
A8
100
AcDbEntity
  8
0
  6
CONTINUOUS
 62
               7
100
AcDbLine
 10
-65.699999999999974
 20
14.700000000000045
 30
0.0
 11
-65.699999999999974
 21
19.500000000000057
 31
0.0
  0
LINE
  5
A9
100
AcDbEntity
  8
0
  6
CONTINUOUS
 62
               7
100
AcDbLine
 10
-65.599999999999952
 20
14.700000000000045
 30
0.0
 11
-70.699999999999974
 21
14.700000000000045
 31
0.0
  0
LINE
  5
AB
100
AcDbEntity
  8
0
  6
PHANTOM
 62
               7
100
AcDbLine
 10
-66.499999999999929
 20
14.700000000000045
 30
0.0
 11
-67.998615454114699
 21
14.700000000000045
 31
0.0
  0
LINE
  5
AC
100
AcDbEntity
  8
0
  6
CONTINUOUS
 62
               7
100
AcDbLine
 10
-69.699999999999974
 20
14.400244132795649
 30
0.0
 11
-67.999999999999929
 21
14.700000000000045
 31
0.0
  0
LINE
  5
AD
100
AcDbEntity
  8
0
  6
CONTINUOUS
 62
               7
100
AcDbLine
 10
-70.699999999999974
 20
20.000000000000057
 30
0.0
 11
-70.699999999999974
 21
14.700000000000045
 31
0.0
  0
LINE
  5
AE
100
AcDbEntity
  8
0
  6
CONTINUOUS
 62
               7
100
AcDbLine
 10
-65.599999999999952
 20
18.800000000000011
 30
0.0
 11
-65.699999999999974
 21
18.800000000000011
 31
0.0
  0
LINE
  5
AF
100
AcDbEntity
  8
0
  6
CONTINUOUS
 62
               7
100
AcDbLine
 10
-68.988675134594743
 20
13.200000000000045
 30
0.0
 11
-69.699999999999974
 21
13.200000000000045
 31
0.0
  0
LINE
  5
B0
100
AcDbEntity
  8
0
  6
CONTINUOUS
 62
               7
100
AcDbLine
 10
-68.699999999999974
 20
13.700000000000045
 30
0.0
 11
-68.988675134594743
 21
13.200000000000045
 31
0.0
  0
LINE
  5
B1
100
AcDbEntity
  8
0
  6
CONTINUOUS
 62
               7
100
AcDbLine
 10
-69.988675134594743
 20
20.000000000000057
 30
0.0
 11
-70.699999999999974
 21
20.000000000000057
 31
0.0
  0
LINE
  5
B2
100
AcDbEntity
  8
0
  6
CONTINUOUS
 62
               7
100
AcDbLine
 10
-69.699999999999974
 20
19.500000000000057
 30
0.0
 11
-69.988675134594743
 21
20.000000000000057
 31
0.0
  0
LINE
  5
B3
100
AcDbEntity
  8
0
  6
CONTINUOUS
 62
               7
100
AcDbLine
 10
-62.166025403784417
 20
13.700000000000045
 30
0.0
 11
-68.699999999999974
 21
13.700000000000045
 31
0.0
  0
LINE
  5
B4
100
AcDbEntity
  8
0
  6
CONTINUOUS
 62
               7
100
AcDbLine
 10
-65.599999999833628
 20
14.200000000000045
 30
0.0
 11
-60.499999999999986
 21
14.200000000000045
 31
0.0
  0
LINE
  5
B5
100
AcDbEntity
  8
0
  6
CONTINUOUS
 62
               7
100
AcDbLine
 10
-65.599999999833628
 20
19.500000000000057
 30
0.0
 11
-60.499999999999986
 21
19.500000000000057
 31
0.0
  0
LINE
  5
B6
100
AcDbEntity
  8
0
  6
CONTINUOUS
 62
               7
100
AcDbLine
 10
-12.5
 20
16.0
 30
0.0
 11
-60.499999999999986
 21
16.0
 31
0.0
  0
LINE
  5
B7
100
AcDbEntity
  8
0
  6
CONTINUOUS
 62
               7
100
AcDbLine
 10
-12.5
 20
16.0
 30
0.0
 11
-12.5
 21
2.0
 31
0.0
  0
CIRCLE
  5
B8
100
AcDbEntity
  8
0
  6
CONTINUOUS
 62
               7
100
AcDbCircle
 10
-14.100000000000023
 20
14.199999999999989
 30
0.0
 40
1.3500000000000001
  0
CIRCLE
  5
B9
100
AcDbEntity
  8
0
  6
CONTINUOUS
 62
               7
100
AcDbCircle
 10
-25.0
 20
3.5
 30
0.0
 40
1.3500000000000001
  0
CIRCLE
  5
BA
100
AcDbEntity
  8
0
  6
CONTINUOUS
 62
               7
100
AcDbCircle
 10
-14.100000000000023
 20
14.199999999999989
 30
0.0
 40
1.25
  0
LINE
  5
BB
100
AcDbEntity
  8
0
  6
CONTINUOUS
 62
               7
100
AcDbLine
 10
-13.463603896932113
 20
13.563603896932079
 30
0.0
 11
-14.736396103067932
 21
14.836396103067898
 31
0.0
  0
LINE
  5
BC
100
AcDbEntity
  8
0
  6
CONTINUOUS
 62
               7
100
AcDbLine
 10
-13.463603896932113
 20
14.836396103067898
 30
0.0
 11
-14.736396103067932
 21
13.563603896932079
 31
0.0
  0
LINE
  5
BD
100
AcDbEntity
  8
0
  6
CONTINUOUS
 62
               7
100
AcDbLine
 10
-24.363603896932091
 20
4.1363961030678809
 30
0.0
 11
-25.636396103067909
 21
2.8636038969320907
 31
0.0
  0
LINE
  5
BE
100
AcDbEntity
  8
0
  6
CONTINUOUS
 62
               7
100
AcDbLine
 10
-24.363603896932091
 20
2.8636038969320907
 30
0.0
 11
-25.636396103067909
 21
4.1363961030678809
 31
0.0
  0
CIRCLE
  5
BF
100
AcDbEntity
  8
0
  6
CONTINUOUS
 62
               7
100
AcDbCircle
 10
-25.0
 20
3.5
 30
0.0
 40
1.25
  0
LINE
  5
C0
100
AcDbEntity
  8
0
  6
CENTER
 62
               2
100
AcDbLine
 10
-26.809853225461211
 20
3.5
 30
0.0
 11
-23.177225506442895
 21
3.5
 31
0.0
  0
LINE
  5
C1
100
AcDbEntity
  8
0
  6
CENTER
 62
               2
100
AcDbLine
 10
-25.0
 20
1.8884312048799643
 30
0.0
 11
-25.0
 21
5.3104703758025664
 31
0.0
  0
LINE
  5
C2
100
AcDbEntity
  8
0
  6
CONTINUOUS
 62
               7
100
AcDbLine
 10
-40.0
 20
68.5
 30
0.0
 11
-40.0
 21
78.270596614320993
 31
0.0
  0
LINE
  5
C3
100
AcDbEntity
  8
0
  6
CONTINUOUS
 62
               7
100
AcDbLine
 10
-45.0
 20
68.5
 30
0.0
 11
-45.0
 21
80.162488506212867
 31
0.0
  0
LINE
  5
C4
100
AcDbEntity
  8
0
  6
CONTINUOUS
 62
               7
100
AcDbLine
 10
-43.600000000000023
 20
93.5
 30
0.0
 11
-44.399999999999977
 21
93.5
 31
0.0
  0
LINE
  5
C5
100
AcDbEntity
  8
0
  6
CONTINUOUS
 62
               7
100
AcDbLine
 10
-42.600000000000023
 20
93.5
 30
0.0
 11
-43.399999999999977
 21
93.5
 31
0.0
  0
LINE
  5
C6
100
AcDbEntity
  8
0
  6
CONTINUOUS
 62
               7
100
AcDbLine
 10
-41.600000000000023
 20
93.5
 30
0.0
 11
-42.399999999999977
 21
93.5
 31
0.0
  0
LINE
  5
C7
100
AcDbEntity
  8
0
  6
CONTINUOUS
 62
               7
100
AcDbLine
 10
-40.600000000000023
 20
93.5
 30
0.0
 11
-41.399999999999977
 21
93.5
 31
0.0
  0
LINE
  5
C8
100
AcDbEntity
  8
0
  6
CONTINUOUS
 62
               7
100
AcDbLine
 10
-44.715000000000032
 20
84.934434807572018
 30
0.0
 11
-44.715000000000032
 21
88.5
 31
0.0
  0
LINE
  5
C9
100
AcDbEntity
  8
0
  6
CONTINUOUS
 62
               7
100
AcDbLine
 10
-43.715000000000032
 20
84.934434807572018
 30
0.0
 11
-43.715000000000032
 21
88.5
 31
0.0
  0
LINE
  5
CA
100
AcDbEntity
  8
0
  6
CONTINUOUS
 62
               7
100
AcDbLine
 10
-42.715000000000032
 20
84.934434807572018
 30
0.0
 11
-42.715000000000032
 21
88.5
 31
0.0
  0
LINE
  5
CB
100
AcDbEntity
  8
0
  6
CONTINUOUS
 62
               7
100
AcDbLine
 10
-41.715000000000032
 20
84.934434807572018
 30
0.0
 11
-41.715000000000032
 21
88.5
 31
0.0
  0
LINE
  5
CC
100
AcDbEntity
  8
0
  6
CONTINUOUS
 62
               7
100
AcDbLine
 10
-40.285000000000082
 20
84.934434807572018
 30
0.0
 11
-40.285000000000082
 21
88.5
 31
0.0
  0
LINE
  5
CD
100
AcDbEntity
  8
0
  6
CONTINUOUS
 62
               7
100
AcDbLine
 10
-40.285000000000082
 20
88.5
 30
0.0
 11
-44.715000000000032
 21
88.5
 31
0.0
  0
LINE
  5
CE
100
AcDbEntity
  8
0
  6
CONTINUOUS
 62
               7
100
AcDbLine
 10
-45.0
 20
84.934434807572018
 30
0.0
 11
-40.0
 21
84.934434807572018
 31
0.0
  0
LINE
  5
CF
100
AcDbEntity
  8
0
  6
CONTINUOUS
 62
               2
100
AcDbLine
 10
-46.251918174814804
 20
81.636187275061729
 30
0.0
 11
-38.531316701234573
 21
78.714878609382708
 31
0.0
  0
LINE
  5
D0
100
AcDbEntity
  8
0
  6
CONTINUOUS
 62
               2
100
AcDbLine
 10
-46.251918174814804
 20
80.636187275061729
 30
0.0
 11
-38.531316701234573
 21
77.714878609382708
 31
0.0
  0
LINE
  5
D1
100
AcDbEntity
  8
0
  6
CONTINUOUS
 62
               7
100
AcDbLine
 10
-40.0
 20
84.934434807572018
 30
0.0
 11
-40.0
 21
79.270596614320993
 31
0.0
  0
LINE
  5
D2
100
AcDbEntity
  8
0
  6
CONTINUOUS
 62
               7
100
AcDbLine
 10
-45.0
 20
84.934434807572018
 30
0.0
 11
-45.0
 21
81.162488506212867
 31
0.0
  0
LINE
  5
D3
100
AcDbEntity
  8
0
  6
CONTINUOUS
 62
               7
100
AcDbLine
 10
-40.600000000000023
 20
88.5
 30
0.0
 11
-40.600000000000023
 21
93.5
 31
0.0
  0
LINE
  5
D4
100
AcDbEntity
  8
0
  6
CONTINUOUS
 62
               7
100
AcDbLine
 10
-41.399999999999977
 20
88.5
 30
0.0
 11
-41.399999999999977
 21
93.5
 31
0.0
  0
LINE
  5
D5
100
AcDbEntity
  8
0
  6
CONTINUOUS
 62
               7
100
AcDbLine
 10
-41.600000000000023
 20
88.5
 30
0.0
 11
-41.600000000000023
 21
93.5
 31
0.0
  0
LINE
  5
D6
100
AcDbEntity
  8
0
  6
CONTINUOUS
 62
               7
100
AcDbLine
 10
-42.399999999999977
 20
88.5
 30
0.0
 11
-42.399999999999977
 21
93.5
 31
0.0
  0
LINE
  5
D7
100
AcDbEntity
  8
0
  6
CONTINUOUS
 62
               7
100
AcDbLine
 10
-42.600000000000023
 20
88.5
 30
0.0
 11
-42.600000000000023
 21
93.5
 31
0.0
  0
LINE
  5
D8
100
AcDbEntity
  8
0
  6
CONTINUOUS
 62
               7
100
AcDbLine
 10
-43.399999999999977
 20
88.5
 30
0.0
 11
-43.399999999999977
 21
93.5
 31
0.0
  0
LINE
  5
D9
100
AcDbEntity
  8
0
  6
CONTINUOUS
 62
               7
100
AcDbLine
 10
-43.600000000000023
 20
88.5
 30
0.0
 11
-43.600000000000023
 21
93.5
 31
0.0
  0
LINE
  5
DA
100
AcDbEntity
  8
0
  6
CONTINUOUS
 62
               7
100
AcDbLine
 10
-44.399999999999977
 20
88.5
 30
0.0
 11
-44.399999999999977
 21
93.5
 31
0.0
  0
LINE
  5
DB
100
AcDbEntity
  8
0
  6
CONTINUOUS
 62
               7
100
AcDbLine
 10
-35.5
 20
68.0
 30
0.0
 11
-35.5
 21
16.0
 31
0.0
  0
LINE
  5
DC
100
AcDbEntity
  8
0
  6
CONTINUOUS
 62
               7
100
AcDbLine
 10
-60.499999999999986
 20
68.0
 30
0.0
 11
-35.5
 21
68.0
 31
0.0
  0
LINE
  5
DD
100
AcDbEntity
  8
0
  6
CONTINUOUS
 62
               7
100
AcDbLine
 10
-45.5
 20
68.5
 30
0.0
 11
-39.5
 21
68.5
 31
0.0
  0
LINE
  5
DE
100
AcDbEntity
  8
0
  6
CONTINUOUS
 62
               7
100
AcDbLine
 10
-39.5
 20
68.0
 30
0.0
 11
-39.5
 21
68.5
 31
0.0
  0
LINE
  5
DF
100
AcDbEntity
  8
0
  6
CONTINUOUS
 62
               7
100
AcDbLine
 10
-60.499999999999986
 20
68.0
 30
0.0
 11
-60.499999999999986
 21
2.0
 31
0.0
  0
LINE
  5
E0
100
AcDbEntity
  8
0
  6
CONTINUOUS
 62
               7
100
AcDbLine
 10
-35.5
 20
23.0
 30
0.0
 11
-60.499999999999986
 21
23.0
 31
0.0
  0
LINE
  5
E1
100
AcDbEntity
  8
0
  6
CONTINUOUS
 62
               7
100
AcDbLine
 10
-45.5
 20
68.0
 30
0.0
 11
-45.5
 21
68.5
 31
0.0
  0
LINE
  5
E2
100
AcDbEntity
  8
0
  6
CONTINUOUS
 62
               7
100
AcDbLine
 10
-60.499999999999986
 20
2.0
 30
0.0
 11
-12.5
 21
2.0
 31
0.0
  0
LINE
  5
E3
100
AcDbEntity
  8
0
  6
CONTINUOUS
 62
               7
100
AcDbLine
 10
-12.5
 20
60.000000000000171
 30
0.0
 11
-12.5
 21
16.0
 31
0.0
  0
LINE
  5
E4
100
AcDbEntity
  8
0
  6
CONTINUOUS
 62
               7
100
AcDbLine
 10
-23.550000000000011
 20
60.300000000000125
 30
0.0
 11
-23.550000000000011
 21
66.500000000000114
 31
0.0
  0
LINE
  5
E5
100
AcDbEntity
  8
0
  6
CONTINUOUS
 62
               7
100
AcDbLine
 10
-33.449999999999989
 20
60.300000000000125
 30
0.0
 11
-33.449999999999989
 21
66.500000000000114
 31
0.0
  0
LINE
  5
E6
100
AcDbEntity
  8
0
  6
CONTINUOUS
 62
               7
100
AcDbLine
 10
-23.550000000000011
 20
60.300000000000125
 30
0.0
 11
-23.849999999999966
 21
60.000000000000114
 31
0.0
  0
LINE
  5
E7
100
AcDbEntity
  8
0
  6
CONTINUOUS
 62
               7
100
AcDbLine
 10
-33.449999999999989
 20
60.300000000000125
 30
0.0
 11
-33.149999999999977
 21
60.000000000000114
 31
0.0
  0
ARC
  5
E8
100
AcDbEntity
  8
0
  6
CONTINUOUS
 62
               7
100
AcDbCircle
 10
-25.050000000000011
 20
66.500000000000114
 30
0.0
 40
1.5
100
AcDbArc
 50
0.0
 51
89.999999999999815
  0
ARC
  5
E9
100
AcDbEntity
  8
0
  6
CONTINUOUS
 62
               7
100
AcDbCircle
 10
-31.949999999999989
 20
66.500000000000114
 30
0.0
 40
1.5
100
AcDbArc
 50
89.999999999999815
 51
179.99999999999963
  0
LINE
  5
EA
100
AcDbEntity
  8
0
  6
CONTINUOUS
 62
               2
100
AcDbLine
 10
-75.949999999999974
 20
20.54000000000002
 30
0.0
 11
-77.549999999999997
 21
14.54000000000002
 31
0.0
  0
LINE
  5
EB
100
AcDbEntity
  8
0
  6
CONTINUOUS
 62
               2
100
AcDbLine
 10
-74.709999999999965
 20
20.54000000000002
 30
0.0
 11
-76.309999999999988
 21
14.54000000000002
 31
0.0
  0
LINE
  5
EC
100
AcDbEntity
  8
0
  6
CONTINUOUS
 62
               7
100
AcDbLine
 10
-70.699999999999974
 20
18.215000000000032
 30
0.0
 11
-75.32999999999997
 21
18.215000000000032
 31
0.0
  0
LINE
  5
ED
100
AcDbEntity
  8
0
  6
CONTINUOUS
 62
               7
100
AcDbLine
 10
-70.699999999999974
 20
16.785000000000025
 30
0.0
 11
-75.711333333333286
 21
16.785000000000025
 31
0.0
  0
LINE
  5
EE
100
AcDbEntity
  8
0
  6
CONTINUOUS
 62
               7
100
AcDbLine
 10
-86.129999999999981
 20
17.100000000000051
 30
0.0
 11
-86.129999999999981
 21
17.900000000000034
 31
0.0
  0
LINE
  5
EF
100
AcDbEntity
  8
0
  6
CONTINUOUS
 62
               7
100
AcDbLine
 10
-81.129999999999981
 20
16.785000000000025
 30
0.0
 11
-81.129999999999981
 21
18.215000000000032
 31
0.0
  0
LINE
  5
F0
100
AcDbEntity
  8
0
  6
CONTINUOUS
 62
               7
100
AcDbLine
 10
-81.129999999999981
 20
17.900000000000034
 30
0.0
 11
-86.129999999999981
 21
17.900000000000034
 31
0.0
  0
LINE
  5
F1
100
AcDbEntity
  8
0
  6
CONTINUOUS
 62
               7
100
AcDbLine
 10
-81.129999999999981
 20
17.100000000000051
 30
0.0
 11
-86.129999999999981
 21
17.100000000000051
 31
0.0
  0
LINE
  5
F2
100
AcDbEntity
  8
0
  6
CONTINUOUS
 62
               7
100
AcDbLine
 10
-76.951333333333295
 20
16.785000000000025
 30
0.0
 11
-81.129999999999981
 21
16.785000000000025
 31
0.0
  0
LINE
  5
F3
100
AcDbEntity
  8
0
  6
CONTINUOUS
 62
               7
100
AcDbLine
 10
-76.569999999999979
 20
18.215000000000032
 30
0.0
 11
-81.129999999999981
 21
18.215000000000032
 31
0.0
  0
ENDBLK
  5
F4
100
AcDbEntity
  8
0
100
AcDbBlockEnd
  0
BLOCK
  5
F5
100
AcDbEntity
  8
0
100
AcDbBlockBegin
  2
MV090-05-F-3
 70
               0
 10
0.0
 20
0.0
 30
0.0
  3
MV090-05-F-3
  1

  0
LINE
  5
F6
100
AcDbEntity
  8
0
  6
CONTINUOUS
 62
               7
100
AcDbLine
 10
86.129999999999939
 20
17.100000000000051
 30
0.0
 11
86.129999999999939
 21
17.900000000000034
 31
0.0
  0
LINE
  5
F7
100
AcDbEntity
  8
0
  6
CENTER
 62
             200
100
AcDbLine
 10
10.0
 20
-1.6999999999999886
 30
0.0
 11
10.0
 21
3.3000000000000114
 31
0.0
  0
LINE
  5
F8
100
AcDbEntity
  8
0
  6
CENTER
 62
             200
100
AcDbLine
 10
0.0
 20
-1.6999999999999886
 30
0.0
 11
0.0
 21
3.3000000000000114
 31
0.0
  0
CIRCLE
  5
F9
100
AcDbEntity
  8
0
  6
CONTINUOUS
 62
               4
100
AcDbCircle
 10
16.5
 20
6.0
 30
0.0
 40
1.9999999999999996
  0
LINE
  5
FA
100
AcDbEntity
  8
0
  6
CONTINUOUS
 62
               4
100
AcDbLine
 10
15.5
 20
5.4226496815681458
 30
0.0
 11
15.5
 21
6.5773502588272095
 31
0.0
  0
LINE
  5
FB
100
AcDbEntity
  8
0
  6
CONTINUOUS
 62
               4
100
AcDbLine
 10
17.5
 20
5.4226497411727905
 30
0.0
 11
17.5
 21
6.5773502588272095
 31
0.0
  0
LINE
  5
FC
100
AcDbEntity
  8
0
  6
CONTINUOUS
 62
               4
100
AcDbLine
 10
17.499999956111253
 20
6.5773502886295319
 30
0.0
 11
16.499999985913576
 21
7.1547005474567413
 31
0.0
  0
LINE
  5
FD
100
AcDbEntity
  8
0
  6
CONTINUOUS
 62
               4
100
AcDbLine
 10
16.499999956111253
 20
4.8452994525432587
 30
0.0
 11
15.499999985913576
 21
5.4226497113704681
 31
0.0
  0
LINE
  5
FE
100
AcDbEntity
  8
0
  6
CONTINUOUS
 62
               4
100
AcDbLine
 10
16.499999956111253
 20
7.1547005176544189
 30
0.0
 11
15.5
 21
6.5773502738039724
 31
0.0
  0
LINE
  5
FF
100
AcDbEntity
  8
0
  6
CONTINUOUS
 62
               4
100
AcDbLine
 10
17.499999956111253
 20
5.4226497411727905
 30
0.0
 11
16.499999943090586
 21
4.8452994644656826
 31
0.0
  0
CIRCLE
  5
100
100
AcDbEntity
  8
0
  6
CONTINUOUS
 62
               4
100
AcDbCircle
 10
16.5
 20
6.0
 30
0.0
 40
2.25
  0
CIRCLE
  5
101
100
AcDbEntity
  8
0
  6
CONTINUOUS
 62
               4
100
AcDbCircle
 10
16.5
 20
19.0
 30
0.0
 40
1.9999999999999996
  0
LINE
  5
102
100
AcDbEntity
  8
0
  6
CONTINUOUS
 62
               4
100
AcDbLine
 10
15.5
 20
18.422649681568146
 30
0.0
 11
15.5
 21
19.577350258827209
 31
0.0
  0
LINE
  5
103
100
AcDbEntity
  8
0
  6
CONTINUOUS
 62
               4
100
AcDbLine
 10
17.5
 20
18.422649741172791
 30
0.0
 11
17.5
 21
19.577350258827209
 31
0.0
  0
LINE
  5
104
100
AcDbEntity
  8
0
  6
CONTINUOUS
 62
               4
100
AcDbLine
 10
17.499999956111253
 20
19.577350288629532
 30
0.0
 11
16.499999985913576
 21
20.154700547456741
 31
0.0
  0
LINE
  5
105
100
AcDbEntity
  8
0
  6
CONTINUOUS
 62
               4
100
AcDbLine
 10
16.499999956111253
 20
17.845299452543259
 30
0.0
 11
15.499999985913576
 21
18.422649711370468
 31
0.0
  0
LINE
  5
106
100
AcDbEntity
  8
0
  6
CONTINUOUS
 62
               4
100
AcDbLine
 10
16.499999956111253
 20
20.154700517654419
 30
0.0
 11
15.5
 21
19.577350273803972
 31
0.0
  0
LINE
  5
107
100
AcDbEntity
  8
0
  6
CONTINUOUS
 62
               4
100
AcDbLine
 10
17.499999956111253
 20
18.422649741172791
 30
0.0
 11
16.499999943090586
 21
17.845299464465683
 31
0.0
  0
CIRCLE
  5
108
100
AcDbEntity
  8
0
  6
CONTINUOUS
 62
               4
100
AcDbCircle
 10
16.5
 20
19.0
 30
0.0
 40
2.25
  0
LINE
  5
109
100
AcDbEntity
  8
0
  6
CENTER
 62
             200
100
AcDbLine
 10
13.971124524314888
 20
6.0
 30
0.0
 11
19.0
 21
6.0
 31
0.0
  0
LINE
  5
10A
100
AcDbEntity
  8
0
  6
CENTER
 62
             200
100
AcDbLine
 10
16.5
 20
3.5
 30
0.0
 11
16.5
 21
8.5
 31
0.0
  0
ARC
  5
10B
100
AcDbEntity
  8
0
  6
CONTINUOUS
 62
               4
100
AcDbCircle
 10
16.5
 20
19.0
 30
0.0
 40
4.0
100
AcDbArc
 50
0.0
 51
179.99999999999963
  0
LINE
  5
10C
100
AcDbEntity
  8
0
  6
CONTINUOUS
 62
               4
100
AcDbLine
 10
20.5
 20
19.0
 30
0.0
 11
20.5
 21
0.5
 31
0.0
  0
LINE
  5
10D
100
AcDbEntity
  8
0
  6
CONTINUOUS
 62
               4
100
AcDbLine
 10
12.5
 20
19.0
 30
0.0
 11
12.5
 21
1.5999999999999943
 31
0.0
  0
LINE
  5
10E
100
AcDbEntity
  8
0
  6
CONTINUOUS
 62
               4
100
AcDbLine
 10
20.0
 20
0.0
 30
0.0
 11
-4.0
 21
0.0
 31
0.0
  0
LINE
  5
10F
100
AcDbEntity
  8
0
  6
CONTINUOUS
 62
               4
100
AcDbLine
 10
20.5
 20
1.5999999999999943
 30
0.0
 11
-4.0
 21
1.5999999999999943
 31
0.0
  0
LINE
  5
110
100
AcDbEntity
  8
0
  6
CONTINUOUS
 62
               4
100
AcDbLine
 10
-4.5
 20
1.0999999999999943
 30
0.0
 11
-4.5
 21
0.5
 31
0.0
  0
ARC
  5
111
100
AcDbEntity
  8
0
  6
CONTINUOUS
 62
               4
100
AcDbCircle
 10
20.0
 20
0.5
 30
0.0
 40
0.5
100
AcDbArc
 50
270.00000000000023
 51
0.0
  0
ARC
  5
112
100
AcDbEntity
  8
0
  6
CONTINUOUS
 62
               4
100
AcDbCircle
 10
-4.0
 20
0.5
 30
0.0
 40
0.5
100
AcDbArc
 50
179.99999999999963
 51
269.99999999999937
  0
ARC
  5
113
100
AcDbEntity
  8
0
  6
CONTINUOUS
 62
               4
100
AcDbCircle
 10
-4.0
 20
1.0999999999999943
 30
0.0
 40
0.5
100
AcDbArc
 50
89.999999999999815
 51
179.99999999999963
  0
LINE
  5
114
100
AcDbEntity
  8
0
  6
CENTER
 62
             200
100
AcDbLine
 10
13.971124524314888
 20
16.0
 30
0.0
 11
19.0
 21
16.0
 31
0.0
  0
LINE
  5
115
100
AcDbEntity
  8
0
  6
CONTINUOUS
 62
               4
100
AcDbLine
 10
15.099999999999994
 20
16.0
 30
0.0
 11
15.099999999999994
 21
17.238608504619151
 31
0.0
  0
LINE
  5
116
100
AcDbEntity
  8
0
  6
CONTINUOUS
 62
               4
100
AcDbLine
 10
17.900000000000006
 20
16.0
 30
0.0
 11
17.900000000000006
 21
17.238608504619151
 31
0.0
  0
ARC
  5
117
100
AcDbEntity
  8
0
  6
CONTINUOUS
 62
               4
100
AcDbCircle
 10
16.5
 20
16.0
 30
0.0
 40
1.3999999999999999
100
AcDbArc
 50
179.99999999999963
 51
0.0
  0
LINE
  5
118
100
AcDbEntity
  8
0
  6
CENTER
 62
             200
100
AcDbLine
 10
16.5
 20
13.557409686750987
 30
0.0
 11
16.5
 21
21.5
 31
0.0
  0
LINE
  5
119
100
AcDbEntity
  8
0
  6
CENTER
 62
             200
100
AcDbLine
 10
13.971124524314888
 20
19.0
 30
0.0
 11
19.0
 21
19.0
 31
0.0
  0
LINE
  5
11A
100
AcDbEntity
  8
0
  6
CONTINUOUS
 62
               7
100
AcDbLine
 10
28.0
 20
67.000000000000057
 30
0.0
 11
29.0
 21
67.000000000000057
 31
0.0
  0
LINE
  5
11B
100
AcDbEntity
  8
0
  6
CONTINUOUS
 62
               7
100
AcDbLine
 10
28.0
 20
68.000000000000057
 30
0.0
 11
28.0
 21
67.000000000000057
 31
0.0
  0
LINE
  5
11C
100
AcDbEntity
  8
0
  6
CONTINUOUS
 62
               7
100
AcDbLine
 10
29.0
 20
68.000000000000057
 30
0.0
 11
29.0
 21
67.000000000000057
 31
0.0
  0
LINE
  5
11D
100
AcDbEntity
  8
0
  6
CONTINUOUS
 62
               7
100
AcDbLine
 10
31.949999999999989
 20
68.000000000000057
 30
0.0
 11
29.0
 21
68.000000000000057
 31
0.0
  0
LINE
  5
11E
100
AcDbEntity
  8
0
  6
CONTINUOUS
 62
               7
100
AcDbLine
 10
28.0
 20
68.000000000000057
 30
0.0
 11
25.050000000000011
 21
68.000000000000057
 31
0.0
  0
ARC
  5
11F
100
AcDbEntity
  8
0
  6
CONTINUOUS
 62
               7
100
AcDbCircle
 10
42.599999999999994
 20
44.500000000000057
 30
0.0
 40
0.5
100
AcDbArc
 50
270.00000000000023
 51
0.0
  0
ARC
  5
120
100
AcDbEntity
  8
0
  6
CONTINUOUS
 62
               7
100
AcDbCircle
 10
42.599999999999994
 20
46.500000000000057
 30
0.0
 40
0.5
100
AcDbArc
 50
0.0
 51
89.999999999999815
  0
LINE
  5
121
100
AcDbEntity
  8
0
  6
CONTINUOUS
 62
               7
100
AcDbLine
 10
43.099999999999994
 20
44.500000000000057
 30
0.0
 11
43.099999999999994
 21
46.500000000000057
 31
0.0
  0
LINE
  5
122
100
AcDbEntity
  8
0
  6
CONTINUOUS
 62
               7
100
AcDbLine
 10
42.599999999999994
 20
47.000000000000057
 30
0.0
 11
42.5
 21
47.000000000000057
 31
0.0
  0
LINE
  5
123
100
AcDbEntity
  8
0
  6
CONTINUOUS
 62
               7
100
AcDbLine
 10
42.599999999999994
 20
44.000000000000057
 30
0.0
 11
42.5
 21
44.000000000000057
 31
0.0
  0
LINE
  5
124
100
AcDbEntity
  8
0
  6
CONTINUOUS
 62
               7
100
AcDbLine
 10
42.5
 20
47.100000000000051
 30
0.0
 11
42.5
 21
43.900000000000063
 31
0.0
  0
LINE
  5
125
100
AcDbEntity
  8
0
  6
CONTINUOUS
 62
               7
100
AcDbLine
 10
44.5
 20
43.900000000000063
 30
0.0
 11
42.5
 21
43.900000000000063
 31
0.0
  0
LINE
  5
126
100
AcDbEntity
  8
0
  6
CONTINUOUS
 62
               7
100
AcDbLine
 10
44.5
 20
47.100000000000051
 30
0.0
 11
42.5
 21
47.100000000000051
 31
0.0
  0
LINE
  5
127
100
AcDbEntity
  8
0
  6
CONTINUOUS
 62
               7
100
AcDbLine
 10
44.5
 20
37.000000000000057
 30
0.0
 11
44.5
 21
50.500000000000057
 31
0.0
  0
LINE
  5
128
100
AcDbEntity
  8
0
  6
CONTINUOUS
 62
               7
100
AcDbLine
 10
40.5
 20
50.500000000000057
 30
0.0
 11
44.5
 21
50.500000000000057
 31
0.0
  0
LINE
  5
129
100
AcDbEntity
  8
0
  6
CONTINUOUS
 62
               7
100
AcDbLine
 10
40.5
 20
37.000000000000057
 30
0.0
 11
44.5
 21
37.000000000000057
 31
0.0
  0
LINE
  5
12A
100
AcDbEntity
  8
0
  6
CONTINUOUS
 62
               7
100
AcDbLine
 10
45.5
 20
68.5
 30
0.0
 11
45.5
 21
68.0
 31
0.0
  0
LINE
  5
12B
100
AcDbEntity
  8
0
  6
CONTINUOUS
 62
               7
100
AcDbLine
 10
65.699999999999989
 20
19.500000000000057
 30
0.0
 11
65.699999999999989
 21
14.700000000000045
 31
0.0
  0
LINE
  5
12C
100
AcDbEntity
  8
0
  6
CONTINUOUS
 62
               7
100
AcDbLine
 10
65.599999999999966
 20
19.500000000000057
 30
0.0
 11
54.199999999999989
 21
19.500000000000057
 31
0.0
  0
LINE
  5
12D
100
AcDbEntity
  8
0
  6
CONTINUOUS
 62
               7
100
AcDbLine
 10
26.75
 20
53.500000000000057
 30
0.0
 11
26.75
 21
56.200000000000045
 31
0.0
  0
LINE
  5
12E
100
AcDbEntity
  8
0
  6
CONTINUOUS
 62
               7
100
AcDbLine
 10
33.25
 20
56.200000000000045
 30
0.0
 11
32.75
 21
56.700000000000045
 31
0.0
  0
LINE
  5
12F
100
AcDbEntity
  8
0
  6
CONTINUOUS
 62
               7
100
AcDbLine
 10
32.75
 20
56.700000000000045
 30
0.0
 11
27.25
 21
56.700000000000045
 31
0.0
  0
LINE
  5
130
100
AcDbEntity
  8
0
  6
CONTINUOUS
 62
               7
100
AcDbLine
 10
26.75
 20
56.200000000000045
 30
0.0
 11
33.25
 21
56.200000000000045
 31
0.0
  0
LINE
  5
131
100
AcDbEntity
  8
0
  6
CONTINUOUS
 62
               7
100
AcDbLine
 10
26.75
 20
56.200000000000045
 30
0.0
 11
27.25
 21
56.700000000000045
 31
0.0
  0
LINE
  5
132
100
AcDbEntity
  8
0
  6
CONTINUOUS
 62
               7
100
AcDbLine
 10
33.25
 20
53.500000000000057
 30
0.0
 11
33.25
 21
56.200000000000045
 31
0.0
  0
LINE
  5
133
100
AcDbEntity
  8
0
  6
CENTER
 62
               2
100
AcDbLine
 10
30.0
 20
57.266310481853253
 30
0.0
 11
30.0
 21
52.985716831808332
 31
0.0
  0
LINE
  5
134
100
AcDbEntity
  8
0
  6
CONTINUOUS
 62
               7
100
AcDbLine
 10
12.800000000000011
 20
46.800000000000011
 30
0.0
 11
12.800000000000011
 21
45.200000000000017
 31
0.0
  0
LINE
  5
135
100
AcDbEntity
  8
0
  6
CONTINUOUS
 62
               7
100
AcDbLine
 10
51.300000000000011
 20
33.300000000000068
 30
0.0
 11
43.699999999999989
 21
33.300000000000068
 31
0.0
  0
LINE
  5
136
100
AcDbEntity
  8
0
  6
CONTINUOUS
 62
               7
100
AcDbLine
 10
51.300000000000011
 20
32.500000000000057
 30
0.0
 11
43.699999999999989
 21
32.500000000000057
 31
0.0
  0
LINE
  5
137
100
AcDbEntity
  8
0
  6
CONTINUOUS
 62
               7
100
AcDbLine
 10
51.300000000000011
 20
32.500000000000057
 30
0.0
 11
51.300000000000011
 21
33.300000000000068
 31
0.0
  0
LINE
  5
138
100
AcDbEntity
  8
0
  6
CONTINUOUS
 62
               7
100
AcDbLine
 10
43.699999999999989
 20
33.300000000000068
 30
0.0
 11
43.699999999999989
 21
32.500000000000057
 31
0.0
  0
LINE
  5
139
100
AcDbEntity
  8
0
  6
CONTINUOUS
 62
               7
100
AcDbLine
 10
40.5
 20
34.000000000000057
 30
0.0
 11
52.0
 21
34.000000000000057
 31
0.0
  0
LINE
  5
13A
100
AcDbEntity
  8
0
  6
CONTINUOUS
 62
               7
100
AcDbLine
 10
40.5
 20
2.0000000000000568
 30
0.0
 11
41.400000000000034
 21
2.0000000000000568
 31
0.0
  0
LINE
  5
13B
100
AcDbEntity
  8
0
  6
CONTINUOUS
 62
               7
100
AcDbLine
 10
52.0
 20
34.000000000000057
 30
0.0
 11
52.0
 21
28.217144432479699
 31
0.0
  0
LINE
  5
13C
100
AcDbEntity
  8
0
  6
CONTINUOUS
 62
               7
100
AcDbLine
 10
52.0
 20
28.217144432479699
 30
0.0
 11
55.5
 21
27.60000000000008
 31
0.0
  0
LINE
  5
13D
100
AcDbEntity
  8
0
  6
CONTINUOUS
 62
               7
100
AcDbLine
 10
54.199999999999989
 20
3.5000000000000568
 30
0.0
 11
41.699999999999989
 21
3.5000000000000568
 31
0.0
  0
LINE
  5
13E
100
AcDbEntity
  8
0
  6
CONTINUOUS
 62
               7
100
AcDbLine
 10
41.400000000000034
 20
2.0000000000000568
 30
0.0
 11
41.699999999999989
 21
2.3000000000000682
 31
0.0
  0
LINE
  5
13F
100
AcDbEntity
  8
0
  6
CONTINUOUS
 62
               7
100
AcDbLine
 10
59.5
 20
19.500000000000057
 30
0.0
 11
59.5
 21
19.600000000000051
 31
0.0
  0
LINE
  5
140
100
AcDbEntity
  8
0
  6
CONTINUOUS
 62
               7
100
AcDbLine
 10
60.099999999999966
 20
20.098078436969956
 30
0.0
 11
60.099999999999966
 21
19.600000000000051
 31
0.0
  0
LINE
  5
141
100
AcDbEntity
  8
0
  6
CONTINUOUS
 62
               7
100
AcDbLine
 10
55.5
 20
20.909182548228898
 30
0.0
 11
60.099999999999966
 21
20.098078436969956
 31
0.0
  0
LINE
  5
142
100
AcDbEntity
  8
0
  6
CONTINUOUS
 62
               7
100
AcDbLine
 10
54.199999999999989
 20
19.600000000000051
 30
0.0
 11
60.099999999999966
 21
19.600000000000051
 31
0.0
  0
LINE
  5
143
100
AcDbEntity
  8
0
  6
CONTINUOUS
 62
               7
100
AcDbLine
 10
55.5
 20
27.60000000000008
 30
0.0
 11
55.5
 21
20.909182548228898
 31
0.0
  0
LINE
  5
144
100
AcDbEntity
  8
0
  6
CONTINUOUS
 62
               7
100
AcDbLine
 10
41.699999999999989
 20
2.0000000000000568
 30
0.0
 11
41.699999999999989
 21
3.5000000000000568
 31
0.0
  0
LINE
  5
145
100
AcDbEntity
  8
0
  6
CONTINUOUS
 62
               7
100
AcDbLine
 10
54.199999999999989
 20
3.5000000000000568
 30
0.0
 11
54.199999999999989
 21
19.600000000000051
 31
0.0
  0
LINE
  5
146
100
AcDbEntity
  8
0
  6
CONTINUOUS
 62
               7
100
AcDbLine
 10
41.699999999999989
 20
2.0000000000000568
 30
0.0
 11
60.5
 21
2.0000000000000568
 31
0.0
  0
ARC
  5
147
100
AcDbEntity
  8
0
  6
CONTINUOUS
 62
               7
100
AcDbCircle
 10
59.800000000000011
 20
2.3000000000000682
 30
0.0
 40
0.3
100
AcDbArc
 50
270.00000000000023
 51
0.0
  0
LINE
  5
148
100
AcDbEntity
  8
0
  6
CONTINUOUS
 62
               7
100
AcDbLine
 10
54.5
 20
27.100000000000051
 30
0.0
 11
54.5
 21
23.900000000000034
 31
0.0
  0
LINE
  5
149
100
AcDbEntity
  8
0
  6
CONTINUOUS
 62
               7
100
AcDbLine
 10
55.5
 20
23.900000000000034
 30
0.0
 11
54.5
 21
23.900000000000034
 31
0.0
  0
LINE
  5
14A
100
AcDbEntity
  8
0
  6
CONTINUOUS
 62
               7
100
AcDbLine
 10
55.5
 20
27.100000000000051
 30
0.0
 11
54.5
 21
27.100000000000051
 31
0.0
  0
LINE
  5
14B
100
AcDbEntity
  8
0
  6
CONTINUOUS
 62
               7
100
AcDbLine
 10
54.599999999999966
 20
27.000000000000057
 30
0.0
 11
54.5
 21
27.000000000000057
 31
0.0
  0
LINE
  5
14C
100
AcDbEntity
  8
0
  6
CONTINUOUS
 62
               7
100
AcDbLine
 10
54.599999999999966
 20
24.000000000000057
 30
0.0
 11
54.5
 21
24.000000000000057
 31
0.0
  0
LINE
  5
14D
100
AcDbEntity
  8
0
  6
CONTINUOUS
 62
               7
100
AcDbLine
 10
55.099999999999966
 20
26.500000000000057
 30
0.0
 11
55.099999999999966
 21
24.500000000000057
 31
0.0
  0
ARC
  5
14E
100
AcDbEntity
  8
0
  6
CONTINUOUS
 62
               7
100
AcDbCircle
 10
54.599999999999966
 20
24.500000000000057
 30
0.0
 40
0.5
100
AcDbArc
 50
269.99999999999937
 51
0.0
  0
ARC
  5
14F
100
AcDbEntity
  8
0
  6
CONTINUOUS
 62
               7
100
AcDbCircle
 10
54.599999999999966
 20
26.500000000000057
 30
0.0
 40
0.5
100
AcDbArc
 50
0.0
 51
89.999999999999815
  0
LINE
  5
150
100
AcDbEntity
  8
0
  6
CONTINUOUS
 62
               7
100
AcDbLine
 10
65.599999999833642
 20
14.200000000000045
 30
0.0
 11
60.099999999833642
 21
14.200000000000045
 31
0.0
  0
LINE
  5
151
100
AcDbEntity
  8
0
  6
CONTINUOUS
 62
               7
100
AcDbLine
 10
62.166025403784431
 20
13.700000000000045
 30
0.0
 11
68.699999999999989
 21
13.700000000000045
 31
0.0
  0
LINE
  5
152
100
AcDbEntity
  8
0
  6
CONTINUOUS
 62
               7
100
AcDbLine
 10
69.699999999999989
 20
19.500000000000057
 30
0.0
 11
69.988675134594757
 21
20.000000000000057
 31
0.0
  0
LINE
  5
153
100
AcDbEntity
  8
0
  6
CONTINUOUS
 62
               7
100
AcDbLine
 10
69.988675134594757
 20
20.000000000000057
 30
0.0
 11
70.699999999999989
 21
20.000000000000057
 31
0.0
  0
LINE
  5
154
100
AcDbEntity
  8
0
  6
CONTINUOUS
 62
               7
100
AcDbLine
 10
68.699999999999989
 20
13.700000000000045
 30
0.0
 11
68.988675134594757
 21
13.200000000000045
 31
0.0
  0
LINE
  5
155
100
AcDbEntity
  8
0
  6
CONTINUOUS
 62
               7
100
AcDbLine
 10
68.988675134594757
 20
13.200000000000045
 30
0.0
 11
69.699999999999989
 21
13.200000000000045
 31
0.0
  0
LINE
  5
156
100
AcDbEntity
  8
0
  6
CONTINUOUS
 62
               7
100
AcDbLine
 10
65.599999999999966
 20
18.800000000000011
 30
0.0
 11
65.699999999999989
 21
18.800000000000011
 31
0.0
  0
LINE
  5
157
100
AcDbEntity
  8
0
  6
CONTINUOUS
 62
               7
100
AcDbLine
 10
70.699999999999989
 20
20.000000000000057
 30
0.0
 11
70.699999999999989
 21
14.700000000000045
 31
0.0
  0
LINE
  5
158
100
AcDbEntity
  8
0
  6
CONTINUOUS
 62
               7
100
AcDbLine
 10
69.699999999999989
 20
14.400244132795649
 30
0.0
 11
67.999999999999943
 21
14.700000000000045
 31
0.0
  0
LINE
  5
159
100
AcDbEntity
  8
0
  6
CONTINUOUS
 62
               7
100
AcDbLine
 10
65.599999999999966
 20
14.700000000000045
 30
0.0
 11
70.699999999999989
 21
14.700000000000045
 31
0.0
  0
LINE
  5
15A
100
AcDbEntity
  8
0
  6
CONTINUOUS
 62
               7
100
AcDbLine
 10
69.699999999999989
 20
14.400244132795649
 30
0.0
 11
69.699999999999989
 21
13.200000000000045
 31
0.0
  0
LINE
  5
15B
100
AcDbEntity
  8
0
  6
CONTINUOUS
 62
               7
100
AcDbLine
 10
65.699999999999989
 20
19.500000000000057
 30
0.0
 11
69.699999999999989
 21
19.500000000000057
 31
0.0
  0
LINE
  5
15C
100
AcDbEntity
  8
0
  6
CONTINUOUS
 62
               7
100
AcDbLine
 10
65.599999999999966
 20
19.500000000000057
 30
0.0
 11
65.599999999999966
 21
14.200000000000045
 31
0.0
  0
LINE
  5
15D
100
AcDbEntity
  8
0
  6
CONTINUOUS
 62
               7
100
AcDbLine
 10
60.099999999999966
 20
14.200000000000045
 30
0.0
 11
60.099999999999966
 21
2.3000000000000682
 31
0.0
  0
LINE
  5
15E
100
AcDbEntity
  8
0
  6
CONTINUOUS
 62
               7
100
AcDbLine
 10
61.299999999999955
 20
14.200000000000045
 30
0.0
 11
62.166025403784431
 21
13.700000000000045
 31
0.0
  0
LINE
  5
15F
100
AcDbEntity
  8
0
  6
CONTINUOUS
 62
               7
100
AcDbLine
 10
40.5
 20
2.0000000000000568
 30
0.0
 11
40.5
 21
53.500000000000057
 31
0.0
  0
LINE
  5
160
100
AcDbEntity
  8
0
  6
CONTINUOUS
 62
               7
100
AcDbLine
 10
26.5
 20
53.500000000000057
 30
0.0
 11
26.5
 21
2.0
 31
0.0
  0
LINE
  5
161
100
AcDbEntity
  8
0
  6
CONTINUOUS
 62
               7
100
AcDbLine
 10
40.5
 20
2.0
 30
0.0
 11
20.5
 21
2.0
 31
0.0
  0
LINE
  5
162
100
AcDbEntity
  8
0
  6
CENTER
 62
               2
100
AcDbLine
 10
14.289663566097886
 20
46.0
 30
0.0
 11
11.66893677786635
 21
46.0
 31
0.0
  0
LINE
  5
163
100
AcDbEntity
  8
0
  6
CONTINUOUS
 62
               7
100
AcDbLine
 10
13.5
 20
46.800000000000011
 30
0.0
 11
13.5
 21
45.200000000000017
 31
0.0
  0
LINE
  5
164
100
AcDbEntity
  8
0
  6
CONTINUOUS
 62
               7
100
AcDbLine
 10
12.5
 20
46.800000000000011
 30
0.0
 11
13.5
 21
46.800000000000011
 31
0.0
  0
LINE
  5
165
100
AcDbEntity
  8
0
  6
CONTINUOUS
 62
               7
100
AcDbLine
 10
12.5
 20
45.200000000000017
 30
0.0
 11
13.5
 21
45.200000000000017
 31
0.0
  0
LINE
  5
166
100
AcDbEntity
  8
0
  6
CONTINUOUS
 62
               7
100
AcDbLine
 10
12.5
 20
60.000000000000114
 30
0.0
 11
12.5
 21
19.0
 31
0.0
  0
LINE
  5
167
100
AcDbEntity
  8
0
  6
CONTINUOUS
 62
               7
100
AcDbLine
 10
35.5
 20
60.000000000000114
 30
0.0
 11
12.5
 21
60.000000000000114
 31
0.0
  0
LINE
  5
168
100
AcDbEntity
  8
0
  6
CONTINUOUS
 62
               7
100
AcDbLine
 10
23.550000000000011
 20
60.300000000000068
 30
0.0
 11
23.550000000000011
 21
66.500000000000057
 31
0.0
  0
LINE
  5
169
100
AcDbEntity
  8
0
  6
CONTINUOUS
 62
               7
100
AcDbLine
 10
33.450000000000045
 20
60.300000000000068
 30
0.0
 11
33.450000000000045
 21
66.500000000000057
 31
0.0
  0
LINE
  5
16A
100
AcDbEntity
  8
0
  6
CONTINUOUS
 62
               7
100
AcDbLine
 10
23.550000000000011
 20
60.300000000000068
 30
0.0
 11
23.850000000000023
 21
60.000000000000057
 31
0.0
  0
LINE
  5
16B
100
AcDbEntity
  8
0
  6
CONTINUOUS
 62
               7
100
AcDbLine
 10
33.450000000000045
 20
60.300000000000068
 30
0.0
 11
33.150000000000034
 21
60.000000000000057
 31
0.0
  0
ARC
  5
16C
100
AcDbEntity
  8
0
  6
CONTINUOUS
 62
               7
100
AcDbCircle
 10
25.050000000000011
 20
66.500000000000057
 30
0.0
 40
1.5
100
AcDbArc
 50
89.999999999999815
 51
179.99999999999963
  0
ARC
  5
16D
100
AcDbEntity
  8
0
  6
CONTINUOUS
 62
               7
100
AcDbCircle
 10
31.950000000000045
 20
66.500000000000057
 30
0.0
 40
1.5
100
AcDbArc
 50
0.0
 51
89.999999999999815
  0
LINE
  5
16E
100
AcDbEntity
  8
0
  6
CONTINUOUS
 62
               7
100
AcDbLine
 10
39.5
 20
68.0
 30
0.0
 11
39.5
 21
68.5
 31
0.0
  0
LINE
  5
16F
100
AcDbEntity
  8
0
  6
CONTINUOUS
 62
               7
100
AcDbLine
 10
45.5
 20
68.5
 30
0.0
 11
39.5
 21
68.5
 31
0.0
  0
LINE
  5
170
100
AcDbEntity
  8
0
  6
CONTINUOUS
 62
               7
100
AcDbLine
 10
44.399999999999977
 20
88.5
 30
0.0
 11
44.399999999999977
 21
93.5
 31
0.0
  0
LINE
  5
171
100
AcDbEntity
  8
0
  6
CONTINUOUS
 62
               7
100
AcDbLine
 10
43.600000000000023
 20
88.5
 30
0.0
 11
43.600000000000023
 21
93.5
 31
0.0
  0
LINE
  5
172
100
AcDbEntity
  8
0
  6
CONTINUOUS
 62
               7
100
AcDbLine
 10
43.399999999999977
 20
88.5
 30
0.0
 11
43.399999999999977
 21
93.5
 31
0.0
  0
LINE
  5
173
100
AcDbEntity
  8
0
  6
CONTINUOUS
 62
               7
100
AcDbLine
 10
42.600000000000023
 20
88.5
 30
0.0
 11
42.600000000000023
 21
93.5
 31
0.0
  0
LINE
  5
174
100
AcDbEntity
  8
0
  6
CONTINUOUS
 62
               7
100
AcDbLine
 10
42.399999999999977
 20
88.5
 30
0.0
 11
42.399999999999977
 21
93.5
 31
0.0
  0
LINE
  5
175
100
AcDbEntity
  8
0
  6
CONTINUOUS
 62
               7
100
AcDbLine
 10
41.600000000000023
 20
88.5
 30
0.0
 11
41.600000000000023
 21
93.5
 31
0.0
  0
LINE
  5
176
100
AcDbEntity
  8
0
  6
CONTINUOUS
 62
               7
100
AcDbLine
 10
41.399999999999977
 20
88.5
 30
0.0
 11
41.399999999999977
 21
93.5
 31
0.0
  0
LINE
  5
177
100
AcDbEntity
  8
0
  6
CONTINUOUS
 62
               7
100
AcDbLine
 10
40.600000000000023
 20
88.5
 30
0.0
 11
40.600000000000023
 21
93.5
 31
0.0
  0
LINE
  5
178
100
AcDbEntity
  8
0
  6
CONTINUOUS
 62
               7
100
AcDbLine
 10
45.0
 20
84.934434807572018
 30
0.0
 11
45.0
 21
81.162488506212867
 31
0.0
  0
LINE
  5
179
100
AcDbEntity
  8
0
  6
CONTINUOUS
 62
               7
100
AcDbLine
 10
40.0
 20
84.934434807572018
 30
0.0
 11
40.0
 21
79.270596614320993
 31
0.0
  0
LINE
  5
17A
100
AcDbEntity
  8
0
  6
CONTINUOUS
 62
               2
100
AcDbLine
 10
46.251918174814818
 20
80.636187275061729
 30
0.0
 11
38.531316701234573
 21
77.714878609382708
 31
0.0
  0
LINE
  5
17B
100
AcDbEntity
  8
0
  6
CONTINUOUS
 62
               2
100
AcDbLine
 10
46.251918174814818
 20
81.636187275061729
 30
0.0
 11
38.531316701234573
 21
78.714878609382708
 31
0.0
  0
LINE
  5
17C
100
AcDbEntity
  8
0
  6
CONTINUOUS
 62
               7
100
AcDbLine
 10
45.0
 20
84.934434807572018
 30
0.0
 11
40.0
 21
84.934434807572018
 31
0.0
  0
LINE
  5
17D
100
AcDbEntity
  8
0
  6
CONTINUOUS
 62
               7
100
AcDbLine
 10
40.285000000000082
 20
88.5
 30
0.0
 11
44.715000000000032
 21
88.5
 31
0.0
  0
LINE
  5
17E
100
AcDbEntity
  8
0
  6
CONTINUOUS
 62
               7
100
AcDbLine
 10
40.285000000000082
 20
84.934434807572018
 30
0.0
 11
40.285000000000082
 21
88.5
 31
0.0
  0
LINE
  5
17F
100
AcDbEntity
  8
0
  6
CONTINUOUS
 62
               7
100
AcDbLine
 10
41.715000000000032
 20
84.934434807572018
 30
0.0
 11
41.715000000000032
 21
88.5
 31
0.0
  0
LINE
  5
180
100
AcDbEntity
  8
0
  6
CONTINUOUS
 62
               7
100
AcDbLine
 10
42.715000000000032
 20
84.934434807572018
 30
0.0
 11
42.715000000000032
 21
88.5
 31
0.0
  0
LINE
  5
181
100
AcDbEntity
  8
0
  6
CONTINUOUS
 62
               7
100
AcDbLine
 10
43.715000000000032
 20
84.934434807572018
 30
0.0
 11
43.715000000000032
 21
88.5
 31
0.0
  0
LINE
  5
182
100
AcDbEntity
  8
0
  6
CONTINUOUS
 62
               7
100
AcDbLine
 10
44.715000000000032
 20
84.934434807572018
 30
0.0
 11
44.715000000000032
 21
88.5
 31
0.0
  0
LINE
  5
183
100
AcDbEntity
  8
0
  6
CONTINUOUS
 62
               7
100
AcDbLine
 10
40.600000000000023
 20
93.5
 30
0.0
 11
41.399999999999977
 21
93.5
 31
0.0
  0
LINE
  5
184
100
AcDbEntity
  8
0
  6
CONTINUOUS
 62
               7
100
AcDbLine
 10
41.600000000000023
 20
93.5
 30
0.0
 11
42.399999999999977
 21
93.5
 31
0.0
  0
LINE
  5
185
100
AcDbEntity
  8
0
  6
CONTINUOUS
 62
               7
100
AcDbLine
 10
42.600000000000023
 20
93.5
 30
0.0
 11
43.399999999999977
 21
93.5
 31
0.0
  0
LINE
  5
186
100
AcDbEntity
  8
0
  6
CONTINUOUS
 62
               7
100
AcDbLine
 10
43.600000000000023
 20
93.5
 30
0.0
 11
44.399999999999977
 21
93.5
 31
0.0
  0
LINE
  5
187
100
AcDbEntity
  8
0
  6
CONTINUOUS
 62
               7
100
AcDbLine
 10
45.0
 20
68.5
 30
0.0
 11
45.0
 21
80.162488506212867
 31
0.0
  0
LINE
  5
188
100
AcDbEntity
  8
0
  6
CONTINUOUS
 62
               7
100
AcDbLine
 10
40.0
 20
68.5
 30
0.0
 11
40.0
 21
78.270596614320993
 31
0.0
  0
LINE
  5
189
100
AcDbEntity
  8
0
  6
CONTINUOUS
 62
               7
100
AcDbLine
 10
35.5
 20
68.0
 30
0.0
 11
35.5
 21
53.500000000000057
 31
0.0
  0
LINE
  5
18A
100
AcDbEntity
  8
0
  6
CONTINUOUS
 62
               7
100
AcDbLine
 10
60.5
 20
14.200000000000045
 30
0.0
 11
60.5
 21
2.0
 31
0.0
  0
LINE
  5
18B
100
AcDbEntity
  8
0
  6
CONTINUOUS
 62
               7
100
AcDbLine
 10
60.5
 20
68.0
 30
0.0
 11
60.5
 21
19.500000000000057
 31
0.0
  0
LINE
  5
18C
100
AcDbEntity
  8
0
  6
CONTINUOUS
 62
               7
100
AcDbLine
 10
60.5
 20
68.0
 30
0.0
 11
35.5
 21
68.0
 31
0.0
  0
LINE
  5
18D
100
AcDbEntity
  8
0
  6
CONTINUOUS
 62
               7
100
AcDbLine
 10
40.5
 20
9.5
 30
0.0
 11
26.5
 21
9.5
 31
0.0
  0
LINE
  5
18E
100
AcDbEntity
  8
0
  6
CONTINUOUS
 62
               7
100
AcDbLine
 10
40.5
 20
53.500000000000057
 30
0.0
 11
12.5
 21
53.500000000000057
 31
0.0
  0
LINE
  5
18F
100
AcDbEntity
  8
0
  6
CONTINUOUS
 62
               2
100
AcDbLine
 10
75.949999999999989
 20
20.54000000000002
 30
0.0
 11
77.550000000000011
 21
14.54000000000002
 31
0.0
  0
LINE
  5
190
100
AcDbEntity
  8
0
  6
CONTINUOUS
 62
               7
100
AcDbLine
 10
70.699999999999989
 20
16.785000000000025
 30
0.0
 11
75.7113333333333
 21
16.785000000000025
 31
0.0
  0
LINE
  5
191
100
AcDbEntity
  8
0
  6
CONTINUOUS
 62
               7
100
AcDbLine
 10
70.699999999999989
 20
18.215000000000032
 30
0.0
 11
75.329999999999984
 21
18.215000000000032
 31
0.0
  0
LINE
  5
192
100
AcDbEntity
  8
0
  6
CONTINUOUS
 62
               2
100
AcDbLine
 10
74.70999999999998
 20
20.54000000000002
 30
0.0
 11
76.310000000000002
 21
14.54000000000002
 31
0.0
  0
LINE
  5
193
100
AcDbEntity
  8
0
  6
CONTINUOUS
 62
               7
100
AcDbLine
 10
81.129999999999939
 20
16.785000000000025
 30
0.0
 11
81.129999999999939
 21
18.215000000000032
 31
0.0
  0
LINE
  5
194
100
AcDbEntity
  8
0
  6
CONTINUOUS
 62
               7
100
AcDbLine
 10
76.951333333333309
 20
16.785000000000025
 30
0.0
 11
81.129999999999939
 21
16.785000000000025
 31
0.0
  0
LINE
  5
195
100
AcDbEntity
  8
0
  6
CONTINUOUS
 62
               7
100
AcDbLine
 10
76.569999999999993
 20
18.215000000000032
 30
0.0
 11
81.129999999999939
 21
18.215000000000032
 31
0.0
  0
LINE
  5
196
100
AcDbEntity
  8
0
  6
CONTINUOUS
 62
               7
100
AcDbLine
 10
81.129999999999939
 20
17.100000000000051
 30
0.0
 11
86.129999999999939
 21
17.100000000000051
 31
0.0
  0
LINE
  5
197
100
AcDbEntity
  8
0
  6
CONTINUOUS
 62
               7
100
AcDbLine
 10
81.129999999999939
 20
17.900000000000034
 30
0.0
 11
86.129999999999939
 21
17.900000000000034
 31
0.0
  0
ENDBLK
  5
198
100
AcDbEntity
  8
0
100
AcDbBlockEnd
  0
BLOCK
  5
199
100
AcDbEntity
  8
0
100
AcDbBlockBegin
  2
MV090-05-F-4
 70
               0
 10
0.0
 20
0.0
 30
0.0
  3
MV090-05-F-4
  1

  0
LINE
  5
19A
100
AcDbEntity
  8
0
  6
CENTER
 62
             200
100
AcDbLine
 10
0.0
 20
-1.6999999999999886
 30
0.0
 11
0.0
 21
3.3000000000000114
 31
0.0
  0
LINE
  5
19B
100
AcDbEntity
  8
0
  6
CENTER
 62
             200
100
AcDbLine
 10
7.7000000000000171
 20
19.0
 30
0.0
 11
0.4512971541956006
 21
19.0
 31
0.0
  0
LINE
  5
19C
100
AcDbEntity
  8
0
  6
CENTER
 62
             200
100
AcDbLine
 10
7.7000000000000171
 20
6.0
 30
0.0
 11
0.4512971541956006
 21
6.0
 31
0.0
  0
ARC
  5
19D
100
AcDbEntity
  8
0
  6
CONTINUOUS
 62
               4
100
AcDbCircle
 10
5.5
 20
0.5
 30
0.0
 40
0.5
100
AcDbArc
 50
269.99999999999937
 51
0.0
  0
ARC
  5
19E
100
AcDbEntity
  8
0
  6
CONTINUOUS
 62
               4
100
AcDbCircle
 10
4.0
 20
2.0
 30
0.0
 40
0.4
100
AcDbArc
 50
269.99999999999937
 51
0.0
  0
ARC
  5
19F
100
AcDbEntity
  8
0
  6
CONTINUOUS
 62
               4
100
AcDbCircle
 10
-3.5
 20
0.5
 30
0.0
 40
0.5
100
AcDbArc
 50
179.99999999999963
 51
269.99999999999937
  0
ARC
  5
1A0
100
AcDbEntity
  8
0
  6
CONTINUOUS
 62
               4
100
AcDbCircle
 10
-3.5
 20
1.0999999999999943
 30
0.0
 40
0.5
100
AcDbArc
 50
89.999999999999815
 51
179.99999999999963
  0
ARC
  5
1A1
100
AcDbEntity
  8
0
  6
CONTINUOUS
 62
               4
100
AcDbCircle
 10
4.9000000000000057
 20
22.5
 30
0.0
 40
0.5
100
AcDbArc
 50
89.999999999999815
 51
179.99999999999963
  0
ARC
  5
1A2
100
AcDbEntity
  8
0
  6
CONTINUOUS
 62
               4
100
AcDbCircle
 10
5.5
 20
22.5
 30
0.0
 40
0.5
100
AcDbArc
 50
0.0
 51
89.999999999999815
  0
LINE
  5
1A3
100
AcDbEntity
  8
0
  6
CONTINUOUS
 62
               4
100
AcDbLine
 10
5.5
 20
23.0
 30
0.0
 11
4.9000000000000057
 21
23.0
 31
0.0
  0
LINE
  5
1A4
100
AcDbEntity
  8
0
  6
CONTINUOUS
 62
               4
100
AcDbLine
 10
-3.5
 20
1.5999999999999943
 30
0.0
 11
4.0
 21
1.5999999999999943
 31
0.0
  0
LINE
  5
1A5
100
AcDbEntity
  8
0
  6
CONTINUOUS
 62
               4
100
AcDbLine
 10
-3.5
 20
0.0
 30
0.0
 11
5.5
 21
0.0
 31
0.0
  0
LINE
  5
1A6
100
AcDbEntity
  8
0
  6
CONTINUOUS
 62
               4
100
AcDbLine
 10
4.4000000000000057
 20
22.5
 30
0.0
 11
4.4000000000000057
 21
2.0
 31
0.0
  0
LINE
  5
1A7
100
AcDbEntity
  8
0
  6
CONTINUOUS
 62
               4
100
AcDbLine
 10
6.0
 20
2.0
 30
0.0
 11
6.0
 21
0.5
 31
0.0
  0
LINE
  5
1A8
100
AcDbEntity
  8
0
  6
CONTINUOUS
 62
               4
100
AcDbLine
 10
-4.0
 20
1.0999999999999943
 30
0.0
 11
-4.0
 21
0.5
 31
0.0
  0
LINE
  5
1A9
100
AcDbEntity
  8
0
  6
CONTINUOUS
 62
               4
100
AcDbLine
 10
2.0500000000000114
 20
21.25
 30
0.0
 11
1.8000000000000114
 21
21.0
 31
0.0
  0
LINE
  5
1AA
100
AcDbEntity
  8
0
  6
CONTINUOUS
 62
               4
100
AcDbLine
 10
2.0500000000000114
 20
16.75
 30
0.0
 11
1.8000000000000114
 21
17.0
 31
0.0
  0
LINE
  5
1AB
100
AcDbEntity
  8
0
  6
CONTINUOUS
 62
               4
100
AcDbLine
 10
2.0500000000000114
 20
21.25
 30
0.0
 11
2.0500000000000114
 21
16.75
 31
0.0
  0
LINE
  5
1AC
100
AcDbEntity
  8
0
  6
CONTINUOUS
 62
               4
100
AcDbLine
 10
1.8000000000000114
 20
21.0
 30
0.0
 11
1.8000000000000114
 21
17.0
 31
0.0
  0
LINE
  5
1AD
100
AcDbEntity
  8
0
  6
CONTINUOUS
 62
               4
100
AcDbLine
 10
2.0500000000000114
 20
21.25
 30
0.0
 11
4.4000000000000057
 21
21.25
 31
0.0
  0
LINE
  5
1AE
100
AcDbEntity
  8
0
  6
CONTINUOUS
 62
               4
100
AcDbLine
 10
2.0500000000000114
 20
16.75
 30
0.0
 11
4.4000000000000057
 21
16.75
 31
0.0
  0
LINE
  5
1AF
100
AcDbEntity
  8
0
  6
CONTINUOUS
 62
               4
100
AcDbLine
 10
2.0500000000000114
 20
3.75
 30
0.0
 11
4.4000000000000057
 21
3.75
 31
0.0
  0
LINE
  5
1B0
100
AcDbEntity
  8
0
  6
CONTINUOUS
 62
               4
100
AcDbLine
 10
2.0500000000000114
 20
8.25
 30
0.0
 11
4.4000000000000057
 21
8.25
 31
0.0
  0
LINE
  5
1B1
100
AcDbEntity
  8
0
  6
CONTINUOUS
 62
               4
100
AcDbLine
 10
1.8000000000000114
 20
8.0
 30
0.0
 11
1.8000000000000114
 21
4.0
 31
0.0
  0
LINE
  5
1B2
100
AcDbEntity
  8
0
  6
CONTINUOUS
 62
               4
100
AcDbLine
 10
2.0500000000000114
 20
8.25
 30
0.0
 11
2.0500000000000114
 21
3.75
 31
0.0
  0
LINE
  5
1B3
100
AcDbEntity
  8
0
  6
CONTINUOUS
 62
               4
100
AcDbLine
 10
2.0500000000000114
 20
3.75
 30
0.0
 11
1.8000000000000114
 21
4.0
 31
0.0
  0
LINE
  5
1B4
100
AcDbEntity
  8
0
  6
CONTINUOUS
 62
               4
100
AcDbLine
 10
2.0500000000000114
 20
8.25
 30
0.0
 11
1.8000000000000114
 21
8.0
 31
0.0
  0
LINE
  5
1B5
100
AcDbEntity
  8
0
  6
CONTINUOUS
 62
               7
100
AcDbLine
 10
26.0
 20
68.0
 30
0.0
 11
26.0
 21
2.0
 31
0.0
  0
LINE
  5
1B6
100
AcDbEntity
  8
0
  6
CONTINUOUS
 62
               7
100
AcDbLine
 10
25.5
 20
66.0
 30
0.0
 11
25.5
 21
25.0
 31
0.0
  0
LINE
  5
1B7
100
AcDbEntity
  8
0
  6
CONTINUOUS
 62
               7
100
AcDbLine
 10
18.419384354593262
 20
35.474540409051883
 30
0.0
 11
18.78388437075273
 21
35.780391675097576
 31
0.0
  0
LINE
  5
1B8
100
AcDbEntity
  8
0
  6
CONTINUOUS
 62
               7
100
AcDbLine
 10
18.419384354593262
 20
38.435524245807642
 30
0.0
 11
18.78388437075273
 21
38.00112989354966
 31
0.0
  0
LINE
  5
1B9
100
AcDbEntity
  8
0
  6
CONTINUOUS
 62
               7
100
AcDbLine
 10
18.453855850121499
 20
40.570932251943532
 30
0.0
 11
18.818355866280911
 21
40.876784245036333
 31
0.0
  0
LINE
  5
1BA
100
AcDbEntity
  8
0
  6
CONTINUOUS
 62
               7
100
AcDbLine
 10
18.453855850121499
 20
43.531916086746492
 30
0.0
 11
18.818355866280911
 21
43.097522463488531
 31
0.0
  0
LINE
  5
1BB
100
AcDbEntity
  8
0
  6
CONTINUOUS
 62
               7
100
AcDbLine
 10
18.453855850121499
 20
40.570932251943532
 30
0.0
 11
18.453855850121499
 21
43.531916086746492
 31
0.0
  0
LINE
  5
1BC
100
AcDbEntity
  8
0
  6
CONTINUOUS
 62
               7
100
AcDbLine
 10
18.419384354593262
 20
35.474540409051883
 30
0.0
 11
18.419384354593262
 21
38.435524245807642
 31
0.0
  0
LINE
  5
1BD
100
AcDbEntity
  8
0
  6
CONTINUOUS
 62
               7
100
AcDbLine
 10
18.78388437075273
 20
38.00112989354966
 30
0.0
 11
18.78388437075273
 21
35.780391675097576
 31
0.0
  0
LINE
  5
1BE
100
AcDbEntity
  8
0
  6
CONTINUOUS
 62
               7
100
AcDbLine
 10
18.818355866280911
 20
43.097522463488531
 30
0.0
 11
18.818355866280911
 21
40.876784245036333
 31
0.0
  0
LINE
  5
1BF
100
AcDbEntity
  8
0
  6
CONTINUOUS
 62
               7
100
AcDbLine
 10
20.852222216448467
 20
42.738896729589555
 30
0.0
 11
21.034472224528201
 21
43.076884472573511
 31
0.0
  0
LINE
  5
1C0
100
AcDbEntity
  8
0
  6
CONTINUOUS
 62
               7
100
AcDbLine
 10
21.216722232607935
 20
42.674625899740249
 30
0.0
 11
21.034472224528201
 21
43.076884472573511
 31
0.0
  0
LINE
  5
1C1
100
AcDbEntity
  8
0
  6
CONTINUOUS
 62
               7
100
AcDbLine
 10
21.216722232607935
 20
42.674625899740249
 30
0.0
 11
21.477535116170543
 21
42.628636932701397
 31
0.0
  0
LINE
  5
1C2
100
AcDbEntity
  8
0
  6
CONTINUOUS
 62
               7
100
AcDbLine
 10
23.290397816540406
 20
42.308980624530022
 30
0.0
 11
23.65489783269976
 21
42.614832588089371
 31
0.0
  0
LINE
  5
1C3
100
AcDbEntity
  8
0
  6
CONTINUOUS
 62
               7
100
AcDbLine
 10
21.540829814976632
 20
42.9875994646153
 30
0.0
 11
23.65489783269976
 21
42.614832588089371
 31
0.0
  0
LINE
  5
1C4
100
AcDbEntity
  8
0
  6
CONTINUOUS
 62
               7
100
AcDbLine
 10
21.477535116170543
 20
42.628636932701397
 30
0.0
 11
23.290397816540406
 21
42.308980624530022
 31
0.0
  0
LINE
  5
1C5
100
AcDbEntity
  8
0
  6
CONTINUOUS
 62
               7
100
AcDbLine
 10
21.182250008079677
 20
37.578233329801378
 30
0.0
 11
21.443063620642306
 21
37.532245091762547
 31
0.0
  0
LINE
  5
1C6
100
AcDbEntity
  8
0
  6
CONTINUOUS
 62
               7
100
AcDbLine
 10
21.182250008079677
 20
35.357495111349181
 30
0.0
 11
21.182250008079677
 21
37.578233329801378
 31
0.0
  0
LINE
  5
1C7
100
AcDbEntity
  8
0
  6
CONTINUOUS
 62
               7
100
AcDbLine
 10
20.817749991920209
 20
35.421766670198508
 30
0.0
 11
20.817749991920209
 21
37.642504888650706
 31
0.0
  0
LINE
  5
1C8
100
AcDbEntity
  8
0
  6
CONTINUOUS
 62
               7
100
AcDbLine
 10
21.182250008079677
 20
37.578233329801378
 30
0.0
 11
21.0
 21
37.980491902634753
 31
0.0
  0
LINE
  5
1C9
100
AcDbEntity
  8
0
  6
CONTINUOUS
 62
               7
100
AcDbLine
 10
20.817749991920209
 20
37.642504888650706
 30
0.0
 11
21.0
 21
37.980491902634753
 31
0.0
  0
LINE
  5
1CA
100
AcDbEntity
  8
0
  6
CONTINUOUS
 62
               7
100
AcDbLine
 10
21.0
 20
35.019508097365133
 30
0.0
 11
21.182250008079677
 21
35.357495111349181
 31
0.0
  0
LINE
  5
1CB
100
AcDbEntity
  8
0
  6
CONTINUOUS
 62
               7
100
AcDbLine
 10
21.0
 20
35.019508097365133
 30
0.0
 11
20.817749991920209
 21
35.421766670198508
 31
0.0
  0
LINE
  5
1CC
100
AcDbEntity
  8
0
  6
CONTINUOUS
 62
               7
100
AcDbLine
 10
21.034472224528201
 20
40.115899938303983
 30
0.0
 11
20.852222216448467
 21
40.518158511137358
 31
0.0
  0
LINE
  5
1CD
100
AcDbEntity
  8
0
  6
CONTINUOUS
 62
               7
100
AcDbLine
 10
21.034472224528201
 20
40.115899938303983
 30
0.0
 11
21.216722232607935
 21
40.453887681288052
 31
0.0
  0
LINE
  5
1CE
100
AcDbEntity
  8
0
  6
CONTINUOUS
 62
               7
100
AcDbLine
 10
23.255925592012147
 20
34.991850565138975
 30
0.0
 11
23.255925592012147
 21
37.212588783591173
 31
0.0
  0
LINE
  5
1CF
100
AcDbEntity
  8
0
  6
CONTINUOUS
 62
               7
100
AcDbLine
 10
23.255925592012147
 20
37.212588783591173
 30
0.0
 11
23.620425608171558
 21
37.5184400181505
 31
0.0
  0
LINE
  5
1D0
100
AcDbEntity
  8
0
  6
CONTINUOUS
 62
               7
100
AcDbLine
 10
23.255925592012147
 20
34.991850565138975
 30
0.0
 11
23.620425608171558
 21
34.551697841625696
 31
0.0
  0
LINE
  5
1D1
100
AcDbEntity
  8
0
  6
CONTINUOUS
 62
               7
100
AcDbLine
 10
23.620425608171558
 20
34.551697841625696
 30
0.0
 11
23.620425608171558
 21
37.5184400181505
 31
0.0
  0
LINE
  5
1D2
100
AcDbEntity
  8
0
  6
CONTINUOUS
 62
               7
100
AcDbLine
 10
23.290397816540406
 20
40.088242406077825
 30
0.0
 11
23.65489783269976
 21
39.648089682564432
 31
0.0
  0
LINE
  5
1D3
100
AcDbEntity
  8
0
  6
CONTINUOUS
 62
               7
100
AcDbLine
 10
21.182250008079677
 20
35.357495111349181
 30
0.0
 11
23.255925592012147
 21
34.991850565138975
 31
0.0
  0
LINE
  5
1D4
100
AcDbEntity
  8
0
  6
CONTINUOUS
 62
               7
100
AcDbLine
 10
21.443063620642306
 20
37.532245091762547
 30
0.0
 11
23.255925592012147
 21
37.212588783591173
 31
0.0
  0
LINE
  5
1D5
100
AcDbEntity
  8
0
  6
CONTINUOUS
 62
               7
100
AcDbLine
 10
21.506358319448395
 20
37.891207623676451
 30
0.0
 11
23.620425608171558
 21
37.5184400181505
 31
0.0
  0
LINE
  5
1D6
100
AcDbEntity
  8
0
  6
CONTINUOUS
 62
               7
100
AcDbLine
 10
21.0
 20
35.019508097365133
 30
0.0
 11
23.620425608171558
 21
34.557456212880993
 31
0.0
  0
LINE
  5
1D7
100
AcDbEntity
  8
0
  6
CONTINUOUS
 62
               7
100
AcDbLine
 10
21.216722232607935
 20
40.453887681288052
 30
0.0
 11
23.290397816540406
 21
40.088242406077825
 31
0.0
  0
LINE
  5
1D8
100
AcDbEntity
  8
0
  6
CONTINUOUS
 62
               7
100
AcDbLine
 10
21.034472224528201
 20
40.115899938303983
 30
0.0
 11
23.65489783269976
 21
39.653848053819729
 31
0.0
  0
LINE
  5
1D9
100
AcDbEntity
  8
0
  6
CONTINUOUS
 62
               7
100
AcDbLine
 10
23.290397816540406
 20
40.088242406077825
 30
0.0
 11
23.290397816540406
 21
42.308980624530022
 31
0.0
  0
LINE
  5
1DA
100
AcDbEntity
  8
0
  6
CONTINUOUS
 62
               7
100
AcDbLine
 10
20.852222216448467
 20
40.518158511137358
 30
0.0
 11
20.852222216448467
 21
42.738896729589555
 31
0.0
  0
LINE
  5
1DB
100
AcDbEntity
  8
0
  6
CONTINUOUS
 62
               7
100
AcDbLine
 10
21.216722232607935
 20
40.453887681288052
 30
0.0
 11
21.216722232607935
 21
42.674625899740249
 31
0.0
  0
LINE
  5
1DC
100
AcDbEntity
  8
0
  6
CONTINUOUS
 62
               7
100
AcDbLine
 10
23.65489783269976
 20
39.648089682564432
 30
0.0
 11
23.65489783269976
 21
42.614832588089371
 31
0.0
  0
LINE
  5
1DD
100
AcDbEntity
  8
0
  6
CONTINUOUS
 62
               7
100
AcDbLine
 10
21.192713345543552
 20
29.901125970451517
 30
0.0
 11
21.192713345543552
 21
32.121864188903601
 31
0.0
  0
LINE
  5
1DE
100
AcDbEntity
  8
0
  6
CONTINUOUS
 62
               7
100
AcDbLine
 10
20.828213329384084
 20
29.965396800300823
 30
0.0
 11
20.828213329384084
 21
32.186135018752907
 31
0.0
  0
LINE
  5
1DF
100
AcDbEntity
  8
0
  6
CONTINUOUS
 62
               7
100
AcDbLine
 10
21.010463337463875
 20
29.563138227467448
 30
0.0
 11
21.192713345543552
 21
29.901125970451517
 31
0.0
  0
LINE
  5
1E0
100
AcDbEntity
  8
0
  6
CONTINUOUS
 62
               7
100
AcDbLine
 10
21.010463337463875
 20
29.563138227467448
 30
0.0
 11
20.828213329384084
 21
29.965396800300823
 31
0.0
  0
LINE
  5
1E1
100
AcDbEntity
  8
0
  6
CONTINUOUS
 62
               7
100
AcDbLine
 10
20.828213329384084
 20
32.186135018752907
 30
0.0
 11
21.010463337463875
 21
32.524122761736976
 31
0.0
  0
LINE
  5
1E2
100
AcDbEntity
  8
0
  6
CONTINUOUS
 62
               7
100
AcDbLine
 10
21.192713345543552
 20
32.121864188903601
 30
0.0
 11
21.010463337463875
 21
32.524122761736976
 31
0.0
  0
LINE
  5
1E3
100
AcDbEntity
  8
0
  6
CONTINUOUS
 62
               7
100
AcDbLine
 10
18.453855850121499
 20
40.570932251943532
 30
0.0
 11
21.034472224528201
 21
40.115899938303983
 31
0.0
  0
LINE
  5
1E4
100
AcDbEntity
  8
0
  6
CONTINUOUS
 62
               7
100
AcDbLine
 10
18.818355866280911
 20
40.876784245036333
 30
0.0
 11
20.852222216448467
 21
40.518158511137358
 31
0.0
  0
LINE
  5
1E5
100
AcDbEntity
  8
0
  6
CONTINUOUS
 62
               7
100
AcDbLine
 10
18.78388437075273
 20
35.780391675097576
 30
0.0
 11
20.817749991920209
 21
35.421766670198508
 31
0.0
  0
LINE
  5
1E6
100
AcDbEntity
  8
0
  6
CONTINUOUS
 62
               7
100
AcDbLine
 10
18.78388437075273
 20
38.00112989354966
 30
0.0
 11
20.817749991920209
 21
37.642504888650706
 31
0.0
  0
LINE
  5
1E7
100
AcDbEntity
  8
0
  6
CONTINUOUS
 62
               7
100
AcDbLine
 10
18.419384354593262
 20
35.474540409051883
 30
0.0
 11
21.0
 21
35.019508097365133
 31
0.0
  0
LINE
  5
1E8
100
AcDbEntity
  8
0
  6
CONTINUOUS
 62
               7
100
AcDbLine
 10
18.419384354593262
 20
38.435524245807642
 30
0.0
 11
21.506358319448395
 21
37.891207623676451
 31
0.0
  0
LINE
  5
1E9
100
AcDbEntity
  8
0
  6
CONTINUOUS
 62
               7
100
AcDbLine
 10
18.453855850121499
 20
43.531916086746492
 30
0.0
 11
21.540829814976632
 21
42.9875994646153
 31
0.0
  0
LINE
  5
1EA
100
AcDbEntity
  8
0
  6
CONTINUOUS
 62
               7
100
AcDbLine
 10
18.818355866280911
 20
43.097522463488531
 30
0.0
 11
20.852222216448467
 21
42.738896729589555
 31
0.0
  0
LINE
  5
1EB
100
AcDbEntity
  8
0
  6
CONTINUOUS
 62
               7
100
AcDbLine
 10
20.429901643390963
 20
56.887439318958286
 30
0.0
 11
21.916508518122782
 21
54.312560681041646
 31
0.0
  0
LINE
  5
1EC
100
AcDbEntity
  8
0
  6
CONTINUOUS
 62
               7
100
AcDbLine
 10
20.083491481877104
 20
56.687439318958354
 30
0.0
 11
21.570098356609037
 21
54.1125606810416
 31
0.0
  0
CIRCLE
  5
1ED
100
AcDbEntity
  8
0
  6
CONTINUOUS
 62
               7
100
AcDbCircle
 10
21.0
 20
55.5
 30
0.0
 40
1.5
  0
CIRCLE
  5
1EE
100
AcDbEntity
  8
0
  6
CONTINUOUS
 62
               7
100
AcDbCircle
 10
21.0
 20
50.25
 30
0.0
 40
1.5
  0
LINE
  5
1EF
100
AcDbEntity
  8
0
  6
CONTINUOUS
 62
               7
100
AcDbLine
 10
20.083491481877104
 20
51.437439318958354
 30
0.0
 11
21.570098356609037
 21
48.8625606810416
 31
0.0
  0
LINE
  5
1F0
100
AcDbEntity
  8
0
  6
CONTINUOUS
 62
               7
100
AcDbLine
 10
20.429901643390963
 20
51.637439318958286
 30
0.0
 11
21.916508518122782
 21
49.062560681041646
 31
0.0
  0
LINE
  5
1F1
100
AcDbEntity
  8
0
  6
CONTINUOUS
 62
               7
100
AcDbLine
 10
26.0
 20
2.0
 30
0.0
 11
16.0
 21
2.0
 31
0.0
  0
LINE
  5
1F2
100
AcDbEntity
  8
0
  6
CONTINUOUS
 62
               7
100
AcDbLine
 10
16.5
 20
45.0
 30
0.0
 11
25.5
 21
45.0
 31
0.0
  0
LINE
  5
1F3
100
AcDbEntity
  8
0
  6
CONTINUOUS
 62
               7
100
AcDbLine
 10
16.5
 20
28.0
 30
0.0
 11
25.5
 21
28.0
 31
0.0
  0
LINE
  5
1F4
100
AcDbEntity
  8
0
  6
CONTINUOUS
 62
               7
100
AcDbLine
 10
16.5
 20
25.0
 30
0.0
 11
25.5
 21
25.0
 31
0.0
  0
LINE
  5
1F5
100
AcDbEntity
  8
0
  6
CONTINUOUS
 62
               7
100
AcDbLine
 10
26.0
 20
23.0
 30
0.0
 11
16.0
 21
23.0
 31
0.0
  0
LINE
  5
1F6
100
AcDbEntity
  8
0
  6
CONTINUOUS
 62
               7
100
AcDbLine
 10
16.0
 20
16.0
 30
0.0
 11
26.0
 21
16.0
 31
0.0
  0
LINE
  5
1F7
100
AcDbEntity
  8
0
  6
CONTINUOUS
 62
               7
100
AcDbLine
 10
16.5
 20
68.5
 30
0.0
 11
16.5
 21
78.270596614320993
 31
0.0
  0
LINE
  5
1F8
100
AcDbEntity
  8
0
  6
CONTINUOUS
 62
               7
100
AcDbLine
 10
21.5
 20
68.5
 30
0.0
 11
21.5
 21
80.162488506212867
 31
0.0
  0
LINE
  5
1F9
100
AcDbEntity
  8
0
  6
CONTINUOUS
 62
               2
100
AcDbLine
 10
22.751918174814818
 20
81.636187275061729
 30
0.0
 11
15.031316701234573
 21
78.714878609382708
 31
0.0
  0
LINE
  5
1FA
100
AcDbEntity
  8
0
  6
CONTINUOUS
 62
               2
100
AcDbLine
 10
22.751918174814818
 20
80.636187275061729
 30
0.0
 11
15.031316701234573
 21
77.714878609382708
 31
0.0
  0
LINE
  5
1FB
100
AcDbEntity
  8
0
  6
CONTINUOUS
 62
               7
100
AcDbLine
 10
20.899999999999977
 20
88.5
 30
0.0
 11
20.899999999999977
 21
93.5
 31
0.0
  0
LINE
  5
1FC
100
AcDbEntity
  8
0
  6
CONTINUOUS
 62
               7
100
AcDbLine
 10
20.100000000000023
 20
88.5
 30
0.0
 11
20.100000000000023
 21
93.5
 31
0.0
  0
LINE
  5
1FD
100
AcDbEntity
  8
0
  6
CONTINUOUS
 62
               7
100
AcDbLine
 10
19.899999999999977
 20
88.5
 30
0.0
 11
19.899999999999977
 21
93.5
 31
0.0
  0
LINE
  5
1FE
100
AcDbEntity
  8
0
  6
CONTINUOUS
 62
               7
100
AcDbLine
 10
19.100000000000023
 20
88.5
 30
0.0
 11
19.100000000000023
 21
93.5
 31
0.0
  0
LINE
  5
1FF
100
AcDbEntity
  8
0
  6
CONTINUOUS
 62
               7
100
AcDbLine
 10
18.899999999999977
 20
88.5
 30
0.0
 11
18.899999999999977
 21
93.5
 31
0.0
  0
LINE
  5
200
100
AcDbEntity
  8
0
  6
CONTINUOUS
 62
               7
100
AcDbLine
 10
18.100000000000023
 20
88.5
 30
0.0
 11
18.100000000000023
 21
93.5
 31
0.0
  0
LINE
  5
201
100
AcDbEntity
  8
0
  6
CONTINUOUS
 62
               7
100
AcDbLine
 10
17.899999999999977
 20
88.5
 30
0.0
 11
17.899999999999977
 21
93.5
 31
0.0
  0
LINE
  5
202
100
AcDbEntity
  8
0
  6
CONTINUOUS
 62
               7
100
AcDbLine
 10
17.100000000000023
 20
88.5
 30
0.0
 11
17.100000000000023
 21
93.5
 31
0.0
  0
LINE
  5
203
100
AcDbEntity
  8
0
  6
CONTINUOUS
 62
               7
100
AcDbLine
 10
21.5
 20
84.934434807571961
 30
0.0
 11
21.5
 21
81.162488506212867
 31
0.0
  0
LINE
  5
204
100
AcDbEntity
  8
0
  6
CONTINUOUS
 62
               7
100
AcDbLine
 10
16.5
 20
84.934434807571961
 30
0.0
 11
16.5
 21
79.270596614320993
 31
0.0
  0
LINE
  5
205
100
AcDbEntity
  8
0
  6
CONTINUOUS
 62
               7
100
AcDbLine
 10
21.5
 20
84.934434807571961
 30
0.0
 11
16.5
 21
84.934434807571961
 31
0.0
  0
LINE
  5
206
100
AcDbEntity
  8
0
  6
CONTINUOUS
 62
               7
100
AcDbLine
 10
16.785000000000082
 20
88.5
 30
0.0
 11
21.215000000000032
 21
88.5
 31
0.0
  0
LINE
  5
207
100
AcDbEntity
  8
0
  6
CONTINUOUS
 62
               7
100
AcDbLine
 10
16.785000000000082
 20
84.934434807571961
 30
0.0
 11
16.785000000000082
 21
88.5
 31
0.0
  0
LINE
  5
208
100
AcDbEntity
  8
0
  6
CONTINUOUS
 62
               7
100
AcDbLine
 10
18.215000000000032
 20
84.934434807571961
 30
0.0
 11
18.215000000000032
 21
88.5
 31
0.0
  0
LINE
  5
209
100
AcDbEntity
  8
0
  6
CONTINUOUS
 62
               7
100
AcDbLine
 10
19.215000000000032
 20
84.934434807571961
 30
0.0
 11
19.215000000000032
 21
88.5
 31
0.0
  0
LINE
  5
20A
100
AcDbEntity
  8
0
  6
CONTINUOUS
 62
               7
100
AcDbLine
 10
20.215000000000032
 20
84.934434807571961
 30
0.0
 11
20.215000000000032
 21
88.5
 31
0.0
  0
LINE
  5
20B
100
AcDbEntity
  8
0
  6
CONTINUOUS
 62
               7
100
AcDbLine
 10
21.215000000000032
 20
84.934434807571961
 30
0.0
 11
21.215000000000032
 21
88.5
 31
0.0
  0
LINE
  5
20C
100
AcDbEntity
  8
0
  6
CONTINUOUS
 62
               7
100
AcDbLine
 10
17.100000000000023
 20
93.5
 30
0.0
 11
17.899999999999977
 21
93.5
 31
0.0
  0
LINE
  5
20D
100
AcDbEntity
  8
0
  6
CONTINUOUS
 62
               7
100
AcDbLine
 10
18.100000000000023
 20
93.5
 30
0.0
 11
18.899999999999977
 21
93.5
 31
0.0
  0
LINE
  5
20E
100
AcDbEntity
  8
0
  6
CONTINUOUS
 62
               7
100
AcDbLine
 10
19.100000000000023
 20
93.5
 30
0.0
 11
19.899999999999977
 21
93.5
 31
0.0
  0
LINE
  5
20F
100
AcDbEntity
  8
0
  6
CONTINUOUS
 62
               7
100
AcDbLine
 10
20.100000000000023
 20
93.5
 30
0.0
 11
20.899999999999977
 21
93.5
 31
0.0
  0
LINE
  5
210
100
AcDbEntity
  8
0
  6
CONTINUOUS
 62
               7
100
AcDbLine
 10
16.0
 20
68.5
 30
0.0
 11
22.0
 21
68.5
 31
0.0
  0
LINE
  5
211
100
AcDbEntity
  8
0
  6
CONTINUOUS
 62
               7
100
AcDbLine
 10
22.0
 20
68.0
 30
0.0
 11
22.0
 21
68.5
 31
0.0
  0
LINE
  5
212
100
AcDbEntity
  8
0
  6
CONTINUOUS
 62
               7
100
AcDbLine
 10
20.429901643390963
 20
62.137439318958286
 30
0.0
 11
21.916508518122782
 21
59.562560681041646
 31
0.0
  0
LINE
  5
213
100
AcDbEntity
  8
0
  6
CONTINUOUS
 62
               7
100
AcDbLine
 10
20.083491481877104
 20
61.937439318958354
 30
0.0
 11
21.570098356609037
 21
59.3625606810416
 31
0.0
  0
CIRCLE
  5
214
100
AcDbEntity
  8
0
  6
CONTINUOUS
 62
               7
100
AcDbCircle
 10
21.0
 20
60.75
 30
0.0
 40
1.5
  0
LINE
  5
215
100
AcDbEntity
  8
0
  6
CONTINUOUS
 62
               7
100
AcDbLine
 10
16.5
 20
66.0
 30
0.0
 11
16.5
 21
25.0
 31
0.0
  0
LINE
  5
216
100
AcDbEntity
  8
0
  6
CONTINUOUS
 62
               7
100
AcDbLine
 10
16.0
 20
68.5
 30
0.0
 11
16.0
 21
2.0
 31
0.0
  0
LINE
  5
217
100
AcDbEntity
  8
0
  6
CONTINUOUS
 62
               7
100
AcDbLine
 10
16.0
 20
68.0
 30
0.0
 11
26.0
 21
68.0
 31
0.0
  0
LINE
  5
218
100
AcDbEntity
  8
0
  6
CONTINUOUS
 62
               7
100
AcDbLine
 10
16.5
 20
66.0
 30
0.0
 11
25.5
 21
66.0
 31
0.0
  0
LINE
  5
219
100
AcDbEntity
  8
0
  6
CENTER
 62
               2
100
AcDbLine
 10
21.0
 20
78.444869257950529
 30
0.0
 11
21.0
 21
-0.5701803136998933
 31
0.0
  0
LINE
  5
21A
100
AcDbEntity
  8
0
  6
CONTINUOUS
 62
               7
100
AcDbLine
 10
6.0
 20
2.0
 30
0.0
 11
6.0000000000000036
 21
53.500000000000057
 31
0.0
  0
LINE
  5
21B
100
AcDbEntity
  8
0
  6
CENTER
 62
               2
100
AcDbLine
 10
11.000000000000004
 20
61.699999999999989
 30
0.0
 11
11.0
 21
-0.5701803136998933
 31
0.0
  0
LINE
  5
21C
100
AcDbEntity
  8
0
  6
CENTER
 62
               2
100
AcDbLine
 10
12.000000000000002
 20
57.424796801798585
 30
0.0
 11
12.000000000000002
 21
52.872740512375721
 31
0.0
  0
LINE
  5
21D
100
AcDbEntity
  8
0
  6
CONTINUOUS
 62
               7
100
AcDbLine
 10
15.250000000000002
 20
56.199999999999989
 30
0.0
 11
14.750000000000002
 21
56.699999999999989
 31
0.0
  0
LINE
  5
21E
100
AcDbEntity
  8
0
  6
CONTINUOUS
 62
               7
100
AcDbLine
 10
8.7500000000000018
 20
56.199999999999989
 30
0.0
 11
9.2500000000000036
 21
56.699999999999989
 31
0.0
  0
LINE
  5
21F
100
AcDbEntity
  8
0
  6
CONTINUOUS
 62
               7
100
AcDbLine
 10
8.7500000000000018
 20
56.199999999999989
 30
0.0
 11
8.7500000000000018
 21
53.500000000000057
 31
0.0
  0
LINE
  5
220
100
AcDbEntity
  8
0
  6
CONTINUOUS
 62
               7
100
AcDbLine
 10
15.250000000000002
 20
56.199999999999989
 30
0.0
 11
15.250000000000002
 21
53.500000000000057
 31
0.0
  0
LINE
  5
221
100
AcDbEntity
  8
0
  6
CONTINUOUS
 62
               7
100
AcDbLine
 10
9.2499999999999964
 20
56.699999999999989
 30
0.0
 11
14.750000000000002
 21
56.699999999999989
 31
0.0
  0
LINE
  5
222
100
AcDbEntity
  8
0
  6
CONTINUOUS
 62
               7
100
AcDbLine
 10
8.7499999999999964
 20
56.199999999999989
 30
0.0
 11
15.249999999999996
 21
56.199999999999989
 31
0.0
  0
LINE
  5
223
100
AcDbEntity
  8
0
  6
CONTINUOUS
 62
               7
100
AcDbLine
 10
5.9999999999999964
 20
53.500000000000057
 30
0.0
 11
16.0
 21
53.500000000000057
 31
0.0
  0
LINE
  5
224
100
AcDbEntity
  8
0
  6
CONTINUOUS
 62
               7
100
AcDbLine
 10
5.9999999999999964
 20
50.499999999999943
 30
0.0
 11
16.0
 21
50.499999999999943
 31
0.0
  0
LINE
  5
225
100
AcDbEntity
  8
0
  6
CONTINUOUS
 62
               7
100
AcDbLine
 10
5.9999999999999964
 20
36.999999999999943
 30
0.0
 11
15.999999999999996
 21
36.999999999999943
 31
0.0
  0
CIRCLE
  5
226
100
AcDbEntity
  8
0
  6
CONTINUOUS
 62
               7
100
AcDbCircle
 10
14.500000000000004
 20
45.499999999999886
 30
0.0
 40
1.5
  0
LINE
  5
227
100
AcDbEntity
  8
0
  6
CONTINUOUS
 62
               7
100
AcDbLine
 10
15.207106781186557
 20
44.792893218813333
 30
0.0
 11
13.79289321881345
 21
46.20710678118644
 31
0.0
  0
LINE
  5
228
100
AcDbEntity
  8
0
  6
CONTINUOUS
 62
               7
100
AcDbLine
 10
15.207106781186557
 20
46.20710678118644
 30
0.0
 11
13.79289321881345
 21
44.792893218813333
 31
0.0
  0
LINE
  5
229
100
AcDbEntity
  8
0
  6
CONTINUOUS
 62
               7
100
AcDbLine
 10
6.7928932188134503
 20
46.20710678118644
 30
0.0
 11
8.2071067811865568
 21
44.792893218813333
 31
0.0
  0
LINE
  5
22A
100
AcDbEntity
  8
0
  6
CONTINUOUS
 62
               7
100
AcDbLine
 10
6.7928932188134503
 20
44.792893218813333
 30
0.0
 11
8.2071067811865568
 21
46.20710678118644
 31
0.0
  0
CIRCLE
  5
22B
100
AcDbEntity
  8
0
  6
CONTINUOUS
 62
               7
100
AcDbCircle
 10
7.5000000000000036
 20
45.499999999999886
 30
0.0
 40
1.5
  0
LINE
  5
22C
100
AcDbEntity
  8
0
  6
CONTINUOUS
 62
               7
100
AcDbLine
 10
6.0
 20
34.0
 30
0.0
 11
16.0
 21
34.0
 31
0.0
  0
LINE
  5
22D
100
AcDbEntity
  8
0
  6
CONTINUOUS
 62
               7
100
AcDbLine
 10
15.20710678118644
 20
24.792893218813447
 30
0.0
 11
13.792893218813333
 21
26.207106781186553
 31
0.0
  0
LINE
  5
22E
100
AcDbEntity
  8
0
  6
CONTINUOUS
 62
               7
100
AcDbLine
 10
15.20710678118644
 20
26.207106781186553
 30
0.0
 11
13.792893218813333
 21
24.792893218813447
 31
0.0
  0
CIRCLE
  5
22F
100
AcDbEntity
  8
0
  6
CONTINUOUS
 62
               7
100
AcDbCircle
 10
14.5
 20
25.5
 30
0.0
 40
1.5
  0
CIRCLE
  5
230
100
AcDbEntity
  8
0
  6
CONTINUOUS
 62
               7
100
AcDbCircle
 10
11.0
 20
23.75
 30
0.0
 40
1.8500000000000001
  0
CIRCLE
  5
231
100
AcDbEntity
  8
0
  6
CONTINUOUS
 62
               7
100
AcDbCircle
 10
11.0
 20
23.75
 30
0.0
 40
1.9000000000000001
  0
LINE
  5
232
100
AcDbEntity
  8
0
  6
CONTINUOUS
 62
               7
100
AcDbLine
 10
16.0
 20
23.899999999999977
 30
0.0
 11
14.5
 21
23.899999999999977
 31
0.0
  0
LINE
  5
233
100
AcDbEntity
  8
0
  6
CONTINUOUS
 62
               7
100
AcDbLine
 10
14.5
 20
27.100000000000023
 30
0.0
 11
16.0
 21
27.100000000000023
 31
0.0
  0
CIRCLE
  5
234
100
AcDbEntity
  8
0
  6
CONTINUOUS
 62
               7
100
AcDbCircle
 10
11.0
 20
23.75
 30
0.0
 40
2.0500000000000003
  0
LINE
  5
235
100
AcDbEntity
  8
0
  6
CONTINUOUS
 62
               7
100
AcDbLine
 10
13.649999999999977
 20
27.600000000000023
 30
0.0
 11
16.0
 21
27.600000000000023
 31
0.0
  0
LINE
  5
236
100
AcDbEntity
  8
0
  6
CONTINUOUS
 62
               7
100
AcDbLine
 10
13.394370406123812
 20
28.04081745177109
 30
0.0
 11
16.0
 21
28.04081745177109
 31
0.0
  0
LINE
  5
237
100
AcDbEntity
  8
0
  6
CONTINUOUS
 62
               7
100
AcDbLine
 10
13.394370406123812
 20
28.04081745177109
 30
0.0
 11
13.649999999999977
 21
27.600000000000023
 31
0.0
  0
LINE
  5
238
100
AcDbEntity
  8
0
  6
CONTINUOUS
 62
               7
100
AcDbLine
 10
8.3499999999999091
 20
27.600000000000023
 30
0.0
 11
8.6056295938760741
 21
28.04081745177109
 31
0.0
  0
LINE
  5
239
100
AcDbEntity
  8
0
  6
CONTINUOUS
 62
               7
100
AcDbLine
 10
12.144370406123812
 20
26.79081745177109
 30
0.0
 11
12.399999999999977
 21
26.350000000000023
 31
0.0
  0
LINE
  5
23A
100
AcDbEntity
  8
0
  6
CONTINUOUS
 62
               7
100
AcDbLine
 10
13.649999999999977
 20
27.600000000000023
 30
0.0
 11
12.399999999999977
 21
26.350000000000023
 31
0.0
  0
LINE
  5
23B
100
AcDbEntity
  8
0
  6
CONTINUOUS
 62
               7
100
AcDbLine
 10
12.144370406123812
 20
26.79081745177109
 30
0.0
 11
13.394370406123812
 21
28.04081745177109
 31
0.0
  0
LINE
  5
23C
100
AcDbEntity
  8
0
  6
CONTINUOUS
 62
               7
100
AcDbLine
 10
9.8556295938760741
 20
26.79081745177109
 30
0.0
 11
9.5999999999999091
 21
26.350000000000023
 31
0.0
  0
LINE
  5
23D
100
AcDbEntity
  8
0
  6
CONTINUOUS
 62
               7
100
AcDbLine
 10
9.8556295938760741
 20
26.79081745177109
 30
0.0
 11
8.6056295938760741
 21
28.04081745177109
 31
0.0
  0
LINE
  5
23E
100
AcDbEntity
  8
0
  6
CONTINUOUS
 62
               7
100
AcDbLine
 10
6.0
 20
28.04081745177109
 30
0.0
 11
8.6056295938760741
 21
28.04081745177109
 31
0.0
  0
LINE
  5
23F
100
AcDbEntity
  8
0
  6
CONTINUOUS
 62
               7
100
AcDbLine
 10
12.144370406123812
 20
26.79081745177109
 30
0.0
 11
9.8556295938760741
 21
26.79081745177109
 31
0.0
  0
LINE
  5
240
100
AcDbEntity
  8
0
  6
CONTINUOUS
 62
               7
100
AcDbLine
 10
5.9999999999998863
 20
27.600000000000023
 30
0.0
 11
8.3499999999999091
 21
27.600000000000023
 31
0.0
  0
LINE
  5
241
100
AcDbEntity
  8
0
  6
CONTINUOUS
 62
               7
100
AcDbLine
 10
8.3499999999999091
 20
27.600000000000023
 30
0.0
 11
9.5999999999999091
 21
26.350000000000023
 31
0.0
  0
LINE
  5
242
100
AcDbEntity
  8
0
  6
CONTINUOUS
 62
               7
100
AcDbLine
 10
12.399999999999977
 20
26.350000000000023
 30
0.0
 11
9.5999999999999091
 21
26.350000000000023
 31
0.0
  0
LINE
  5
243
100
AcDbEntity
  8
0
  6
CONTINUOUS
 62
               7
100
AcDbLine
 10
7.5
 20
23.899999999999977
 30
0.0
 11
6.0
 21
23.899999999999977
 31
0.0
  0
LINE
  5
244
100
AcDbEntity
  8
0
  6
CONTINUOUS
 62
               7
100
AcDbLine
 10
6.0
 20
27.100000000000023
 30
0.0
 11
7.5
 21
27.100000000000023
 31
0.0
  0
ARC
  5
245
100
AcDbEntity
  8
0
  6
CONTINUOUS
 62
               7
100
AcDbCircle
 10
14.5
 20
25.5
 30
0.0
 40
1.6000000000000001
100
AcDbArc
 50
89.999999999999815
 51
269.99999999999937
  0
ARC
  5
246
100
AcDbEntity
  8
0
  6
CONTINUOUS
 62
               7
100
AcDbCircle
 10
7.5
 20
25.5
 30
0.0
 40
1.6000000000000001
100
AcDbArc
 50
270.00000000000023
 51
89.999999999999801
  0
LINE
  5
247
100
AcDbEntity
  8
0
  6
CENTER
 62
               2
100
AcDbLine
 10
8.5
 20
23.75
 30
0.0
 11
13.5
 21
23.75
 31
0.0
  0
LINE
  5
248
100
AcDbEntity
  8
0
  6
CONTINUOUS
 62
               7
100
AcDbLine
 10
9.1744863736471416
 20
24.049999999999955
 30
0.0
 11
12.825513626352858
 21
24.049999999999955
 31
0.0
  0
LINE
  5
249
100
AcDbEntity
  8
0
  6
CONTINUOUS
 62
               7
100
AcDbLine
 10
11.0
 20
23.449999999999932
 30
0.0
 11
12.825513626352858
 21
23.449999999999932
 31
0.0
  0
ARC
  5
24A
100
AcDbEntity
  8
0
  6
CONTINUOUS
 62
               7
100
AcDbCircle
 10
11.0
 20
23.75
 30
0.0
 40
0.8
100
AcDbArc
 50
202.02431283704175
 51
337.97568716295712
  0
ARC
  5
24B
100
AcDbEntity
  8
0
  6
CONTINUOUS
 62
               7
100
AcDbCircle
 10
11.0
 20
23.75
 30
0.0
 40
0.8
100
AcDbArc
 50
22.024312837042157
 51
157.97568716295754
  0
LINE
  5
24C
100
AcDbEntity
  8
0
  6
CONTINUOUS
 62
               7
100
AcDbLine
 10
9.1744863736471416
 20
23.449999999999932
 30
0.0
 11
11.0
 21
23.449999999999932
 31
0.0
  0
LINE
  5
24D
100
AcDbEntity
  8
0
  6
CONTINUOUS
 62
               7
100
AcDbLine
 10
6.7928932188133331
 20
24.792893218813447
 30
0.0
 11
8.2071067811864395
 21
26.207106781186553
 31
0.0
  0
LINE
  5
24E
100
AcDbEntity
  8
0
  6
CONTINUOUS
 62
               7
100
AcDbLine
 10
6.7928932188133331
 20
26.207106781186553
 30
0.0
 11
8.2071067811864395
 21
24.792893218813447
 31
0.0
  0
CIRCLE
  5
24F
100
AcDbEntity
  8
0
  6
CONTINUOUS
 62
               7
100
AcDbCircle
 10
7.5
 20
25.5
 30
0.0
 40
1.5
  0
LINE
  5
250
100
AcDbEntity
  8
0
  6
CONTINUOUS
 62
               7
100
AcDbLine
 10
16.0
 20
20.098078436969899
 30
0.0
 11
6.0
 21
20.098078436969899
 31
0.0
  0
LINE
  5
251
100
AcDbEntity
  8
0
  6
CONTINUOUS
 62
               7
100
AcDbLine
 10
6.0
 20
20.909182548228841
 30
0.0
 11
16.0
 21
20.909182548228841
 31
0.0
  0
LINE
  5
252
100
AcDbEntity
  8
0
  6
CONTINUOUS
 62
               7
100
AcDbLine
 10
15.699999999999932
 20
19.999999999999886
 30
0.0
 11
6.2999999999999545
 21
19.999999999999886
 31
0.0
  0
LINE
  5
253
100
AcDbEntity
  8
0
  6
CONTINUOUS
 62
               7
100
AcDbLine
 10
6.2999999999999545
 20
19.999999999999886
 30
0.0
 11
6.2999999999999545
 21
14.699999999999932
 31
0.0
  0
LINE
  5
254
100
AcDbEntity
  8
0
  6
CONTINUOUS
 62
               7
100
AcDbLine
 10
6.0
 20
19.499999999999886
 30
0.0
 11
6.2999999999999545
 21
19.499999999999886
 31
0.0
  0
LINE
  5
255
100
AcDbEntity
  8
0
  6
CONTINUOUS
 62
               7
100
AcDbLine
 10
6.0
 20
19.600000000000023
 30
0.0
 11
6.2999999999999545
 21
19.600000000000023
 31
0.0
  0
ARC
  5
256
100
AcDbEntity
  8
0
  6
CONTINUOUS
 62
               7
100
AcDbCircle
 10
15.699999999999932
 20
14.499999999999886
 30
0.0
 40
0.3
100
AcDbArc
 50
269.99999999999937
 51
0.0
  0
LINE
  5
257
100
AcDbEntity
  8
0
  6
CONTINUOUS
 62
               7
100
AcDbLine
 10
6.2999999999999545
 20
14.699999999999932
 30
0.0
 11
7.2999999999999545
 21
14.699999999999932
 31
0.0
  0
LINE
  5
258
100
AcDbEntity
  8
0
  6
CONTINUOUS
 62
               7
100
AcDbLine
 10
8.5
 20
14.199999999999932
 30
0.0
 11
6.2999999999999545
 21
14.199999999999932
 31
0.0
  0
LINE
  5
259
100
AcDbEntity
  8
0
  6
CONTINUOUS
 62
               7
100
AcDbLine
 10
15.699999999999932
 20
19.600000000000023
 30
0.0
 11
16.0
 21
19.600000000000023
 31
0.0
  0
LINE
  5
25A
100
AcDbEntity
  8
0
  6
CONTINUOUS
 62
               7
100
AcDbLine
 10
15.699999999999932
 20
19.499999999999886
 30
0.0
 11
16.0
 21
19.499999999999886
 31
0.0
  0
LINE
  5
25B
100
AcDbEntity
  8
0
  6
CONTINUOUS
 62
               7
100
AcDbLine
 10
8.5
 20
15.199999999999932
 30
0.0
 11
8.0999999999999091
 21
15.199999999999932
 31
0.0
  0
CIRCLE
  5
25C
100
AcDbEntity
  8
0
  6
CONTINUOUS
 62
               7
100
AcDbCircle
 10
8.4599999999999227
 20
17.199999999999932
 30
0.0
 40
0.75
  0
CIRCLE
  5
25D
100
AcDbEntity
  8
0
  6
CONTINUOUS
 62
               7
100
AcDbCircle
 10
13.539999999999964
 20
17.199999999999932
 30
0.0
 40
0.75
  0
LINE
  5
25E
100
AcDbEntity
  8
0
  6
CONTINUOUS
 62
               7
100
AcDbLine
 10
13.5
 20
14.399999999999977
 30
0.0
 11
8.5
 21
14.399999999999977
 31
0.0
  0
LINE
  5
25F
100
AcDbEntity
  8
0
  6
CONTINUOUS
 62
               7
100
AcDbLine
 10
13.50000000057662
 20
13.199999999999932
 30
0.0
 11
8.5000000005766196
 21
13.199999999999932
 31
0.0
  0
LINE
  5
260
100
AcDbEntity
  8
0
  6
CONTINUOUS
 62
               7
100
AcDbLine
 10
14.699999999999932
 20
15.699999999999932
 30
0.0
 11
7.2999999999999545
 21
15.699999999999932
 31
0.0
  0
LINE
  5
261
100
AcDbEntity
  8
0
  6
CONTINUOUS
 62
               7
100
AcDbLine
 10
15.699999999999932
 20
19.999999999999886
 30
0.0
 11
15.699999999999932
 21
14.699999999999932
 31
0.0
  0
LINE
  5
262
100
AcDbEntity
  8
0
  6
CONTINUOUS
 62
               7
100
AcDbLine
 10
14.089999999999918
 20
18.299999999999955
 30
0.0
 11
14.089999999999918
 21
18.799999999999955
 31
0.0
  0
ARC
  5
263
100
AcDbEntity
  8
0
  6
CONTINUOUS
 62
               7
100
AcDbCircle
 10
14.415655892025597
 20
18.099335747194004
 30
0.0
 40
0.2006645478515588
100
AcDbArc
 50
356.76157835491654
 51
89.901746748495754
  0
LINE
  5
264
100
AcDbEntity
  8
0
  6
CONTINUOUS
 62
               7
100
AcDbLine
 10
12.990000000000009
 20
18.299999999999955
 30
0.0
 11
12.990000000000009
 21
18.799999999999955
 31
0.0
  0
ARC
  5
265
100
AcDbEntity
  8
0
  6
CONTINUOUS
 62
               7
100
AcDbCircle
 10
12.665285147361033
 20
18.100334766640458
 30
0.0
 40
0.1996665130331531
100
AcDbArc
 50
89.79486732121282
 51
183.54180757537307
  0
LINE
  5
266
100
AcDbEntity
  8
0
  6
CONTINUOUS
 62
               7
100
AcDbLine
 10
14.490000000000009
 20
16.199999999999932
 30
0.0
 11
12.589999999999918
 21
16.199999999999932
 31
0.0
  0
LINE
  5
267
100
AcDbEntity
  8
0
  6
CONTINUOUS
 62
               7
100
AcDbLine
 10
14.41599999999994
 20
18.299999999999955
 30
0.0
 11
12.66599999999994
 21
18.299999999999955
 31
0.0
  0
LINE
  5
268
100
AcDbEntity
  8
0
  6
CONTINUOUS
 62
               7
100
AcDbLine
 10
14.089999999999918
 20
18.799999999999955
 30
0.0
 11
12.990000000000009
 21
18.799999999999955
 31
0.0
  0
LINE
  5
269
100
AcDbEntity
  8
0
  6
CONTINUOUS
 62
               7
100
AcDbLine
 10
9.75
 20
14.699999999999932
 30
0.0
 11
9.75
 21
15.699999999999932
 31
0.0
  0
LINE
  5
26A
100
AcDbEntity
  8
0
  6
CONTINUOUS
 62
               7
100
AcDbLine
 10
12.25
 20
14.699999999999932
 30
0.0
 11
12.25
 21
15.699999999999932
 31
0.0
  0
LINE
  5
26B
100
AcDbEntity
  8
0
  6
CONTINUOUS
 62
               7
100
AcDbLine
 10
15.699999999999932
 20
14.699999999999932
 30
0.0
 11
14.699999999999932
 21
14.699999999999932
 31
0.0
  0
LINE
  5
26C
100
AcDbEntity
  8
0
  6
CONTINUOUS
 62
               7
100
AcDbLine
 10
14.699999999999932
 20
15.699999999999932
 30
0.0
 11
14.699999999999932
 21
14.699999999999932
 31
0.0
  0
LINE
  5
26D
100
AcDbEntity
  8
0
  6
CONTINUOUS
 62
               7
100
AcDbLine
 10
7.2999999999999545
 20
15.699999999999932
 30
0.0
 11
7.2999999999999545
 21
14.699999999999932
 31
0.0
  0
LINE
  5
26E
100
AcDbEntity
  8
0
  6
CONTINUOUS
 62
               7
100
AcDbLine
 10
12.589999999999918
 20
16.199999999999932
 30
0.0
 11
12.465999999999894
 21
18.087999999999965
 31
0.0
  0
LINE
  5
26F
100
AcDbEntity
  8
0
  6
CONTINUOUS
 62
               7
100
AcDbLine
 10
14.615999999999985
 20
18.087999999999965
 30
0.0
 11
14.490000000000009
 21
16.199999999999932
 31
0.0
  0
LINE
  5
270
100
AcDbEntity
  8
0
  6
CONTINUOUS
 62
               7
100
AcDbLine
 10
11.949999999999932
 20
16.199999999999932
 30
0.0
 11
10.049999999999955
 21
16.199999999999932
 31
0.0
  0
LINE
  5
271
100
AcDbEntity
  8
0
  6
CONTINUOUS
 62
               7
100
AcDbLine
 10
12.075999999999908
 20
18.087999999999965
 30
0.0
 11
11.949999999999932
 21
16.199999999999932
 31
0.0
  0
ARC
  5
272
100
AcDbEntity
  8
0
  6
CONTINUOUS
 62
               7
100
AcDbCircle
 10
11.875655892025634
 20
18.099335747194004
 30
0.0
 40
0.2006645478515588
100
AcDbArc
 50
356.76157835491654
 51
89.901746748495754
  0
LINE
  5
273
100
AcDbEntity
  8
0
  6
CONTINUOUS
 62
               7
100
AcDbLine
 10
11.875999999999976
 20
18.299999999999955
 30
0.0
 11
10.125999999999976
 21
18.299999999999955
 31
0.0
  0
LINE
  5
274
100
AcDbEntity
  8
0
  6
CONTINUOUS
 62
               7
100
AcDbLine
 10
11.549999999999955
 20
18.299999999999955
 30
0.0
 11
11.549999999999955
 21
18.799999999999955
 31
0.0
  0
LINE
  5
275
100
AcDbEntity
  8
0
  6
CONTINUOUS
 62
               7
100
AcDbLine
 10
11.549999999999955
 20
18.799999999999955
 30
0.0
 11
10.449999999999932
 21
18.799999999999955
 31
0.0
  0
LINE
  5
276
100
AcDbEntity
  8
0
  6
CONTINUOUS
 62
               7
100
AcDbLine
 10
10.449999999999932
 20
18.299999999999955
 30
0.0
 11
10.449999999999932
 21
18.799999999999955
 31
0.0
  0
ARC
  5
277
100
AcDbEntity
  8
0
  6
CONTINUOUS
 62
               7
100
AcDbCircle
 10
10.125285147361069
 20
18.100334766640458
 30
0.0
 40
0.1996665130331531
100
AcDbArc
 50
89.79486732121282
 51
183.54180757537307
  0
LINE
  5
278
100
AcDbEntity
  8
0
  6
CONTINUOUS
 62
               7
100
AcDbLine
 10
10.049999999999955
 20
16.199999999999932
 30
0.0
 11
9.9259999999999309
 21
18.087999999999965
 31
0.0
  0
LINE
  5
279
100
AcDbEntity
  8
0
  6
CONTINUOUS
 62
               7
100
AcDbLine
 10
11.399999999999977
 20
16.799999999999955
 30
0.0
 11
11.399999999999977
 21
17.599999999999909
 31
0.0
  0
LINE
  5
27A
100
AcDbEntity
  8
0
  6
CONTINUOUS
 62
               7
100
AcDbLine
 10
10.599999999999909
 20
16.799999999999955
 30
0.0
 11
11.399999999999977
 21
16.799999999999955
 31
0.0
  0
LINE
  5
27B
100
AcDbEntity
  8
0
  6
CONTINUOUS
 62
               7
100
AcDbLine
 10
10.599999999999909
 20
16.799999999999955
 30
0.0
 11
10.599999999999909
 21
17.599999999999909
 31
0.0
  0
LINE
  5
27C
100
AcDbEntity
  8
0
  6
CONTINUOUS
 62
               7
100
AcDbLine
 10
10.599999999999909
 20
17.599999999999909
 30
0.0
 11
11.399999999999977
 21
17.599999999999909
 31
0.0
  0
LINE
  5
27D
100
AcDbEntity
  8
0
  6
CONTINUOUS
 62
               7
100
AcDbLine
 10
9.4099999999999682
 20
16.199999999999932
 30
0.0
 11
7.5099999999999909
 21
16.199999999999932
 31
0.0
  0
LINE
  5
27E
100
AcDbEntity
  8
0
  6
CONTINUOUS
 62
               7
100
AcDbLine
 10
9.5359999999999445
 20
18.087999999999965
 30
0.0
 11
9.4099999999999682
 21
16.199999999999932
 31
0.0
  0
ARC
  5
27F
100
AcDbEntity
  8
0
  6
CONTINUOUS
 62
               7
100
AcDbCircle
 10
9.3356558920256703
 20
18.099335747194004
 30
0.0
 40
0.2006645478515588
100
AcDbArc
 50
356.76157835491654
 51
89.901746748495754
  0
LINE
  5
280
100
AcDbEntity
  8
0
  6
CONTINUOUS
 62
               7
100
AcDbLine
 10
9.335999999999899
 20
18.299999999999955
 30
0.0
 11
7.585999999999899
 21
18.299999999999955
 31
0.0
  0
LINE
  5
281
100
AcDbEntity
  8
0
  6
CONTINUOUS
 62
               7
100
AcDbLine
 10
9.0099999999999909
 20
18.299999999999955
 30
0.0
 11
9.0099999999999909
 21
18.799999999999955
 31
0.0
  0
LINE
  5
282
100
AcDbEntity
  8
0
  6
CONTINUOUS
 62
               7
100
AcDbLine
 10
9.0099999999999909
 20
18.799999999999955
 30
0.0
 11
7.9099999999999682
 21
18.799999999999955
 31
0.0
  0
LINE
  5
283
100
AcDbEntity
  8
0
  6
CONTINUOUS
 62
               7
100
AcDbLine
 10
7.9099999999999682
 20
18.299999999999955
 30
0.0
 11
7.9099999999999682
 21
18.799999999999955
 31
0.0
  0
ARC
  5
284
100
AcDbEntity
  8
0
  6
CONTINUOUS
 62
               7
100
AcDbCircle
 10
7.5852851473609917
 20
18.100334766640458
 30
0.0
 40
0.1996665130331531
100
AcDbArc
 50
89.79486732121282
 51
183.54180757537307
  0
LINE
  5
285
100
AcDbEntity
  8
0
  6
CONTINUOUS
 62
               7
100
AcDbLine
 10
7.5099999999999909
 20
16.199999999999932
 30
0.0
 11
7.3859999999999673
 21
18.087999999999965
 31
0.0
  0
LINE
  5
286
100
AcDbEntity
  8
0
  6
CONTINUOUS
 62
               7
100
AcDbLine
 10
13.5
 20
13.199999999999932
 30
0.0
 11
13.5
 21
15.699999999999932
 31
0.0
  0
LINE
  5
287
100
AcDbEntity
  8
0
  6
CONTINUOUS
 62
               7
100
AcDbLine
 10
8.5
 20
13.199999999999932
 30
0.0
 11
8.5
 21
15.699999999999932
 31
0.0
  0
LINE
  5
288
100
AcDbEntity
  8
0
  6
CONTINUOUS
 62
               7
100
AcDbLine
 10
13.899999999999977
 20
14.699999999999932
 30
0.0
 11
8.0999999999999091
 21
14.699999999999932
 31
0.0
  0
LINE
  5
289
100
AcDbEntity
  8
0
  6
CONTINUOUS
 62
               7
100
AcDbLine
 10
8.0999999999999091
 20
15.199999999999932
 30
0.0
 11
8.0999999999999091
 21
14.199999999999932
 31
0.0
  0
LINE
  5
28A
100
AcDbEntity
  8
0
  6
CONTINUOUS
 62
               7
100
AcDbLine
 10
13.899999999999977
 20
15.199999999999932
 30
0.0
 11
13.899999999999977
 21
14.199999999999932
 31
0.0
  0
LINE
  5
28B
100
AcDbEntity
  8
0
  6
CONTINUOUS
 62
               7
100
AcDbLine
 10
13.899999999999977
 20
15.199999999999932
 30
0.0
 11
13.5
 21
15.199999999999932
 31
0.0
  0
LINE
  5
28C
100
AcDbEntity
  8
0
  6
CONTINUOUS
 62
               7
100
AcDbLine
 10
15.699999999999932
 20
14.199999999999932
 30
0.0
 11
13.5
 21
14.199999999999932
 31
0.0
  0
LINE
  5
28D
100
AcDbEntity
  8
0
  6
CONTINUOUS
 62
               7
100
AcDbLine
 10
12.5
 20
7.0
 30
0.0
 11
12.5
 21
2.0
 31
0.0
  0
LINE
  5
28E
100
AcDbEntity
  8
0
  6
CONTINUOUS
 62
               7
100
AcDbLine
 10
9.5
 20
7.0
 30
0.0
 11
9.5
 21
2.0
 31
0.0
  0
LINE
  5
28F
100
AcDbEntity
  8
0
  6
CONTINUOUS
 62
               7
100
AcDbLine
 10
12.5
 20
7.0
 30
0.0
 11
9.5
 21
7.0
 31
0.0
  0
LINE
  5
290
100
AcDbEntity
  8
0
  6
CONTINUOUS
 62
               7
100
AcDbLine
 10
6.0
 20
2.0
 30
0.0
 11
16.0
 21
2.0
 31
0.0
  0
ENDBLK
  5
291
100
AcDbEntity
  8
0
100
AcDbBlockEnd
  0
BLOCK
  5
292
100
AcDbEntity
  8
0
100
AcDbBlockBegin
  2
MV090-05-F-5
 70
               0
 10
0.0
 20
0.0
 30
0.0
  3
MV090-05-F-5
  1

  0
LINE
  5
293
100
AcDbEntity
  8
0
  6
CENTER
 62
             200
100
AcDbLine
 10
10.0
 20
-1.6999999999999886
 30
0.0
 11
10.0
 21
3.3000000000000114
 31
0.0
  0
LINE
  5
294
100
AcDbEntity
  8
0
  6
CENTER
 62
             200
100
AcDbLine
 10
0.0
 20
-1.6999999999999886
 30
0.0
 11
0.0
 21
3.3000000000000114
 31
0.0
  0
CIRCLE
  5
295
100
AcDbEntity
  8
0
  6
CONTINUOUS
 62
               4
100
AcDbCircle
 10
16.5
 20
6.0
 30
0.0
 40
1.9999999999999996
  0
LINE
  5
296
100
AcDbEntity
  8
0
  6
CONTINUOUS
 62
               4
100
AcDbLine
 10
15.5
 20
5.4226496815681458
 30
0.0
 11
15.5
 21
6.5773502588272095
 31
0.0
  0
LINE
  5
297
100
AcDbEntity
  8
0
  6
CONTINUOUS
 62
               4
100
AcDbLine
 10
17.5
 20
5.4226497411727905
 30
0.0
 11
17.5
 21
6.5773502588272095
 31
0.0
  0
LINE
  5
298
100
AcDbEntity
  8
0
  6
CONTINUOUS
 62
               4
100
AcDbLine
 10
17.499999956111253
 20
6.5773502886295319
 30
0.0
 11
16.499999985913576
 21
7.1547005474567413
 31
0.0
  0
LINE
  5
299
100
AcDbEntity
  8
0
  6
CONTINUOUS
 62
               4
100
AcDbLine
 10
16.499999956111253
 20
4.8452994525432587
 30
0.0
 11
15.499999985913576
 21
5.4226497113704681
 31
0.0
  0
LINE
  5
29A
100
AcDbEntity
  8
0
  6
CONTINUOUS
 62
               4
100
AcDbLine
 10
16.499999956111253
 20
7.1547005176544189
 30
0.0
 11
15.5
 21
6.5773502738039724
 31
0.0
  0
LINE
  5
29B
100
AcDbEntity
  8
0
  6
CONTINUOUS
 62
               4
100
AcDbLine
 10
17.499999956111253
 20
5.4226497411727905
 30
0.0
 11
16.499999943090586
 21
4.8452994644656826
 31
0.0
  0
CIRCLE
  5
29C
100
AcDbEntity
  8
0
  6
CONTINUOUS
 62
               4
100
AcDbCircle
 10
16.5
 20
6.0
 30
0.0
 40
2.25
  0
CIRCLE
  5
29D
100
AcDbEntity
  8
0
  6
CONTINUOUS
 62
               4
100
AcDbCircle
 10
16.5
 20
19.0
 30
0.0
 40
1.9999999999999996
  0
LINE
  5
29E
100
AcDbEntity
  8
0
  6
CONTINUOUS
 62
               4
100
AcDbLine
 10
15.5
 20
18.422649681568146
 30
0.0
 11
15.5
 21
19.577350258827209
 31
0.0
  0
LINE
  5
29F
100
AcDbEntity
  8
0
  6
CONTINUOUS
 62
               4
100
AcDbLine
 10
17.5
 20
18.422649741172791
 30
0.0
 11
17.5
 21
19.577350258827209
 31
0.0
  0
LINE
  5
2A0
100
AcDbEntity
  8
0
  6
CONTINUOUS
 62
               4
100
AcDbLine
 10
17.499999956111253
 20
19.577350288629532
 30
0.0
 11
16.499999985913576
 21
20.154700547456741
 31
0.0
  0
LINE
  5
2A1
100
AcDbEntity
  8
0
  6
CONTINUOUS
 62
               4
100
AcDbLine
 10
16.499999956111253
 20
17.845299452543259
 30
0.0
 11
15.499999985913576
 21
18.422649711370468
 31
0.0
  0
LINE
  5
2A2
100
AcDbEntity
  8
0
  6
CONTINUOUS
 62
               4
100
AcDbLine
 10
16.499999956111253
 20
20.154700517654419
 30
0.0
 11
15.5
 21
19.577350273803972
 31
0.0
  0
LINE
  5
2A3
100
AcDbEntity
  8
0
  6
CONTINUOUS
 62
               4
100
AcDbLine
 10
17.499999956111253
 20
18.422649741172791
 30
0.0
 11
16.499999943090586
 21
17.845299464465683
 31
0.0
  0
CIRCLE
  5
2A4
100
AcDbEntity
  8
0
  6
CONTINUOUS
 62
               4
100
AcDbCircle
 10
16.5
 20
19.0
 30
0.0
 40
2.25
  0
LINE
  5
2A5
100
AcDbEntity
  8
0
  6
CENTER
 62
             200
100
AcDbLine
 10
13.971124524314888
 20
6.0
 30
0.0
 11
19.0
 21
6.0
 31
0.0
  0
LINE
  5
2A6
100
AcDbEntity
  8
0
  6
CENTER
 62
             200
100
AcDbLine
 10
16.5
 20
3.5
 30
0.0
 11
16.5
 21
8.5
 31
0.0
  0
ARC
  5
2A7
100
AcDbEntity
  8
0
  6
CONTINUOUS
 62
               4
100
AcDbCircle
 10
16.5
 20
19.0
 30
0.0
 40
4.0
100
AcDbArc
 50
0.0
 51
179.99999999999963
  0
LINE
  5
2A8
100
AcDbEntity
  8
0
  6
CONTINUOUS
 62
               4
100
AcDbLine
 10
20.5
 20
19.0
 30
0.0
 11
20.5
 21
0.5
 31
0.0
  0
LINE
  5
2A9
100
AcDbEntity
  8
0
  6
CONTINUOUS
 62
               4
100
AcDbLine
 10
12.5
 20
19.0
 30
0.0
 11
12.5
 21
1.5999999999999943
 31
0.0
  0
LINE
  5
2AA
100
AcDbEntity
  8
0
  6
CONTINUOUS
 62
               4
100
AcDbLine
 10
20.0
 20
0.0
 30
0.0
 11
-4.0
 21
0.0
 31
0.0
  0
LINE
  5
2AB
100
AcDbEntity
  8
0
  6
CONTINUOUS
 62
               4
100
AcDbLine
 10
20.5
 20
1.5999999999999943
 30
0.0
 11
-4.0
 21
1.5999999999999943
 31
0.0
  0
LINE
  5
2AC
100
AcDbEntity
  8
0
  6
CONTINUOUS
 62
               4
100
AcDbLine
 10
-4.5
 20
1.0999999999999943
 30
0.0
 11
-4.5
 21
0.5
 31
0.0
  0
ARC
  5
2AD
100
AcDbEntity
  8
0
  6
CONTINUOUS
 62
               4
100
AcDbCircle
 10
20.0
 20
0.5
 30
0.0
 40
0.5
100
AcDbArc
 50
270.00000000000023
 51
0.0
  0
ARC
  5
2AE
100
AcDbEntity
  8
0
  6
CONTINUOUS
 62
               4
100
AcDbCircle
 10
-4.0
 20
0.5
 30
0.0
 40
0.5
100
AcDbArc
 50
179.99999999999963
 51
269.99999999999937
  0
ARC
  5
2AF
100
AcDbEntity
  8
0
  6
CONTINUOUS
 62
               4
100
AcDbCircle
 10
-4.0
 20
1.0999999999999943
 30
0.0
 40
0.5
100
AcDbArc
 50
89.999999999999815
 51
179.99999999999963
  0
LINE
  5
2B0
100
AcDbEntity
  8
0
  6
CENTER
 62
             200
100
AcDbLine
 10
13.971124524314888
 20
16.0
 30
0.0
 11
19.0
 21
16.0
 31
0.0
  0
LINE
  5
2B1
100
AcDbEntity
  8
0
  6
CONTINUOUS
 62
               4
100
AcDbLine
 10
15.099999999999994
 20
16.0
 30
0.0
 11
15.099999999999994
 21
17.238608504619151
 31
0.0
  0
LINE
  5
2B2
100
AcDbEntity
  8
0
  6
CONTINUOUS
 62
               4
100
AcDbLine
 10
17.900000000000006
 20
16.0
 30
0.0
 11
17.900000000000006
 21
17.238608504619151
 31
0.0
  0
ARC
  5
2B3
100
AcDbEntity
  8
0
  6
CONTINUOUS
 62
               4
100
AcDbCircle
 10
16.5
 20
16.0
 30
0.0
 40
1.3999999999999999
100
AcDbArc
 50
179.99999999999963
 51
0.0
  0
LINE
  5
2B4
100
AcDbEntity
  8
0
  6
CENTER
 62
             200
100
AcDbLine
 10
16.5
 20
13.557409686750987
 30
0.0
 11
16.5
 21
21.5
 31
0.0
  0
LINE
  5
2B5
100
AcDbEntity
  8
0
  6
CENTER
 62
             200
100
AcDbLine
 10
13.971124524314888
 20
19.0
 30
0.0
 11
19.0
 21
19.0
 31
0.0
  0
LINE
  5
2B6
100
AcDbEntity
  8
0
  6
CONTINUOUS
 62
               7
100
AcDbLine
 10
28.0
 20
67.000000000000057
 30
0.0
 11
29.0
 21
67.000000000000057
 31
0.0
  0
LINE
  5
2B7
100
AcDbEntity
  8
0
  6
CONTINUOUS
 62
               7
100
AcDbLine
 10
28.0
 20
68.000000000000057
 30
0.0
 11
28.0
 21
67.000000000000057
 31
0.0
  0
LINE
  5
2B8
100
AcDbEntity
  8
0
  6
CONTINUOUS
 62
               7
100
AcDbLine
 10
29.0
 20
68.000000000000057
 30
0.0
 11
29.0
 21
67.000000000000057
 31
0.0
  0
LINE
  5
2B9
100
AcDbEntity
  8
0
  6
CONTINUOUS
 62
               7
100
AcDbLine
 10
31.949999999999989
 20
68.000000000000057
 30
0.0
 11
29.0
 21
68.000000000000057
 31
0.0
  0
LINE
  5
2BA
100
AcDbEntity
  8
0
  6
CONTINUOUS
 62
               7
100
AcDbLine
 10
28.0
 20
68.000000000000057
 30
0.0
 11
25.050000000000011
 21
68.000000000000057
 31
0.0
  0
ARC
  5
2BB
100
AcDbEntity
  8
0
  6
CONTINUOUS
 62
               7
100
AcDbCircle
 10
42.599999999999994
 20
44.500000000000057
 30
0.0
 40
0.5
100
AcDbArc
 50
270.00000000000023
 51
0.0
  0
ARC
  5
2BC
100
AcDbEntity
  8
0
  6
CONTINUOUS
 62
               7
100
AcDbCircle
 10
42.599999999999994
 20
46.500000000000057
 30
0.0
 40
0.5
100
AcDbArc
 50
0.0
 51
89.999999999999815
  0
LINE
  5
2BD
100
AcDbEntity
  8
0
  6
CONTINUOUS
 62
               7
100
AcDbLine
 10
43.099999999999994
 20
44.500000000000057
 30
0.0
 11
43.099999999999994
 21
46.500000000000057
 31
0.0
  0
LINE
  5
2BE
100
AcDbEntity
  8
0
  6
CONTINUOUS
 62
               7
100
AcDbLine
 10
42.599999999999994
 20
47.000000000000057
 30
0.0
 11
42.5
 21
47.000000000000057
 31
0.0
  0
LINE
  5
2BF
100
AcDbEntity
  8
0
  6
CONTINUOUS
 62
               7
100
AcDbLine
 10
42.599999999999994
 20
44.000000000000057
 30
0.0
 11
42.5
 21
44.000000000000057
 31
0.0
  0
LINE
  5
2C0
100
AcDbEntity
  8
0
  6
CONTINUOUS
 62
               7
100
AcDbLine
 10
42.5
 20
47.100000000000051
 30
0.0
 11
42.5
 21
43.900000000000063
 31
0.0
  0
LINE
  5
2C1
100
AcDbEntity
  8
0
  6
CONTINUOUS
 62
               7
100
AcDbLine
 10
44.5
 20
43.900000000000063
 30
0.0
 11
42.5
 21
43.900000000000063
 31
0.0
  0
LINE
  5
2C2
100
AcDbEntity
  8
0
  6
CONTINUOUS
 62
               7
100
AcDbLine
 10
44.5
 20
47.100000000000051
 30
0.0
 11
42.5
 21
47.100000000000051
 31
0.0
  0
LINE
  5
2C3
100
AcDbEntity
  8
0
  6
CONTINUOUS
 62
               7
100
AcDbLine
 10
44.5
 20
37.000000000000057
 30
0.0
 11
44.5
 21
50.500000000000057
 31
0.0
  0
LINE
  5
2C4
100
AcDbEntity
  8
0
  6
CONTINUOUS
 62
               7
100
AcDbLine
 10
40.5
 20
50.500000000000057
 30
0.0
 11
44.5
 21
50.500000000000057
 31
0.0
  0
LINE
  5
2C5
100
AcDbEntity
  8
0
  6
CONTINUOUS
 62
               7
100
AcDbLine
 10
40.5
 20
37.000000000000057
 30
0.0
 11
44.5
 21
37.000000000000057
 31
0.0
  0
LINE
  5
2C6
100
AcDbEntity
  8
0
  6
CONTINUOUS
 62
               7
100
AcDbLine
 10
45.5
 20
68.5
 30
0.0
 11
45.5
 21
68.0
 31
0.0
  0
LINE
  5
2C7
100
AcDbEntity
  8
0
  6
CONTINUOUS
 62
               7
100
AcDbLine
 10
60.100000000000023
 20
19.500000000000057
 30
0.0
 11
54.199999999999989
 21
19.500000000000057
 31
0.0
  0
LINE
  5
2C8
100
AcDbEntity
  8
0
  6
CONTINUOUS
 62
               7
100
AcDbLine
 10
26.75
 20
53.500000000000057
 30
0.0
 11
26.75
 21
56.200000000000045
 31
0.0
  0
LINE
  5
2C9
100
AcDbEntity
  8
0
  6
CONTINUOUS
 62
               7
100
AcDbLine
 10
33.25
 20
56.200000000000045
 30
0.0
 11
32.75
 21
56.700000000000045
 31
0.0
  0
LINE
  5
2CA
100
AcDbEntity
  8
0
  6
CONTINUOUS
 62
               7
100
AcDbLine
 10
32.75
 20
56.700000000000045
 30
0.0
 11
27.25
 21
56.700000000000045
 31
0.0
  0
LINE
  5
2CB
100
AcDbEntity
  8
0
  6
CONTINUOUS
 62
               7
100
AcDbLine
 10
26.75
 20
56.200000000000045
 30
0.0
 11
33.25
 21
56.200000000000045
 31
0.0
  0
LINE
  5
2CC
100
AcDbEntity
  8
0
  6
CONTINUOUS
 62
               7
100
AcDbLine
 10
26.75
 20
56.200000000000045
 30
0.0
 11
27.25
 21
56.700000000000045
 31
0.0
  0
LINE
  5
2CD
100
AcDbEntity
  8
0
  6
CONTINUOUS
 62
               7
100
AcDbLine
 10
33.25
 20
53.500000000000057
 30
0.0
 11
33.25
 21
56.200000000000045
 31
0.0
  0
LINE
  5
2CE
100
AcDbEntity
  8
0
  6
CENTER
 62
               2
100
AcDbLine
 10
30.0
 20
57.266310481853253
 30
0.0
 11
30.0
 21
52.985716831808332
 31
0.0
  0
LINE
  5
2CF
100
AcDbEntity
  8
0
  6
CONTINUOUS
 62
               7
100
AcDbLine
 10
12.800000000000011
 20
46.800000000000011
 30
0.0
 11
12.800000000000011
 21
45.200000000000017
 31
0.0
  0
LINE
  5
2D0
100
AcDbEntity
  8
0
  6
CONTINUOUS
 62
               7
100
AcDbLine
 10
51.300000000000011
 20
33.300000000000068
 30
0.0
 11
43.699999999999989
 21
33.300000000000068
 31
0.0
  0
LINE
  5
2D1
100
AcDbEntity
  8
0
  6
CONTINUOUS
 62
               7
100
AcDbLine
 10
51.300000000000011
 20
32.500000000000057
 30
0.0
 11
43.699999999999989
 21
32.500000000000057
 31
0.0
  0
LINE
  5
2D2
100
AcDbEntity
  8
0
  6
CONTINUOUS
 62
               7
100
AcDbLine
 10
51.300000000000011
 20
32.500000000000057
 30
0.0
 11
51.300000000000011
 21
33.300000000000068
 31
0.0
  0
LINE
  5
2D3
100
AcDbEntity
  8
0
  6
CONTINUOUS
 62
               7
100
AcDbLine
 10
43.699999999999989
 20
33.300000000000068
 30
0.0
 11
43.699999999999989
 21
32.500000000000057
 31
0.0
  0
LINE
  5
2D4
100
AcDbEntity
  8
0
  6
CONTINUOUS
 62
               7
100
AcDbLine
 10
40.5
 20
34.000000000000057
 30
0.0
 11
52.0
 21
34.000000000000057
 31
0.0
  0
LINE
  5
2D5
100
AcDbEntity
  8
0
  6
CONTINUOUS
 62
               7
100
AcDbLine
 10
40.5
 20
2.0000000000000568
 30
0.0
 11
41.400000000000034
 21
2.0000000000000568
 31
0.0
  0
LINE
  5
2D6
100
AcDbEntity
  8
0
  6
CONTINUOUS
 62
               7
100
AcDbLine
 10
52.0
 20
34.000000000000057
 30
0.0
 11
52.0
 21
28.217144432479699
 31
0.0
  0
LINE
  5
2D7
100
AcDbEntity
  8
0
  6
CONTINUOUS
 62
               7
100
AcDbLine
 10
52.0
 20
28.217144432479699
 30
0.0
 11
55.5
 21
27.60000000000008
 31
0.0
  0
LINE
  5
2D8
100
AcDbEntity
  8
0
  6
CONTINUOUS
 62
               7
100
AcDbLine
 10
54.199999999999989
 20
3.5000000000000568
 30
0.0
 11
41.699999999999989
 21
3.5000000000000568
 31
0.0
  0
LINE
  5
2D9
100
AcDbEntity
  8
0
  6
CONTINUOUS
 62
               7
100
AcDbLine
 10
41.400000000000034
 20
2.0000000000000568
 30
0.0
 11
41.699999999999989
 21
2.3000000000000682
 31
0.0
  0
LINE
  5
2DA
100
AcDbEntity
  8
0
  6
CONTINUOUS
 62
               7
100
AcDbLine
 10
59.5
 20
19.500000000000057
 30
0.0
 11
59.5
 21
19.600000000000051
 31
0.0
  0
LINE
  5
2DB
100
AcDbEntity
  8
0
  6
CONTINUOUS
 62
               7
100
AcDbLine
 10
60.099999999999966
 20
20.098078436969956
 30
0.0
 11
60.099999999999966
 21
19.600000000000051
 31
0.0
  0
LINE
  5
2DC
100
AcDbEntity
  8
0
  6
CONTINUOUS
 62
               7
100
AcDbLine
 10
55.5
 20
20.909182548228898
 30
0.0
 11
60.099999999999966
 21
20.098078436969956
 31
0.0
  0
LINE
  5
2DD
100
AcDbEntity
  8
0
  6
CONTINUOUS
 62
               7
100
AcDbLine
 10
54.199999999999989
 20
19.600000000000051
 30
0.0
 11
60.099999999999966
 21
19.600000000000051
 31
0.0
  0
LINE
  5
2DE
100
AcDbEntity
  8
0
  6
CONTINUOUS
 62
               7
100
AcDbLine
 10
55.5
 20
27.60000000000008
 30
0.0
 11
55.5
 21
20.909182548228898
 31
0.0
  0
LINE
  5
2DF
100
AcDbEntity
  8
0
  6
CONTINUOUS
 62
               7
100
AcDbLine
 10
41.699999999999989
 20
2.0000000000000568
 30
0.0
 11
41.699999999999989
 21
3.5000000000000568
 31
0.0
  0
LINE
  5
2E0
100
AcDbEntity
  8
0
  6
CONTINUOUS
 62
               7
100
AcDbLine
 10
54.199999999999989
 20
3.5000000000000568
 30
0.0
 11
54.199999999999989
 21
19.600000000000051
 31
0.0
  0
LINE
  5
2E1
100
AcDbEntity
  8
0
  6
CONTINUOUS
 62
               7
100
AcDbLine
 10
41.699999999999989
 20
2.0000000000000568
 30
0.0
 11
60.5
 21
2.0000000000000568
 31
0.0
  0
ARC
  5
2E2
100
AcDbEntity
  8
0
  6
CONTINUOUS
 62
               7
100
AcDbCircle
 10
59.800000000000011
 20
2.3000000000000682
 30
0.0
 40
0.3
100
AcDbArc
 50
270.00000000000023
 51
0.0
  0
LINE
  5
2E3
100
AcDbEntity
  8
0
  6
CONTINUOUS
 62
               7
100
AcDbLine
 10
54.5
 20
27.100000000000051
 30
0.0
 11
54.5
 21
23.900000000000034
 31
0.0
  0
LINE
  5
2E4
100
AcDbEntity
  8
0
  6
CONTINUOUS
 62
               7
100
AcDbLine
 10
55.5
 20
23.900000000000034
 30
0.0
 11
54.5
 21
23.900000000000034
 31
0.0
  0
LINE
  5
2E5
100
AcDbEntity
  8
0
  6
CONTINUOUS
 62
               7
100
AcDbLine
 10
55.5
 20
27.100000000000051
 30
0.0
 11
54.5
 21
27.100000000000051
 31
0.0
  0
LINE
  5
2E6
100
AcDbEntity
  8
0
  6
CONTINUOUS
 62
               7
100
AcDbLine
 10
54.599999999999966
 20
27.000000000000057
 30
0.0
 11
54.5
 21
27.000000000000057
 31
0.0
  0
LINE
  5
2E7
100
AcDbEntity
  8
0
  6
CONTINUOUS
 62
               7
100
AcDbLine
 10
54.599999999999966
 20
24.000000000000057
 30
0.0
 11
54.5
 21
24.000000000000057
 31
0.0
  0
LINE
  5
2E8
100
AcDbEntity
  8
0
  6
CONTINUOUS
 62
               7
100
AcDbLine
 10
55.099999999999966
 20
26.500000000000057
 30
0.0
 11
55.099999999999966
 21
24.500000000000057
 31
0.0
  0
ARC
  5
2E9
100
AcDbEntity
  8
0
  6
CONTINUOUS
 62
               7
100
AcDbCircle
 10
54.599999999999966
 20
24.500000000000057
 30
0.0
 40
0.5
100
AcDbArc
 50
269.99999999999937
 51
0.0
  0
ARC
  5
2EA
100
AcDbEntity
  8
0
  6
CONTINUOUS
 62
               7
100
AcDbCircle
 10
54.599999999999966
 20
26.500000000000057
 30
0.0
 40
0.5
100
AcDbArc
 50
0.0
 51
89.999999999999815
  0
LINE
  5
2EB
100
AcDbEntity
  8
0
  6
CONTINUOUS
 62
               7
100
AcDbLine
 10
60.099999999999966
 20
14.200000000000045
 30
0.0
 11
60.099999999999966
 21
2.3000000000000682
 31
0.0
  0
LINE
  5
2EC
100
AcDbEntity
  8
0
  6
CONTINUOUS
 62
               7
100
AcDbLine
 10
40.5
 20
2.0000000000000568
 30
0.0
 11
40.5
 21
53.500000000000057
 31
0.0
  0
LINE
  5
2ED
100
AcDbEntity
  8
0
  6
CONTINUOUS
 62
               7
100
AcDbLine
 10
26.5
 20
53.500000000000057
 30
0.0
 11
26.5
 21
2.0
 31
0.0
  0
LINE
  5
2EE
100
AcDbEntity
  8
0
  6
CONTINUOUS
 62
               7
100
AcDbLine
 10
40.5
 20
2.0
 30
0.0
 11
20.5
 21
2.0
 31
0.0
  0
LINE
  5
2EF
100
AcDbEntity
  8
0
  6
CENTER
 62
               2
100
AcDbLine
 10
14.289663566097886
 20
46.0
 30
0.0
 11
11.66893677786635
 21
46.0
 31
0.0
  0
LINE
  5
2F0
100
AcDbEntity
  8
0
  6
CONTINUOUS
 62
               7
100
AcDbLine
 10
13.5
 20
46.800000000000011
 30
0.0
 11
13.5
 21
45.200000000000017
 31
0.0
  0
LINE
  5
2F1
100
AcDbEntity
  8
0
  6
CONTINUOUS
 62
               7
100
AcDbLine
 10
12.5
 20
46.800000000000011
 30
0.0
 11
13.5
 21
46.800000000000011
 31
0.0
  0
LINE
  5
2F2
100
AcDbEntity
  8
0
  6
CONTINUOUS
 62
               7
100
AcDbLine
 10
12.5
 20
45.200000000000017
 30
0.0
 11
13.5
 21
45.200000000000017
 31
0.0
  0
LINE
  5
2F3
100
AcDbEntity
  8
0
  6
CONTINUOUS
 62
               7
100
AcDbLine
 10
12.5
 20
60.000000000000114
 30
0.0
 11
12.5
 21
19.0
 31
0.0
  0
LINE
  5
2F4
100
AcDbEntity
  8
0
  6
CONTINUOUS
 62
               7
100
AcDbLine
 10
35.5
 20
60.000000000000114
 30
0.0
 11
12.5
 21
60.000000000000114
 31
0.0
  0
LINE
  5
2F5
100
AcDbEntity
  8
0
  6
CONTINUOUS
 62
               7
100
AcDbLine
 10
23.550000000000011
 20
60.300000000000068
 30
0.0
 11
23.550000000000011
 21
66.500000000000057
 31
0.0
  0
LINE
  5
2F6
100
AcDbEntity
  8
0
  6
CONTINUOUS
 62
               7
100
AcDbLine
 10
33.450000000000045
 20
60.300000000000068
 30
0.0
 11
33.450000000000045
 21
66.500000000000057
 31
0.0
  0
LINE
  5
2F7
100
AcDbEntity
  8
0
  6
CONTINUOUS
 62
               7
100
AcDbLine
 10
23.550000000000011
 20
60.300000000000068
 30
0.0
 11
23.850000000000023
 21
60.000000000000057
 31
0.0
  0
LINE
  5
2F8
100
AcDbEntity
  8
0
  6
CONTINUOUS
 62
               7
100
AcDbLine
 10
33.450000000000045
 20
60.300000000000068
 30
0.0
 11
33.150000000000034
 21
60.000000000000057
 31
0.0
  0
ARC
  5
2F9
100
AcDbEntity
  8
0
  6
CONTINUOUS
 62
               7
100
AcDbCircle
 10
25.050000000000011
 20
66.500000000000057
 30
0.0
 40
1.5
100
AcDbArc
 50
89.999999999999815
 51
179.99999999999963
  0
ARC
  5
2FA
100
AcDbEntity
  8
0
  6
CONTINUOUS
 62
               7
100
AcDbCircle
 10
31.950000000000045
 20
66.500000000000057
 30
0.0
 40
1.5
100
AcDbArc
 50
0.0
 51
89.999999999999815
  0
LINE
  5
2FB
100
AcDbEntity
  8
0
  6
CONTINUOUS
 62
               7
100
AcDbLine
 10
39.5
 20
68.0
 30
0.0
 11
39.5
 21
68.5
 31
0.0
  0
LINE
  5
2FC
100
AcDbEntity
  8
0
  6
CONTINUOUS
 62
               7
100
AcDbLine
 10
45.5
 20
68.5
 30
0.0
 11
39.5
 21
68.5
 31
0.0
  0
LINE
  5
2FD
100
AcDbEntity
  8
0
  6
CONTINUOUS
 62
               7
100
AcDbLine
 10
44.399999999999977
 20
88.5
 30
0.0
 11
44.399999999999977
 21
93.5
 31
0.0
  0
LINE
  5
2FE
100
AcDbEntity
  8
0
  6
CONTINUOUS
 62
               7
100
AcDbLine
 10
43.600000000000023
 20
88.5
 30
0.0
 11
43.600000000000023
 21
93.5
 31
0.0
  0
LINE
  5
2FF
100
AcDbEntity
  8
0
  6
CONTINUOUS
 62
               7
100
AcDbLine
 10
43.399999999999977
 20
88.5
 30
0.0
 11
43.399999999999977
 21
93.5
 31
0.0
  0
LINE
  5
300
100
AcDbEntity
  8
0
  6
CONTINUOUS
 62
               7
100
AcDbLine
 10
42.600000000000023
 20
88.5
 30
0.0
 11
42.600000000000023
 21
93.5
 31
0.0
  0
LINE
  5
301
100
AcDbEntity
  8
0
  6
CONTINUOUS
 62
               7
100
AcDbLine
 10
42.399999999999977
 20
88.5
 30
0.0
 11
42.399999999999977
 21
93.5
 31
0.0
  0
LINE
  5
302
100
AcDbEntity
  8
0
  6
CONTINUOUS
 62
               7
100
AcDbLine
 10
41.600000000000023
 20
88.5
 30
0.0
 11
41.600000000000023
 21
93.5
 31
0.0
  0
LINE
  5
303
100
AcDbEntity
  8
0
  6
CONTINUOUS
 62
               7
100
AcDbLine
 10
41.399999999999977
 20
88.5
 30
0.0
 11
41.399999999999977
 21
93.5
 31
0.0
  0
LINE
  5
304
100
AcDbEntity
  8
0
  6
CONTINUOUS
 62
               7
100
AcDbLine
 10
40.600000000000023
 20
88.5
 30
0.0
 11
40.600000000000023
 21
93.5
 31
0.0
  0
LINE
  5
305
100
AcDbEntity
  8
0
  6
CONTINUOUS
 62
               7
100
AcDbLine
 10
45.0
 20
84.934434807572018
 30
0.0
 11
45.0
 21
81.162488506212867
 31
0.0
  0
LINE
  5
306
100
AcDbEntity
  8
0
  6
CONTINUOUS
 62
               7
100
AcDbLine
 10
40.0
 20
84.934434807572018
 30
0.0
 11
40.0
 21
79.270596614320993
 31
0.0
  0
LINE
  5
307
100
AcDbEntity
  8
0
  6
CONTINUOUS
 62
               2
100
AcDbLine
 10
46.251918174814818
 20
80.636187275061729
 30
0.0
 11
38.531316701234573
 21
77.714878609382708
 31
0.0
  0
LINE
  5
308
100
AcDbEntity
  8
0
  6
CONTINUOUS
 62
               2
100
AcDbLine
 10
46.251918174814818
 20
81.636187275061729
 30
0.0
 11
38.531316701234573
 21
78.714878609382708
 31
0.0
  0
LINE
  5
309
100
AcDbEntity
  8
0
  6
CONTINUOUS
 62
               7
100
AcDbLine
 10
45.0
 20
84.934434807572018
 30
0.0
 11
40.0
 21
84.934434807572018
 31
0.0
  0
LINE
  5
30A
100
AcDbEntity
  8
0
  6
CONTINUOUS
 62
               7
100
AcDbLine
 10
40.285000000000082
 20
88.5
 30
0.0
 11
44.715000000000032
 21
88.5
 31
0.0
  0
LINE
  5
30B
100
AcDbEntity
  8
0
  6
CONTINUOUS
 62
               7
100
AcDbLine
 10
40.285000000000082
 20
84.934434807572018
 30
0.0
 11
40.285000000000082
 21
88.5
 31
0.0
  0
LINE
  5
30C
100
AcDbEntity
  8
0
  6
CONTINUOUS
 62
               7
100
AcDbLine
 10
41.715000000000032
 20
84.934434807572018
 30
0.0
 11
41.715000000000032
 21
88.5
 31
0.0
  0
LINE
  5
30D
100
AcDbEntity
  8
0
  6
CONTINUOUS
 62
               7
100
AcDbLine
 10
42.715000000000032
 20
84.934434807572018
 30
0.0
 11
42.715000000000032
 21
88.5
 31
0.0
  0
LINE
  5
30E
100
AcDbEntity
  8
0
  6
CONTINUOUS
 62
               7
100
AcDbLine
 10
43.715000000000032
 20
84.934434807572018
 30
0.0
 11
43.715000000000032
 21
88.5
 31
0.0
  0
LINE
  5
30F
100
AcDbEntity
  8
0
  6
CONTINUOUS
 62
               7
100
AcDbLine
 10
44.715000000000032
 20
84.934434807572018
 30
0.0
 11
44.715000000000032
 21
88.5
 31
0.0
  0
LINE
  5
310
100
AcDbEntity
  8
0
  6
CONTINUOUS
 62
               7
100
AcDbLine
 10
40.600000000000023
 20
93.5
 30
0.0
 11
41.399999999999977
 21
93.5
 31
0.0
  0
LINE
  5
311
100
AcDbEntity
  8
0
  6
CONTINUOUS
 62
               7
100
AcDbLine
 10
41.600000000000023
 20
93.5
 30
0.0
 11
42.399999999999977
 21
93.5
 31
0.0
  0
LINE
  5
312
100
AcDbEntity
  8
0
  6
CONTINUOUS
 62
               7
100
AcDbLine
 10
42.600000000000023
 20
93.5
 30
0.0
 11
43.399999999999977
 21
93.5
 31
0.0
  0
LINE
  5
313
100
AcDbEntity
  8
0
  6
CONTINUOUS
 62
               7
100
AcDbLine
 10
43.600000000000023
 20
93.5
 30
0.0
 11
44.399999999999977
 21
93.5
 31
0.0
  0
LINE
  5
314
100
AcDbEntity
  8
0
  6
CONTINUOUS
 62
               7
100
AcDbLine
 10
45.0
 20
68.5
 30
0.0
 11
45.0
 21
80.162488506212867
 31
0.0
  0
LINE
  5
315
100
AcDbEntity
  8
0
  6
CONTINUOUS
 62
               7
100
AcDbLine
 10
40.0
 20
68.5
 30
0.0
 11
40.0
 21
78.270596614320993
 31
0.0
  0
LINE
  5
316
100
AcDbEntity
  8
0
  6
CONTINUOUS
 62
               7
100
AcDbLine
 10
35.5
 20
68.0
 30
0.0
 11
35.5
 21
53.500000000000057
 31
0.0
  0
LINE
  5
317
100
AcDbEntity
  8
0
  6
CONTINUOUS
 62
               7
100
AcDbLine
 10
60.5
 20
68.0
 30
0.0
 11
60.5
 21
17.300000000000054
 31
0.0
  0
LINE
  5
318
100
AcDbEntity
  8
0
  6
CONTINUOUS
 62
               7
100
AcDbLine
 10
60.5
 20
68.0
 30
0.0
 11
35.5
 21
68.0
 31
0.0
  0
LINE
  5
319
100
AcDbEntity
  8
0
  6
CONTINUOUS
 62
               7
100
AcDbLine
 10
40.5
 20
9.5
 30
0.0
 11
26.5
 21
9.5
 31
0.0
  0
LINE
  5
31A
100
AcDbEntity
  8
0
  6
CONTINUOUS
 62
               7
100
AcDbLine
 10
40.5
 20
53.500000000000057
 30
0.0
 11
12.5
 21
53.500000000000057
 31
0.0
  0
LINE
  5
31B
100
AcDbEntity
  8
0
  6
CONTINUOUS
 62
               7
100
AcDbLine
 10
60.5
 20
13.300000000000054
 30
0.0
 11
60.5
 21
2.0000000000000568
 31
0.0
  0
LINE
  5
31C
100
AcDbEntity
  8
0
  6
CONTINUOUS
 62
               7
100
AcDbLine
 10
54.199999999999989
 20
3.5000000000000568
 30
0.0
 11
54.199999999999989
 21
19.600000000000058
 31
0.0
  0
LINE
  5
31D
100
AcDbEntity
  8
0
  6
CONTINUOUS
 62
               7
100
AcDbLine
 10
54.199999999999989
 20
3.5000000000000568
 30
0.0
 11
41.699999999999989
 21
3.5000000000000568
 31
0.0
  0
LINE
  5
31E
100
AcDbEntity
  8
0
  6
CONTINUOUS
 62
               7
100
AcDbLine
 10
59.5
 20
19.500000000000043
 30
0.0
 11
59.5
 21
19.600000000000058
 31
0.0
  0
LINE
  5
31F
100
AcDbEntity
  8
0
  6
CONTINUOUS
 62
               7
100
AcDbLine
 10
54.199999999999989
 20
19.500000000000043
 30
0.0
 11
60.100000000000023
 21
19.500000000000043
 31
0.0
  0
LINE
  5
320
100
AcDbEntity
  8
0
  6
CONTINUOUS
 62
               7
100
AcDbLine
 10
41.699999999999989
 20
2.0000000000000568
 30
0.0
 11
41.699999999999989
 21
3.5000000000000568
 31
0.0
  0
LINE
  5
321
100
AcDbEntity
  8
0
  6
CONTINUOUS
 62
               7
100
AcDbLine
 10
41.699999999999989
 20
2.0000000000000568
 30
0.0
 11
59.800000000000011
 21
2.0000000000000568
 31
0.0
  0
LINE
  5
322
100
AcDbEntity
  8
0
  6
CONTINUOUS
 62
               7
100
AcDbLine
 10
60.900000000000006
 20
17.300000000000054
 30
0.0
 11
60.099999999999994
 21
17.300000000000054
 31
0.0
  0
ARC
  5
323
100
AcDbEntity
  8
0
  6
CONTINUOUS
 62
               7
100
AcDbCircle
 10
60.900711437663745
 20
17.100711437663811
 30
0.0
 40
0.1992898322082596
100
AcDbArc
 50
359.79546140589474
 51
90.204538594104179
  0
LINE
  5
324
100
AcDbEntity
  8
0
  6
CONTINUOUS
 62
               7
100
AcDbLine
 10
61.099999999999994
 20
17.100000000000051
 30
0.0
 11
61.099999999999994
 21
13.500000000000053
 31
0.0
  0
ARC
  5
325
100
AcDbEntity
  8
0
  6
CONTINUOUS
 62
               7
100
AcDbCircle
 10
60.900711437663745
 20
13.499288562336297
 30
0.0
 40
0.1992898322082596
100
AcDbArc
 50
269.79546140589491
 51
0.2045385941045798
  0
LINE
  5
326
100
AcDbEntity
  8
0
  6
CONTINUOUS
 62
               7
100
AcDbLine
 10
60.900000000000006
 20
13.300000000000054
 30
0.0
 11
60.099999999999994
 21
13.300000000000054
 31
0.0
  0
ARC
  5
327
100
AcDbEntity
  8
0
  6
CONTINUOUS
 62
               7
100
AcDbCircle
 10
59.800000000000011
 20
2.3000000000000647
 30
0.0
 40
0.3
100
AcDbArc
 50
270.00000000000023
 51
0.0
  0
LINE
  5
328
100
AcDbEntity
  8
0
  6
CONTINUOUS
 62
               7
100
AcDbLine
 10
61.099999999999994
 20
15.950000000000049
 30
0.0
 11
64.599999999999994
 21
15.950000000000049
 31
0.0
  0
LINE
  5
329
100
AcDbEntity
  8
0
  6
CONTINUOUS
 62
               7
100
AcDbLine
 10
61.099999999999994
 20
14.650000000000052
 30
0.0
 11
64.949999999999989
 21
14.650000000000052
 31
0.0
  0
LINE
  5
32A
100
AcDbEntity
  8
0
  6
CONTINUOUS
 62
               2
100
AcDbLine
 10
65.379999999999995
 20
16.900000000000048
 30
0.0
 11
66.240000000000009
 21
13.700000000000049
 31
0.0
  0
LINE
  5
32B
100
AcDbEntity
  8
0
  6
CONTINUOUS
 62
               2
100
AcDbLine
 10
64.349999999999994
 20
16.900000000000048
 30
0.0
 11
65.20999999999998
 21
13.700000000000049
 31
0.0
  0
LINE
  5
32C
100
AcDbEntity
  8
0
  6
CONTINUOUS
 62
               7
100
AcDbLine
 10
73.300000000000011
 20
15.05000000000005
 30
0.0
 11
73.300000000000011
 21
15.55000000000005
 31
0.0
  0
LINE
  5
32D
100
AcDbEntity
  8
0
  6
CONTINUOUS
 62
               7
100
AcDbLine
 10
69.300000000000011
 20
14.650000000000052
 30
0.0
 11
69.300000000000011
 21
15.950000000000049
 31
0.0
  0
LINE
  5
32E
100
AcDbEntity
  8
0
  6
CONTINUOUS
 62
               7
100
AcDbLine
 10
69.300000000000011
 20
15.05000000000005
 30
0.0
 11
73.300000000000011
 21
15.05000000000005
 31
0.0
  0
LINE
  5
32F
100
AcDbEntity
  8
0
  6
CONTINUOUS
 62
               7
100
AcDbLine
 10
69.300000000000011
 20
15.55000000000005
 30
0.0
 11
73.300000000000011
 21
15.55000000000005
 31
0.0
  0
LINE
  5
330
100
AcDbEntity
  8
0
  6
CONTINUOUS
 62
               7
100
AcDbLine
 10
65.639999999999986
 20
15.950000000000049
 30
0.0
 11
69.300000000000011
 21
15.950000000000049
 31
0.0
  0
LINE
  5
331
100
AcDbEntity
  8
0
  6
CONTINUOUS
 62
               7
100
AcDbLine
 10
65.990000000000009
 20
14.650000000000052
 30
0.0
 11
69.300000000000011
 21
14.650000000000052
 31
0.0
  0
LINE
  5
332
100
AcDbEntity
  8
0
  6
CONTINUOUS
 62
               7
100
AcDbLine
 10
60.100000000000023
 20
19.500000000000043
 30
0.0
 11
60.099999999999994
 21
2.3000000000000647
 31
0.0
  0
ENDBLK
  5
333
100
AcDbEntity
  8
0
100
AcDbBlockEnd
  0
BLOCK
  5
334
100
AcDbEntity
  8
0
100
AcDbBlockBegin
  2
MV090-05-F-6
 70
               0
 10
0.0
 20
0.0
 30
0.0
  3
MV090-05-F-6
  1

  0
LINE
  5
335
100
AcDbEntity
  8
0
  6
CENTER
 62
             200
100
AcDbLine
 10
0.0
 20
-1.6999999999999886
 30
0.0
 11
0.0
 21
3.3000000000000114
 31
0.0
  0
LINE
  5
336
100
AcDbEntity
  8
0
  6
CENTER
 62
             200
100
AcDbLine
 10
7.7000000000000171
 20
19.0
 30
0.0
 11
0.4512971541956006
 21
19.0
 31
0.0
  0
LINE
  5
337
100
AcDbEntity
  8
0
  6
CENTER
 62
             200
100
AcDbLine
 10
7.7000000000000171
 20
6.0
 30
0.0
 11
0.4512971541956006
 21
6.0
 31
0.0
  0
ARC
  5
338
100
AcDbEntity
  8
0
  6
CONTINUOUS
 62
               4
100
AcDbCircle
 10
5.5
 20
0.5
 30
0.0
 40
0.5
100
AcDbArc
 50
269.99999999999937
 51
0.0
  0
ARC
  5
339
100
AcDbEntity
  8
0
  6
CONTINUOUS
 62
               4
100
AcDbCircle
 10
4.0
 20
2.0
 30
0.0
 40
0.4
100
AcDbArc
 50
269.99999999999937
 51
0.0
  0
ARC
  5
33A
100
AcDbEntity
  8
0
  6
CONTINUOUS
 62
               4
100
AcDbCircle
 10
-3.5
 20
0.5
 30
0.0
 40
0.5
100
AcDbArc
 50
179.99999999999963
 51
269.99999999999937
  0
ARC
  5
33B
100
AcDbEntity
  8
0
  6
CONTINUOUS
 62
               4
100
AcDbCircle
 10
-3.5
 20
1.0999999999999943
 30
0.0
 40
0.5
100
AcDbArc
 50
89.999999999999815
 51
179.99999999999963
  0
ARC
  5
33C
100
AcDbEntity
  8
0
  6
CONTINUOUS
 62
               4
100
AcDbCircle
 10
4.9000000000000057
 20
22.5
 30
0.0
 40
0.5
100
AcDbArc
 50
89.999999999999815
 51
179.99999999999963
  0
ARC
  5
33D
100
AcDbEntity
  8
0
  6
CONTINUOUS
 62
               4
100
AcDbCircle
 10
5.5
 20
22.5
 30
0.0
 40
0.5
100
AcDbArc
 50
0.0
 51
89.999999999999815
  0
LINE
  5
33E
100
AcDbEntity
  8
0
  6
CONTINUOUS
 62
               4
100
AcDbLine
 10
5.5
 20
23.0
 30
0.0
 11
4.9000000000000057
 21
23.0
 31
0.0
  0
LINE
  5
33F
100
AcDbEntity
  8
0
  6
CONTINUOUS
 62
               4
100
AcDbLine
 10
-3.5
 20
1.5999999999999943
 30
0.0
 11
4.0
 21
1.5999999999999943
 31
0.0
  0
LINE
  5
340
100
AcDbEntity
  8
0
  6
CONTINUOUS
 62
               4
100
AcDbLine
 10
-3.5
 20
0.0
 30
0.0
 11
5.5
 21
0.0
 31
0.0
  0
LINE
  5
341
100
AcDbEntity
  8
0
  6
CONTINUOUS
 62
               4
100
AcDbLine
 10
4.4000000000000057
 20
22.5
 30
0.0
 11
4.4000000000000057
 21
2.0
 31
0.0
  0
LINE
  5
342
100
AcDbEntity
  8
0
  6
CONTINUOUS
 62
               4
100
AcDbLine
 10
6.0
 20
2.0
 30
0.0
 11
6.0
 21
0.5
 31
0.0
  0
LINE
  5
343
100
AcDbEntity
  8
0
  6
CONTINUOUS
 62
               4
100
AcDbLine
 10
-4.0
 20
1.0999999999999943
 30
0.0
 11
-4.0
 21
0.5
 31
0.0
  0
LINE
  5
344
100
AcDbEntity
  8
0
  6
CONTINUOUS
 62
               4
100
AcDbLine
 10
2.0500000000000114
 20
21.25
 30
0.0
 11
1.8000000000000114
 21
21.0
 31
0.0
  0
LINE
  5
345
100
AcDbEntity
  8
0
  6
CONTINUOUS
 62
               4
100
AcDbLine
 10
2.0500000000000114
 20
16.75
 30
0.0
 11
1.8000000000000114
 21
17.0
 31
0.0
  0
LINE
  5
346
100
AcDbEntity
  8
0
  6
CONTINUOUS
 62
               4
100
AcDbLine
 10
2.0500000000000114
 20
21.25
 30
0.0
 11
2.0500000000000114
 21
16.75
 31
0.0
  0
LINE
  5
347
100
AcDbEntity
  8
0
  6
CONTINUOUS
 62
               4
100
AcDbLine
 10
1.8000000000000114
 20
21.0
 30
0.0
 11
1.8000000000000114
 21
17.0
 31
0.0
  0
LINE
  5
348
100
AcDbEntity
  8
0
  6
CONTINUOUS
 62
               4
100
AcDbLine
 10
2.0500000000000114
 20
21.25
 30
0.0
 11
4.4000000000000057
 21
21.25
 31
0.0
  0
LINE
  5
349
100
AcDbEntity
  8
0
  6
CONTINUOUS
 62
               4
100
AcDbLine
 10
2.0500000000000114
 20
16.75
 30
0.0
 11
4.4000000000000057
 21
16.75
 31
0.0
  0
LINE
  5
34A
100
AcDbEntity
  8
0
  6
CONTINUOUS
 62
               4
100
AcDbLine
 10
2.0500000000000114
 20
3.75
 30
0.0
 11
4.4000000000000057
 21
3.75
 31
0.0
  0
LINE
  5
34B
100
AcDbEntity
  8
0
  6
CONTINUOUS
 62
               4
100
AcDbLine
 10
2.0500000000000114
 20
8.25
 30
0.0
 11
4.4000000000000057
 21
8.25
 31
0.0
  0
LINE
  5
34C
100
AcDbEntity
  8
0
  6
CONTINUOUS
 62
               4
100
AcDbLine
 10
1.8000000000000114
 20
8.0
 30
0.0
 11
1.8000000000000114
 21
4.0
 31
0.0
  0
LINE
  5
34D
100
AcDbEntity
  8
0
  6
CONTINUOUS
 62
               4
100
AcDbLine
 10
2.0500000000000114
 20
8.25
 30
0.0
 11
2.0500000000000114
 21
3.75
 31
0.0
  0
LINE
  5
34E
100
AcDbEntity
  8
0
  6
CONTINUOUS
 62
               4
100
AcDbLine
 10
2.0500000000000114
 20
3.75
 30
0.0
 11
1.8000000000000114
 21
4.0
 31
0.0
  0
LINE
  5
34F
100
AcDbEntity
  8
0
  6
CONTINUOUS
 62
               4
100
AcDbLine
 10
2.0500000000000114
 20
8.25
 30
0.0
 11
1.8000000000000114
 21
8.0
 31
0.0
  0
LINE
  5
350
100
AcDbEntity
  8
0
  6
CONTINUOUS
 62
               7
100
AcDbLine
 10
26.000000000000004
 20
68.0
 30
0.0
 11
26.000000000000004
 21
2.0
 31
0.0
  0
LINE
  5
351
100
AcDbEntity
  8
0
  6
CONTINUOUS
 62
               7
100
AcDbLine
 10
25.500000000000004
 20
66.0
 30
0.0
 11
25.500000000000004
 21
25.0
 31
0.0
  0
LINE
  5
352
100
AcDbEntity
  8
0
  6
CONTINUOUS
 62
               7
100
AcDbLine
 10
18.419384354593266
 20
35.474540409051883
 30
0.0
 11
18.783884370752734
 21
35.780391675097576
 31
0.0
  0
LINE
  5
353
100
AcDbEntity
  8
0
  6
CONTINUOUS
 62
               7
100
AcDbLine
 10
18.419384354593266
 20
38.435524245807642
 30
0.0
 11
18.783884370752734
 21
38.00112989354966
 31
0.0
  0
LINE
  5
354
100
AcDbEntity
  8
0
  6
CONTINUOUS
 62
               7
100
AcDbLine
 10
18.453855850121503
 20
40.570932251943532
 30
0.0
 11
18.818355866280914
 21
40.876784245036333
 31
0.0
  0
LINE
  5
355
100
AcDbEntity
  8
0
  6
CONTINUOUS
 62
               7
100
AcDbLine
 10
18.453855850121503
 20
43.531916086746492
 30
0.0
 11
18.818355866280914
 21
43.097522463488531
 31
0.0
  0
LINE
  5
356
100
AcDbEntity
  8
0
  6
CONTINUOUS
 62
               7
100
AcDbLine
 10
18.453855850121503
 20
40.570932251943532
 30
0.0
 11
18.453855850121503
 21
43.531916086746492
 31
0.0
  0
LINE
  5
357
100
AcDbEntity
  8
0
  6
CONTINUOUS
 62
               7
100
AcDbLine
 10
18.419384354593266
 20
35.474540409051883
 30
0.0
 11
18.419384354593266
 21
38.435524245807642
 31
0.0
  0
LINE
  5
358
100
AcDbEntity
  8
0
  6
CONTINUOUS
 62
               7
100
AcDbLine
 10
18.783884370752734
 20
38.00112989354966
 30
0.0
 11
18.783884370752734
 21
35.780391675097576
 31
0.0
  0
LINE
  5
359
100
AcDbEntity
  8
0
  6
CONTINUOUS
 62
               7
100
AcDbLine
 10
18.818355866280914
 20
43.097522463488531
 30
0.0
 11
18.818355866280914
 21
40.876784245036333
 31
0.0
  0
LINE
  5
35A
100
AcDbEntity
  8
0
  6
CONTINUOUS
 62
               7
100
AcDbLine
 10
20.852222216448471
 20
42.738896729589555
 30
0.0
 11
21.034472224528205
 21
43.076884472573511
 31
0.0
  0
LINE
  5
35B
100
AcDbEntity
  8
0
  6
CONTINUOUS
 62
               7
100
AcDbLine
 10
21.216722232607939
 20
42.674625899740249
 30
0.0
 11
21.034472224528205
 21
43.076884472573511
 31
0.0
  0
LINE
  5
35C
100
AcDbEntity
  8
0
  6
CONTINUOUS
 62
               7
100
AcDbLine
 10
21.216722232607939
 20
42.674625899740249
 30
0.0
 11
21.477535116170547
 21
42.628636932701397
 31
0.0
  0
LINE
  5
35D
100
AcDbEntity
  8
0
  6
CONTINUOUS
 62
               7
100
AcDbLine
 10
23.290397816540409
 20
42.308980624530022
 30
0.0
 11
23.654897832699763
 21
42.614832588089371
 31
0.0
  0
LINE
  5
35E
100
AcDbEntity
  8
0
  6
CONTINUOUS
 62
               7
100
AcDbLine
 10
21.540829814976636
 20
42.9875994646153
 30
0.0
 11
23.654897832699763
 21
42.614832588089371
 31
0.0
  0
LINE
  5
35F
100
AcDbEntity
  8
0
  6
CONTINUOUS
 62
               7
100
AcDbLine
 10
21.477535116170547
 20
42.628636932701397
 30
0.0
 11
23.290397816540409
 21
42.308980624530022
 31
0.0
  0
LINE
  5
360
100
AcDbEntity
  8
0
  6
CONTINUOUS
 62
               7
100
AcDbLine
 10
21.182250008079681
 20
37.578233329801378
 30
0.0
 11
21.44306362064231
 21
37.532245091762547
 31
0.0
  0
LINE
  5
361
100
AcDbEntity
  8
0
  6
CONTINUOUS
 62
               7
100
AcDbLine
 10
21.182250008079681
 20
35.357495111349181
 30
0.0
 11
21.182250008079681
 21
37.578233329801378
 31
0.0
  0
LINE
  5
362
100
AcDbEntity
  8
0
  6
CONTINUOUS
 62
               7
100
AcDbLine
 10
20.817749991920213
 20
35.421766670198508
 30
0.0
 11
20.817749991920213
 21
37.642504888650706
 31
0.0
  0
LINE
  5
363
100
AcDbEntity
  8
0
  6
CONTINUOUS
 62
               7
100
AcDbLine
 10
21.182250008079681
 20
37.578233329801378
 30
0.0
 11
21.000000000000004
 21
37.980491902634753
 31
0.0
  0
LINE
  5
364
100
AcDbEntity
  8
0
  6
CONTINUOUS
 62
               7
100
AcDbLine
 10
20.817749991920213
 20
37.642504888650706
 30
0.0
 11
21.000000000000004
 21
37.980491902634753
 31
0.0
  0
LINE
  5
365
100
AcDbEntity
  8
0
  6
CONTINUOUS
 62
               7
100
AcDbLine
 10
21.000000000000004
 20
35.019508097365133
 30
0.0
 11
21.182250008079681
 21
35.357495111349181
 31
0.0
  0
LINE
  5
366
100
AcDbEntity
  8
0
  6
CONTINUOUS
 62
               7
100
AcDbLine
 10
21.000000000000004
 20
35.019508097365133
 30
0.0
 11
20.817749991920213
 21
35.421766670198508
 31
0.0
  0
LINE
  5
367
100
AcDbEntity
  8
0
  6
CONTINUOUS
 62
               7
100
AcDbLine
 10
21.034472224528205
 20
40.115899938303983
 30
0.0
 11
20.852222216448471
 21
40.518158511137358
 31
0.0
  0
LINE
  5
368
100
AcDbEntity
  8
0
  6
CONTINUOUS
 62
               7
100
AcDbLine
 10
21.034472224528205
 20
40.115899938303983
 30
0.0
 11
21.216722232607939
 21
40.453887681288052
 31
0.0
  0
LINE
  5
369
100
AcDbEntity
  8
0
  6
CONTINUOUS
 62
               7
100
AcDbLine
 10
23.255925592012151
 20
34.991850565138975
 30
0.0
 11
23.255925592012151
 21
37.212588783591173
 31
0.0
  0
LINE
  5
36A
100
AcDbEntity
  8
0
  6
CONTINUOUS
 62
               7
100
AcDbLine
 10
23.255925592012151
 20
37.212588783591173
 30
0.0
 11
23.620425608171562
 21
37.5184400181505
 31
0.0
  0
LINE
  5
36B
100
AcDbEntity
  8
0
  6
CONTINUOUS
 62
               7
100
AcDbLine
 10
23.255925592012151
 20
34.991850565138975
 30
0.0
 11
23.620425608171562
 21
34.551697841625696
 31
0.0
  0
LINE
  5
36C
100
AcDbEntity
  8
0
  6
CONTINUOUS
 62
               7
100
AcDbLine
 10
23.620425608171562
 20
34.551697841625696
 30
0.0
 11
23.620425608171562
 21
37.5184400181505
 31
0.0
  0
LINE
  5
36D
100
AcDbEntity
  8
0
  6
CONTINUOUS
 62
               7
100
AcDbLine
 10
23.290397816540409
 20
40.088242406077825
 30
0.0
 11
23.654897832699763
 21
39.648089682564432
 31
0.0
  0
LINE
  5
36E
100
AcDbEntity
  8
0
  6
CONTINUOUS
 62
               7
100
AcDbLine
 10
21.182250008079681
 20
35.357495111349181
 30
0.0
 11
23.255925592012151
 21
34.991850565138975
 31
0.0
  0
LINE
  5
36F
100
AcDbEntity
  8
0
  6
CONTINUOUS
 62
               7
100
AcDbLine
 10
21.44306362064231
 20
37.532245091762547
 30
0.0
 11
23.255925592012151
 21
37.212588783591173
 31
0.0
  0
LINE
  5
370
100
AcDbEntity
  8
0
  6
CONTINUOUS
 62
               7
100
AcDbLine
 10
21.506358319448399
 20
37.891207623676451
 30
0.0
 11
23.620425608171562
 21
37.5184400181505
 31
0.0
  0
LINE
  5
371
100
AcDbEntity
  8
0
  6
CONTINUOUS
 62
               7
100
AcDbLine
 10
21.000000000000004
 20
35.019508097365133
 30
0.0
 11
23.620425608171562
 21
34.557456212880993
 31
0.0
  0
LINE
  5
372
100
AcDbEntity
  8
0
  6
CONTINUOUS
 62
               7
100
AcDbLine
 10
21.216722232607939
 20
40.453887681288052
 30
0.0
 11
23.290397816540409
 21
40.088242406077825
 31
0.0
  0
LINE
  5
373
100
AcDbEntity
  8
0
  6
CONTINUOUS
 62
               7
100
AcDbLine
 10
21.034472224528205
 20
40.115899938303983
 30
0.0
 11
23.654897832699763
 21
39.653848053819729
 31
0.0
  0
LINE
  5
374
100
AcDbEntity
  8
0
  6
CONTINUOUS
 62
               7
100
AcDbLine
 10
23.290397816540409
 20
40.088242406077825
 30
0.0
 11
23.290397816540409
 21
42.308980624530022
 31
0.0
  0
LINE
  5
375
100
AcDbEntity
  8
0
  6
CONTINUOUS
 62
               7
100
AcDbLine
 10
20.852222216448471
 20
40.518158511137358
 30
0.0
 11
20.852222216448471
 21
42.738896729589555
 31
0.0
  0
LINE
  5
376
100
AcDbEntity
  8
0
  6
CONTINUOUS
 62
               7
100
AcDbLine
 10
21.216722232607939
 20
40.453887681288052
 30
0.0
 11
21.216722232607939
 21
42.674625899740249
 31
0.0
  0
LINE
  5
377
100
AcDbEntity
  8
0
  6
CONTINUOUS
 62
               7
100
AcDbLine
 10
23.654897832699763
 20
39.648089682564432
 30
0.0
 11
23.654897832699763
 21
42.614832588089371
 31
0.0
  0
LINE
  5
378
100
AcDbEntity
  8
0
  6
CONTINUOUS
 62
               7
100
AcDbLine
 10
21.192713345543556
 20
29.901125970451517
 30
0.0
 11
21.192713345543556
 21
32.121864188903601
 31
0.0
  0
LINE
  5
379
100
AcDbEntity
  8
0
  6
CONTINUOUS
 62
               7
100
AcDbLine
 10
20.828213329384088
 20
29.965396800300823
 30
0.0
 11
20.828213329384088
 21
32.186135018752907
 31
0.0
  0
LINE
  5
37A
100
AcDbEntity
  8
0
  6
CONTINUOUS
 62
               7
100
AcDbLine
 10
21.010463337463879
 20
29.563138227467448
 30
0.0
 11
21.192713345543556
 21
29.901125970451517
 31
0.0
  0
LINE
  5
37B
100
AcDbEntity
  8
0
  6
CONTINUOUS
 62
               7
100
AcDbLine
 10
21.010463337463879
 20
29.563138227467448
 30
0.0
 11
20.828213329384088
 21
29.965396800300823
 31
0.0
  0
LINE
  5
37C
100
AcDbEntity
  8
0
  6
CONTINUOUS
 62
               7
100
AcDbLine
 10
20.828213329384088
 20
32.186135018752907
 30
0.0
 11
21.010463337463879
 21
32.524122761736976
 31
0.0
  0
LINE
  5
37D
100
AcDbEntity
  8
0
  6
CONTINUOUS
 62
               7
100
AcDbLine
 10
21.192713345543556
 20
32.121864188903601
 30
0.0
 11
21.010463337463879
 21
32.524122761736976
 31
0.0
  0
LINE
  5
37E
100
AcDbEntity
  8
0
  6
CONTINUOUS
 62
               7
100
AcDbLine
 10
18.453855850121503
 20
40.570932251943532
 30
0.0
 11
21.034472224528205
 21
40.115899938303983
 31
0.0
  0
LINE
  5
37F
100
AcDbEntity
  8
0
  6
CONTINUOUS
 62
               7
100
AcDbLine
 10
18.818355866280914
 20
40.876784245036333
 30
0.0
 11
20.852222216448471
 21
40.518158511137358
 31
0.0
  0
LINE
  5
380
100
AcDbEntity
  8
0
  6
CONTINUOUS
 62
               7
100
AcDbLine
 10
18.783884370752734
 20
35.780391675097576
 30
0.0
 11
20.817749991920213
 21
35.421766670198508
 31
0.0
  0
LINE
  5
381
100
AcDbEntity
  8
0
  6
CONTINUOUS
 62
               7
100
AcDbLine
 10
18.783884370752734
 20
38.00112989354966
 30
0.0
 11
20.817749991920213
 21
37.642504888650706
 31
0.0
  0
LINE
  5
382
100
AcDbEntity
  8
0
  6
CONTINUOUS
 62
               7
100
AcDbLine
 10
18.419384354593266
 20
35.474540409051883
 30
0.0
 11
21.000000000000004
 21
35.019508097365133
 31
0.0
  0
LINE
  5
383
100
AcDbEntity
  8
0
  6
CONTINUOUS
 62
               7
100
AcDbLine
 10
18.419384354593266
 20
38.435524245807642
 30
0.0
 11
21.506358319448399
 21
37.891207623676451
 31
0.0
  0
LINE
  5
384
100
AcDbEntity
  8
0
  6
CONTINUOUS
 62
               7
100
AcDbLine
 10
18.453855850121503
 20
43.531916086746492
 30
0.0
 11
21.540829814976636
 21
42.9875994646153
 31
0.0
  0
LINE
  5
385
100
AcDbEntity
  8
0
  6
CONTINUOUS
 62
               7
100
AcDbLine
 10
18.818355866280914
 20
43.097522463488531
 30
0.0
 11
20.852222216448471
 21
42.738896729589555
 31
0.0
  0
LINE
  5
386
100
AcDbEntity
  8
0
  6
CONTINUOUS
 62
               7
100
AcDbLine
 10
20.429901643390966
 20
56.887439318958286
 30
0.0
 11
21.916508518122786
 21
54.312560681041646
 31
0.0
  0
LINE
  5
387
100
AcDbEntity
  8
0
  6
CONTINUOUS
 62
               7
100
AcDbLine
 10
20.083491481877108
 20
56.687439318958354
 30
0.0
 11
21.570098356609041
 21
54.1125606810416
 31
0.0
  0
CIRCLE
  5
388
100
AcDbEntity
  8
0
  6
CONTINUOUS
 62
               7
100
AcDbCircle
 10
21.000000000000004
 20
55.5
 30
0.0
 40
1.5
  0
CIRCLE
  5
389
100
AcDbEntity
  8
0
  6
CONTINUOUS
 62
               7
100
AcDbCircle
 10
21.000000000000004
 20
50.25
 30
0.0
 40
1.5
  0
LINE
  5
38A
100
AcDbEntity
  8
0
  6
CONTINUOUS
 62
               7
100
AcDbLine
 10
20.083491481877108
 20
51.437439318958354
 30
0.0
 11
21.570098356609041
 21
48.8625606810416
 31
0.0
  0
LINE
  5
38B
100
AcDbEntity
  8
0
  6
CONTINUOUS
 62
               7
100
AcDbLine
 10
20.429901643390966
 20
51.637439318958286
 30
0.0
 11
21.916508518122786
 21
49.062560681041646
 31
0.0
  0
LINE
  5
38C
100
AcDbEntity
  8
0
  6
CONTINUOUS
 62
               7
100
AcDbLine
 10
26.000000000000004
 20
2.0
 30
0.0
 11
16.000000000000004
 21
2.0
 31
0.0
  0
LINE
  5
38D
100
AcDbEntity
  8
0
  6
CONTINUOUS
 62
               7
100
AcDbLine
 10
16.500000000000004
 20
45.0
 30
0.0
 11
25.500000000000004
 21
45.0
 31
0.0
  0
LINE
  5
38E
100
AcDbEntity
  8
0
  6
CONTINUOUS
 62
               7
100
AcDbLine
 10
16.500000000000004
 20
28.0
 30
0.0
 11
25.500000000000004
 21
28.0
 31
0.0
  0
LINE
  5
38F
100
AcDbEntity
  8
0
  6
CONTINUOUS
 62
               7
100
AcDbLine
 10
16.500000000000004
 20
25.0
 30
0.0
 11
25.500000000000004
 21
25.0
 31
0.0
  0
LINE
  5
390
100
AcDbEntity
  8
0
  6
CONTINUOUS
 62
               7
100
AcDbLine
 10
26.000000000000004
 20
23.0
 30
0.0
 11
16.000000000000004
 21
23.0
 31
0.0
  0
LINE
  5
391
100
AcDbEntity
  8
0
  6
CONTINUOUS
 62
               7
100
AcDbLine
 10
16.000000000000004
 20
16.0
 30
0.0
 11
26.000000000000004
 21
16.0
 31
0.0
  0
LINE
  5
392
100
AcDbEntity
  8
0
  6
CONTINUOUS
 62
               7
100
AcDbLine
 10
16.500000000000004
 20
68.5
 30
0.0
 11
16.500000000000004
 21
78.270596614320993
 31
0.0
  0
LINE
  5
393
100
AcDbEntity
  8
0
  6
CONTINUOUS
 62
               7
100
AcDbLine
 10
21.500000000000004
 20
68.5
 30
0.0
 11
21.500000000000004
 21
80.162488506212867
 31
0.0
  0
LINE
  5
394
100
AcDbEntity
  8
0
  6
CONTINUOUS
 62
               2
100
AcDbLine
 10
22.751918174814822
 20
81.636187275061729
 30
0.0
 11
15.031316701234577
 21
78.714878609382708
 31
0.0
  0
LINE
  5
395
100
AcDbEntity
  8
0
  6
CONTINUOUS
 62
               2
100
AcDbLine
 10
22.751918174814822
 20
80.636187275061729
 30
0.0
 11
15.031316701234577
 21
77.714878609382708
 31
0.0
  0
LINE
  5
396
100
AcDbEntity
  8
0
  6
CONTINUOUS
 62
               7
100
AcDbLine
 10
20.899999999999981
 20
88.5
 30
0.0
 11
20.899999999999981
 21
93.5
 31
0.0
  0
LINE
  5
397
100
AcDbEntity
  8
0
  6
CONTINUOUS
 62
               7
100
AcDbLine
 10
20.100000000000026
 20
88.5
 30
0.0
 11
20.100000000000026
 21
93.5
 31
0.0
  0
LINE
  5
398
100
AcDbEntity
  8
0
  6
CONTINUOUS
 62
               7
100
AcDbLine
 10
19.899999999999981
 20
88.5
 30
0.0
 11
19.899999999999981
 21
93.5
 31
0.0
  0
LINE
  5
399
100
AcDbEntity
  8
0
  6
CONTINUOUS
 62
               7
100
AcDbLine
 10
19.100000000000026
 20
88.5
 30
0.0
 11
19.100000000000026
 21
93.5
 31
0.0
  0
LINE
  5
39A
100
AcDbEntity
  8
0
  6
CONTINUOUS
 62
               7
100
AcDbLine
 10
18.899999999999981
 20
88.5
 30
0.0
 11
18.899999999999981
 21
93.5
 31
0.0
  0
LINE
  5
39B
100
AcDbEntity
  8
0
  6
CONTINUOUS
 62
               7
100
AcDbLine
 10
18.100000000000026
 20
88.5
 30
0.0
 11
18.100000000000026
 21
93.5
 31
0.0
  0
LINE
  5
39C
100
AcDbEntity
  8
0
  6
CONTINUOUS
 62
               7
100
AcDbLine
 10
17.899999999999981
 20
88.5
 30
0.0
 11
17.899999999999981
 21
93.5
 31
0.0
  0
LINE
  5
39D
100
AcDbEntity
  8
0
  6
CONTINUOUS
 62
               7
100
AcDbLine
 10
17.100000000000026
 20
88.5
 30
0.0
 11
17.100000000000026
 21
93.5
 31
0.0
  0
LINE
  5
39E
100
AcDbEntity
  8
0
  6
CONTINUOUS
 62
               7
100
AcDbLine
 10
21.500000000000004
 20
84.934434807571961
 30
0.0
 11
21.500000000000004
 21
81.162488506212867
 31
0.0
  0
LINE
  5
39F
100
AcDbEntity
  8
0
  6
CONTINUOUS
 62
               7
100
AcDbLine
 10
16.500000000000004
 20
84.934434807571961
 30
0.0
 11
16.500000000000004
 21
79.270596614320993
 31
0.0
  0
LINE
  5
3A0
100
AcDbEntity
  8
0
  6
CONTINUOUS
 62
               7
100
AcDbLine
 10
21.500000000000004
 20
84.934434807571961
 30
0.0
 11
16.500000000000004
 21
84.934434807571961
 31
0.0
  0
LINE
  5
3A1
100
AcDbEntity
  8
0
  6
CONTINUOUS
 62
               7
100
AcDbLine
 10
16.785000000000085
 20
88.5
 30
0.0
 11
21.215000000000035
 21
88.5
 31
0.0
  0
LINE
  5
3A2
100
AcDbEntity
  8
0
  6
CONTINUOUS
 62
               7
100
AcDbLine
 10
16.785000000000085
 20
84.934434807571961
 30
0.0
 11
16.785000000000085
 21
88.5
 31
0.0
  0
LINE
  5
3A3
100
AcDbEntity
  8
0
  6
CONTINUOUS
 62
               7
100
AcDbLine
 10
18.215000000000035
 20
84.934434807571961
 30
0.0
 11
18.215000000000035
 21
88.5
 31
0.0
  0
LINE
  5
3A4
100
AcDbEntity
  8
0
  6
CONTINUOUS
 62
               7
100
AcDbLine
 10
19.215000000000035
 20
84.934434807571961
 30
0.0
 11
19.215000000000035
 21
88.5
 31
0.0
  0
LINE
  5
3A5
100
AcDbEntity
  8
0
  6
CONTINUOUS
 62
               7
100
AcDbLine
 10
20.215000000000035
 20
84.934434807571961
 30
0.0
 11
20.215000000000035
 21
88.5
 31
0.0
  0
LINE
  5
3A6
100
AcDbEntity
  8
0
  6
CONTINUOUS
 62
               7
100
AcDbLine
 10
21.215000000000035
 20
84.934434807571961
 30
0.0
 11
21.215000000000035
 21
88.5
 31
0.0
  0
LINE
  5
3A7
100
AcDbEntity
  8
0
  6
CONTINUOUS
 62
               7
100
AcDbLine
 10
17.100000000000026
 20
93.5
 30
0.0
 11
17.899999999999981
 21
93.5
 31
0.0
  0
LINE
  5
3A8
100
AcDbEntity
  8
0
  6
CONTINUOUS
 62
               7
100
AcDbLine
 10
18.100000000000026
 20
93.5
 30
0.0
 11
18.899999999999981
 21
93.5
 31
0.0
  0
LINE
  5
3A9
100
AcDbEntity
  8
0
  6
CONTINUOUS
 62
               7
100
AcDbLine
 10
19.100000000000026
 20
93.5
 30
0.0
 11
19.899999999999981
 21
93.5
 31
0.0
  0
LINE
  5
3AA
100
AcDbEntity
  8
0
  6
CONTINUOUS
 62
               7
100
AcDbLine
 10
20.100000000000026
 20
93.5
 30
0.0
 11
20.899999999999981
 21
93.5
 31
0.0
  0
LINE
  5
3AB
100
AcDbEntity
  8
0
  6
CONTINUOUS
 62
               7
100
AcDbLine
 10
16.000000000000004
 20
68.5
 30
0.0
 11
22.000000000000004
 21
68.5
 31
0.0
  0
LINE
  5
3AC
100
AcDbEntity
  8
0
  6
CONTINUOUS
 62
               7
100
AcDbLine
 10
22.000000000000004
 20
68.0
 30
0.0
 11
22.000000000000004
 21
68.5
 31
0.0
  0
LINE
  5
3AD
100
AcDbEntity
  8
0
  6
CONTINUOUS
 62
               7
100
AcDbLine
 10
20.429901643390966
 20
62.137439318958286
 30
0.0
 11
21.916508518122786
 21
59.562560681041646
 31
0.0
  0
LINE
  5
3AE
100
AcDbEntity
  8
0
  6
CONTINUOUS
 62
               7
100
AcDbLine
 10
20.083491481877108
 20
61.937439318958354
 30
0.0
 11
21.570098356609041
 21
59.3625606810416
 31
0.0
  0
CIRCLE
  5
3AF
100
AcDbEntity
  8
0
  6
CONTINUOUS
 62
               7
100
AcDbCircle
 10
21.000000000000004
 20
60.75
 30
0.0
 40
1.5
  0
LINE
  5
3B0
100
AcDbEntity
  8
0
  6
CONTINUOUS
 62
               7
100
AcDbLine
 10
16.500000000000004
 20
66.0
 30
0.0
 11
16.500000000000004
 21
25.0
 31
0.0
  0
LINE
  5
3B1
100
AcDbEntity
  8
0
  6
CONTINUOUS
 62
               7
100
AcDbLine
 10
16.000000000000004
 20
68.5
 30
0.0
 11
16.000000000000004
 21
2.0
 31
0.0
  0
LINE
  5
3B2
100
AcDbEntity
  8
0
  6
CONTINUOUS
 62
               7
100
AcDbLine
 10
16.000000000000004
 20
68.0
 30
0.0
 11
26.000000000000004
 21
68.0
 31
0.0
  0
LINE
  5
3B3
100
AcDbEntity
  8
0
  6
CONTINUOUS
 62
               7
100
AcDbLine
 10
16.500000000000004
 20
66.0
 30
0.0
 11
25.500000000000004
 21
66.0
 31
0.0
  0
LINE
  5
3B4
100
AcDbEntity
  8
0
  6
CENTER
 62
               2
100
AcDbLine
 10
21.000000000000004
 20
78.444869257950529
 30
0.0
 11
21.000000000000004
 21
-0.1360529252351057
 31
0.0
  0
LINE
  5
3B5
100
AcDbEntity
  8
0
  6
CENTER
 62
               2
100
AcDbLine
 10
11.000000000000002
 20
61.699999999999989
 30
0.0
 11
10.999999999999996
 21
-0.1360529252351057
 31
0.0
  0
LINE
  5
3B6
100
AcDbEntity
  8
0
  6
CONTINUOUS
 62
               7
100
AcDbLine
 10
13.394370406123901
 20
28.040817451771176
 30
0.0
 11
13.650000000000009
 21
27.599999999999994
 31
0.0
  0
LINE
  5
3B7
100
AcDbEntity
  8
0
  6
CONTINUOUS
 62
               7
100
AcDbLine
 10
8.3499999999999979
 20
27.599999999999994
 30
0.0
 11
8.605629593876106
 21
28.040817451771147
 31
0.0
  0
LINE
  5
3B8
100
AcDbEntity
  8
0
  6
CONTINUOUS
 62
               7
100
AcDbLine
 10
12.144370406123901
 20
26.790817451771147
 30
0.0
 11
12.400000000000009
 21
26.350000000000023
 31
0.0
  0
LINE
  5
3B9
100
AcDbEntity
  8
0
  6
CONTINUOUS
 62
               7
100
AcDbLine
 10
13.650000000000009
 20
27.599999999999994
 30
0.0
 11
12.400000000000009
 21
26.350000000000023
 31
0.0
  0
LINE
  5
3BA
100
AcDbEntity
  8
0
  6
CONTINUOUS
 62
               7
100
AcDbLine
 10
12.144370406123901
 20
26.790817451771147
 30
0.0
 11
13.394370406123901
 21
28.040817451771176
 31
0.0
  0
LINE
  5
3BB
100
AcDbEntity
  8
0
  6
CONTINUOUS
 62
               7
100
AcDbLine
 10
9.855629593876106
 20
26.790817451771147
 30
0.0
 11
9.5999999999999979
 21
26.350000000000023
 31
0.0
  0
LINE
  5
3BC
100
AcDbEntity
  8
0
  6
CONTINUOUS
 62
               7
100
AcDbLine
 10
6.0000000000000036
 20
20.909182548228841
 30
0.0
 11
16.000000000000004
 21
20.909182548228841
 31
0.0
  0
LINE
  5
3BD
100
AcDbEntity
  8
0
  6
CONTINUOUS
 62
               7
100
AcDbLine
 10
9.855629593876106
 20
26.790817451771147
 30
0.0
 11
8.605629593876106
 21
28.040817451771147
 31
0.0
  0
LINE
  5
3BE
100
AcDbEntity
  8
0
  6
CONTINUOUS
 62
               7
100
AcDbLine
 10
6.0000000000000036
 20
28.040817451771147
 30
0.0
 11
8.605629593876106
 21
28.040817451771147
 31
0.0
  0
LINE
  5
3BF
100
AcDbEntity
  8
0
  6
CONTINUOUS
 62
               7
100
AcDbLine
 10
13.394370406123901
 20
28.040817451771176
 30
0.0
 11
16.000000000000004
 21
28.040817451771176
 31
0.0
  0
LINE
  5
3C0
100
AcDbEntity
  8
0
  6
CONTINUOUS
 62
               7
100
AcDbLine
 10
12.144370406123901
 20
26.790817451771147
 30
0.0
 11
9.855629593876106
 21
26.790817451771147
 31
0.0
  0
LINE
  5
3C1
100
AcDbEntity
  8
0
  6
CONTINUOUS
 62
               7
100
AcDbLine
 10
5.9999999999999751
 20
27.599999999999994
 30
0.0
 11
8.3499999999999979
 21
27.599999999999994
 31
0.0
  0
LINE
  5
3C2
100
AcDbEntity
  8
0
  6
CONTINUOUS
 62
               7
100
AcDbLine
 10
8.3499999999999979
 20
27.599999999999994
 30
0.0
 11
9.5999999999999979
 21
26.350000000000023
 31
0.0
  0
LINE
  5
3C3
100
AcDbEntity
  8
0
  6
CONTINUOUS
 62
               7
100
AcDbLine
 10
12.400000000000009
 20
26.350000000000023
 30
0.0
 11
9.5999999999999979
 21
26.350000000000023
 31
0.0
  0
LINE
  5
3C4
100
AcDbEntity
  8
0
  6
CONTINUOUS
 62
               7
100
AcDbLine
 10
13.650000000000009
 20
27.599999999999994
 30
0.0
 11
16.000000000000004
 21
27.599999999999994
 31
0.0
  0
CIRCLE
  5
3C5
100
AcDbEntity
  8
0
  6
CONTINUOUS
 62
               7
100
AcDbCircle
 10
11.000000000000004
 20
23.75
 30
0.0
 40
2.0500000000000003
  0
LINE
  5
3C6
100
AcDbEntity
  8
0
  6
CONTINUOUS
 62
               7
100
AcDbLine
 10
16.000000000000004
 20
20.098078436969899
 30
0.0
 11
6.0000000000000036
 21
20.098078436969899
 31
0.0
  0
LINE
  5
3C7
100
AcDbEntity
  8
0
  6
CONTINUOUS
 62
               7
100
AcDbLine
 10
6.0000000000000036
 20
19.600000000000023
 30
0.0
 11
16.000000000000004
 21
19.600000000000023
 31
0.0
  0
LINE
  5
3C8
100
AcDbEntity
  8
0
  6
CONTINUOUS
 62
               7
100
AcDbLine
 10
7.5000000000000036
 20
23.899999999999977
 30
0.0
 11
6.0000000000000036
 21
23.899999999999977
 31
0.0
  0
LINE
  5
3C9
100
AcDbEntity
  8
0
  6
CONTINUOUS
 62
               7
100
AcDbLine
 10
6.0000000000000036
 20
27.100000000000023
 30
0.0
 11
7.5000000000000036
 21
27.100000000000023
 31
0.0
  0
LINE
  5
3CA
100
AcDbEntity
  8
0
  6
CONTINUOUS
 62
               7
100
AcDbLine
 10
14.500000000000004
 20
27.100000000000023
 30
0.0
 11
16.000000000000004
 21
27.100000000000023
 31
0.0
  0
LINE
  5
3CB
100
AcDbEntity
  8
0
  6
CONTINUOUS
 62
               7
100
AcDbLine
 10
16.000000000000004
 20
23.899999999999977
 30
0.0
 11
14.500000000000004
 21
23.899999999999977
 31
0.0
  0
ARC
  5
3CC
100
AcDbEntity
  8
0
  6
CONTINUOUS
 62
               7
100
AcDbCircle
 10
14.500000000000004
 20
25.5
 30
0.0
 40
1.6000000000000001
100
AcDbArc
 50
89.999999999999815
 51
269.99999999999937
  0
ARC
  5
3CD
100
AcDbEntity
  8
0
  6
CONTINUOUS
 62
               7
100
AcDbCircle
 10
7.5000000000000036
 20
25.5
 30
0.0
 40
1.6000000000000001
100
AcDbArc
 50
270.00000000000023
 51
89.999999999999801
  0
LINE
  5
3CE
100
AcDbEntity
  8
0
  6
CENTER
 62
               2
100
AcDbLine
 10
8.5000000000000036
 20
23.75
 30
0.0
 11
13.500000000000004
 21
23.75
 31
0.0
  0
LINE
  5
3CF
100
AcDbEntity
  8
0
  6
CONTINUOUS
 62
               7
100
AcDbLine
 10
6.0
 20
2.0
 30
0.0
 11
6.0000000000000036
 21
19.5
 31
0.0
  0
CIRCLE
  5
3D0
100
AcDbEntity
  8
0
  6
CONTINUOUS
 62
               7
100
AcDbCircle
 10
11.000000000000004
 20
23.75
 30
0.0
 40
1.9000000000000001
  0
LINE
  5
3D1
100
AcDbEntity
  8
0
  6
CONTINUOUS
 62
               7
100
AcDbLine
 10
16.000000000000004
 20
2.0
 30
0.0
 11
6.0
 21
2.0
 31
0.0
  0
LINE
  5
3D2
100
AcDbEntity
  8
0
  6
CONTINUOUS
 62
               7
100
AcDbLine
 10
5.9999999966761983
 20
19.5
 30
0.0
 11
15.999999996676198
 21
19.5
 31
0.0
  0
CIRCLE
  5
3D3
100
AcDbEntity
  8
0
  6
CONTINUOUS
 62
               7
100
AcDbCircle
 10
13.900000000000009
 20
15.300000167936048
 30
0.0
 40
0.875
  0
CIRCLE
  5
3D4
100
AcDbEntity
  8
0
  6
CONTINUOUS
 62
               7
100
AcDbCircle
 10
8.1000000000000085
 20
15.300000000000011
 30
0.0
 40
0.875
  0
LINE
  5
3D5
100
AcDbEntity
  8
0
  6
CONTINUOUS
 62
               7
100
AcDbLine
 10
9.5
 20
7.0
 30
0.0
 11
9.5
 21
2.0
 31
0.0
  0
LINE
  5
3D6
100
AcDbEntity
  8
0
  6
CONTINUOUS
 62
               7
100
AcDbLine
 10
12.500000000000004
 20
7.0
 30
0.0
 11
12.499999999999996
 21
2.0
 31
0.0
  0
LINE
  5
3D7
100
AcDbEntity
  8
0
  6
CONTINUOUS
 62
               7
100
AcDbLine
 10
12.500000000000004
 20
7.0
 30
0.0
 11
9.5
 21
7.0
 31
0.0
  0
ARC
  5
3D8
100
AcDbEntity
  8
0
  6
CONTINUOUS
 62
               7
100
AcDbCircle
 10
8.1000000000000085
 20
15.300000000000011
 30
0.0
 40
2.0000000881710069
100
AcDbArc
 50
89.999999999999815
 51
269.99999999999937
  0
ARC
  5
3D9
100
AcDbEntity
  8
0
  6
CONTINUOUS
 62
               7
100
AcDbCircle
 10
13.900000000000009
 20
15.300000000000011
 30
0.0
 40
2.0000000881710069
100
AcDbArc
 50
270.00000000000023
 51
89.999999999999801
  0
LINE
  5
3DA
100
AcDbEntity
  8
0
  6
CONTINUOUS
 62
               7
100
AcDbLine
 10
8.1000000000000085
 20
17.300000000000011
 30
0.0
 11
13.900000000000009
 21
17.300000000000011
 31
0.0
  0
LINE
  5
3DB
100
AcDbEntity
  8
0
  6
CONTINUOUS
 62
               7
100
AcDbLine
 10
8.1000000000000085
 20
13.300000000000011
 30
0.0
 11
13.900000000000009
 21
13.300000000000011
 31
0.0
  0
LINE
  5
3DC
100
AcDbEntity
  8
0
  6
CONTINUOUS
 62
               7
100
AcDbLine
 10
9.1744863736471309
 20
24.050000000000011
 30
0.0
 11
12.825513626352876
 21
24.050000000000011
 31
0.0
  0
LINE
  5
3DD
100
AcDbEntity
  8
0
  6
CONTINUOUS
 62
               7
100
AcDbLine
 10
9.174486373647138
 20
23.449999999999989
 30
0.0
 11
12.825513626352876
 21
23.449999999999989
 31
0.0
  0
CIRCLE
  5
3DE
100
AcDbEntity
  8
0
  6
CONTINUOUS
 62
               7
100
AcDbCircle
 10
11.000000000000004
 20
23.75
 30
0.0
 40
1.8500000000000001
  0
ARC
  5
3DF
100
AcDbEntity
  8
0
  6
CONTINUOUS
 62
               7
100
AcDbCircle
 10
11.000000000000004
 20
23.75
 30
0.0
 40
0.8
100
AcDbArc
 50
202.02431283704175
 51
337.97568716295712
  0
ARC
  5
3E0
100
AcDbEntity
  8
0
  6
CONTINUOUS
 62
               7
100
AcDbCircle
 10
11.000000000000004
 20
23.75
 30
0.0
 40
0.8
100
AcDbArc
 50
22.024312837042157
 51
157.97568716295754
  0
CIRCLE
  5
3E1
100
AcDbEntity
  8
0
  6
CONTINUOUS
 62
               7
100
AcDbCircle
 10
14.500000000000004
 20
25.5
 30
0.0
 40
1.5
  0
LINE
  5
3E2
100
AcDbEntity
  8
0
  6
CONTINUOUS
 62
               7
100
AcDbLine
 10
15.207106781186557
 20
26.207106781186553
 30
0.0
 11
13.79289321881345
 21
24.792893218813447
 31
0.0
  0
LINE
  5
3E3
100
AcDbEntity
  8
0
  6
CONTINUOUS
 62
               7
100
AcDbLine
 10
15.207106781186557
 20
24.792893218813447
 30
0.0
 11
13.79289321881345
 21
26.207106781186553
 31
0.0
  0
LINE
  5
3E4
100
AcDbEntity
  8
0
  6
CONTINUOUS
 62
               7
100
AcDbLine
 10
6.7928932188134503
 20
24.792893218813447
 30
0.0
 11
8.2071067811865568
 21
26.207106781186553
 31
0.0
  0
LINE
  5
3E5
100
AcDbEntity
  8
0
  6
CONTINUOUS
 62
               7
100
AcDbLine
 10
6.7928932188134503
 20
26.207106781186553
 30
0.0
 11
8.2071067811865568
 21
24.792893218813447
 31
0.0
  0
CIRCLE
  5
3E6
100
AcDbEntity
  8
0
  6
CONTINUOUS
 62
               7
100
AcDbCircle
 10
7.5000000000000036
 20
25.5
 30
0.0
 40
1.5
  0
LINE
  5
3E7
100
AcDbEntity
  8
0
  6
CONTINUOUS
 62
               7
100
AcDbLine
 10
6.0000000000000036
 20
34.0
 30
0.0
 11
16.000000000000004
 21
34.0
 31
0.0
  0
LINE
  5
3E8
100
AcDbEntity
  8
0
  6
CONTINUOUS
 62
               7
100
AcDbLine
 10
6.0000000000000036
 20
19.5
 30
0.0
 11
6.0000000000000036
 21
53.500000000000057
 31
0.0
  0
CIRCLE
  5
3E9
100
AcDbEntity
  8
0
  6
CONTINUOUS
 62
               7
100
AcDbCircle
 10
7.5000000000000036
 20
45.499999999999886
 30
0.0
 40
1.5
  0
LINE
  5
3EA
100
AcDbEntity
  8
0
  6
CONTINUOUS
 62
               7
100
AcDbLine
 10
6.7928932188134503
 20
44.792893218813333
 30
0.0
 11
8.2071067811865568
 21
46.20710678118644
 31
0.0
  0
LINE
  5
3EB
100
AcDbEntity
  8
0
  6
CONTINUOUS
 62
               7
100
AcDbLine
 10
6.7928932188134503
 20
46.20710678118644
 30
0.0
 11
8.2071067811865568
 21
44.792893218813333
 31
0.0
  0
LINE
  5
3EC
100
AcDbEntity
  8
0
  6
CONTINUOUS
 62
               7
100
AcDbLine
 10
15.207106781186557
 20
46.20710678118644
 30
0.0
 11
13.79289321881345
 21
44.792893218813333
 31
0.0
  0
LINE
  5
3ED
100
AcDbEntity
  8
0
  6
CONTINUOUS
 62
               7
100
AcDbLine
 10
15.207106781186557
 20
44.792893218813333
 30
0.0
 11
13.79289321881345
 21
46.20710678118644
 31
0.0
  0
CIRCLE
  5
3EE
100
AcDbEntity
  8
0
  6
CONTINUOUS
 62
               7
100
AcDbCircle
 10
14.500000000000004
 20
45.499999999999886
 30
0.0
 40
1.5
  0
LINE
  5
3EF
100
AcDbEntity
  8
0
  6
CONTINUOUS
 62
               7
100
AcDbLine
 10
16.000000000000004
 20
36.999999999999886
 30
0.0
 11
6.0000000000000036
 21
36.999999999999886
 31
0.0
  0
LINE
  5
3F0
100
AcDbEntity
  8
0
  6
CONTINUOUS
 62
               7
100
AcDbLine
 10
5.9999999999999964
 20
50.499999999999943
 30
0.0
 11
16.0
 21
50.499999999999943
 31
0.0
  0
LINE
  5
3F1
100
AcDbEntity
  8
0
  6
CONTINUOUS
 62
               7
100
AcDbLine
 10
5.9999999999999964
 20
53.500000000000057
 30
0.0
 11
16.0
 21
53.500000000000057
 31
0.0
  0
LINE
  5
3F2
100
AcDbEntity
  8
0
  6
CONTINUOUS
 62
               7
100
AcDbLine
 10
8.7499999999999964
 20
56.199999999999989
 30
0.0
 11
15.249999999999996
 21
56.199999999999989
 31
0.0
  0
LINE
  5
3F3
100
AcDbEntity
  8
0
  6
CONTINUOUS
 62
               7
100
AcDbLine
 10
9.2499999999999964
 20
56.699999999999989
 30
0.0
 11
14.750000000000002
 21
56.699999999999989
 31
0.0
  0
LINE
  5
3F4
100
AcDbEntity
  8
0
  6
CONTINUOUS
 62
               7
100
AcDbLine
 10
15.250000000000002
 20
56.199999999999989
 30
0.0
 11
15.250000000000002
 21
53.500000000000057
 31
0.0
  0
LINE
  5
3F5
100
AcDbEntity
  8
0
  6
CONTINUOUS
 62
               7
100
AcDbLine
 10
8.7500000000000018
 20
56.199999999999989
 30
0.0
 11
8.7500000000000018
 21
53.500000000000057
 31
0.0
  0
LINE
  5
3F6
100
AcDbEntity
  8
0
  6
CONTINUOUS
 62
               7
100
AcDbLine
 10
8.7500000000000018
 20
56.199999999999989
 30
0.0
 11
9.2500000000000036
 21
56.699999999999989
 31
0.0
  0
LINE
  5
3F7
100
AcDbEntity
  8
0
  6
CONTINUOUS
 62
               7
100
AcDbLine
 10
15.250000000000002
 20
56.199999999999989
 30
0.0
 11
14.750000000000002
 21
56.699999999999989
 31
0.0
  0
LINE
  5
3F8
100
AcDbEntity
  8
0
  6
CENTER
 62
               2
100
AcDbLine
 10
12.000000000000002
 20
57.424796801798585
 30
0.0
 11
12.000000000000002
 21
52.872740512375721
 31
0.0
  0
ENDBLK
  5
3F9
100
AcDbEntity
  8
0
100
AcDbBlockEnd
  0
BLOCK
  5
410
100
AcDbEntity
  8
0
  6
ByBlock
 62
               0
100
AcDbBlockBegin
  2
_OPEN30
 70
               2
 10
0.0
 20
0.0
 30
0.0
  3
_OPEN30
  1

  0
LINE
  5
411
100
AcDbEntity
  8
0
  6
ByBlock
 62
               0
100
AcDbLine
 10
-1.0
 20
0.267949
 30
0.0
 11
0.0
 21
0.0
 31
0.0
  0
LINE
  5
412
100
AcDbEntity
  8
0
  6
ByBlock
 62
               0
100
AcDbLine
 10
0.0
 20
0.0
 30
0.0
 11
-1.0
 21
-0.267949
 31
0.0
  0
LINE
  5
413
100
AcDbEntity
  8
0
  6
ByBlock
 62
               0
100
AcDbLine
 10
0.0
 20
0.0
 30
0.0
 11
-1.0
 21
0.0
 31
0.0
  0
ENDBLK
  5
414
100
AcDbEntity
  8
0
  6
ByBlock
 62
               0
100
AcDbBlockEnd
  0
ENDSEC
  0
SECTION
  2
ENTITIES
  0
INSERT
  5
3FA
100
AcDbEntity
  8
0
  6
ByBlock
100
AcDbBlockReference
  2
MV090-05-F-1
 10
-113.53743763400877
 20
-46.819999999999993
 30
0.0
  0
INSERT
  5
3FB
100
AcDbEntity
  8
0
  6
ByBlock
100
AcDbBlockReference
  2
MV090-05-F-2
 10
-180.19654212259798
 20
-46.819999999999993
 30
0.0
  0
INSERT
  5
3FC
100
AcDbEntity
  8
0
  6
ByBlock
100
AcDbBlockReference
  2
MV090-05-F-3
 10
-83.878333145419589
 20
-46.819999999999993
 30
0.0
  0
INSERT
  5
3FD
100
AcDbEntity
  8
0
  6
ByBlock
100
AcDbBlockReference
  2
MV090-05-F-4
 10
46.4317142688476
 20
-46.819999999999993
 30
0.0
  0
INSERT
  5
3FE
100
AcDbEntity
  8
0
  6
ByBlock
100
AcDbBlockReference
  2
MV090-05-F-5
 10
121.2500785823421
 20
-46.819999999999993
 30
0.0
  0
INSERT
  5
3FF
100
AcDbEntity
  8
0
  6
ByBlock
100
AcDbBlockReference
  2
MV090-05-F-6
 10
237.80000305175781
 20
-46.819999999999993
 30
0.0
 50
359.99999999999903
  0
MTEXT
  5
400
100
AcDbEntity
  8
0
  6
CONTINUOUS
 62
               7
100
AcDbMText
 10
-268.26521744313845
 20
160.5
 30
0.0
 40
6.3000001907348633
 41
0.0
 71
               4
 72
               1
  1
\W1.081;\A1;MODEL:MV090-05-D(DA)-F-PL(ML)
  0
LINE
  5
401
100
AcDbEntity
  8
0
  6
CONTINUOUS
 62
               7
100
AcDbLine
 10
-281.25
 20
-195.0
 30
0.0
 11
282.099853515625
 21
-195.0
 31
0.0
  0
LINE
  5
402
100
AcDbEntity
  8
0
  6
CONTINUOUS
 62
               7
100
AcDbLine
 10
-281.25
 20
195.5
 30
0.0
 11
-281.25
 21
-195.0
 31
0.0
  0
LINE
  5
403
100
AcDbEntity
  8
0
  6
CONTINUOUS
 62
               7
100
AcDbLine
 10
-281.25
 20
195.5
 30
0.0
 11
282.099853515625
 21
195.5
 31
0.0
  0
LINE
  5
404
100
AcDbEntity
  8
0
  6
CONTINUOUS
 62
               7
100
AcDbLine
 10
282.099853515625
 20
195.5
 30
0.0
 11
282.099853515625
 21
-195.0
 31
0.0
  0
LINE
  5
405
100
AcDbEntity
  8
0
  6
CONTINUOUS
 62
               7
100
AcDbLine
 10
162.0999755859375
 20
195.5
 30
0.0
 11
162.0999755859375
 21
175.5
 31
0.0
  0
LINE
  5
406
100
AcDbEntity
  8
0
  6
CONTINUOUS
 62
               7
100
AcDbLine
 10
162.0999755859375
 20
175.5
 30
0.0
 11
282.099853515625
 21
175.5
 31
0.0
  0
MTEXT
  5
407
100
AcDbEntity
  8
0
  6
CONTINUOUS
 62
               7
100
AcDbMText
 10
198.31570519064027
 20
185.5
 30
0.0
 40
6.3000001907348633
 41
0.0
 71
               4
 72
               1
  1
\W1.348;\A1;Ver. 1.1
  0
MTEXT
  5
408
100
AcDbEntity
  8
0
  6
CONTINUOUS
 62
               7
100
AcDbMText
 10
170.28099805280428
 20
-185.0
 30
0.0
 40
9.0
 41
0.0
 71
               4
 72
               1
  1
\W1.121;\A1;KOGANEI CORP.
  0
LINE
  5
409
100
AcDbEntity
  8
0
  6
CONTINUOUS
 62
               7
100
AcDbLine
 10
162.0999755859375
 20
-175.0
 30
0.0
 11
282.099853515625
 21
-175.0
 31
0.0
  0
LINE
  5
40A
100
AcDbEntity
  8
0
  6
CONTINUOUS
 62
               7
100
AcDbLine
 10
162.0999755859375
 20
-175.0
 30
0.0
 11
162.0999755859375
 21
-195.0
 31
0.0
  0
LINE
  5
40B
100
AcDbEntity
  8
0
  6
CONTINUOUS
 62
               7
100
AcDbLine
 10
-161.25
 20
195.5
 30
0.0
 11
-161.25
 21
175.5
 31
0.0
  0
LINE
  5
40C
100
AcDbEntity
  8
0
  6
CONTINUOUS
 62
               7
100
AcDbLine
 10
-281.25
 20
175.5
 30
0.0
 11
-161.25
 21
175.5
 31
0.0
  0
MTEXT
  5
40D
100
AcDbEntity
  8
0
  6
CONTINUOUS
 62
               7
100
AcDbMText
 10
-273.74170118739892
 20
185.5
 30
0.0
 40
6.3000001907348633
 41
0.0
 71
               4
 72
               1
  1
\W1.008;\A1;VACUUM VALVE UNIT
  0
MTEXT
  5
40E
100
AcDbEntity
  8
0
  6
CONTINUOUS
 62
               2
100
AcDbMText
 10
-109.73987273408736
 20
-6.6733694200705713
 30
0.0
 40
4.5
 41
0.0
 71
               4
 72
               1
  1
\A1;MV-21
  0
LEADER
  5
415
100
AcDbEntity
  8
0
  6
CONTINUOUS
 62
               2
100
AcDbLeader
  3
MXDIMSTYLE
 73
               3
 74
               0
 75
               0
 40
0.0
 76
               3
 10
-117.93743763400877
 20
-24.319999999999993
 30
0.0
 10
-110.43743763400877
 20
-11.329618943233413
 30
0.0
 10
-87.239872734087356
 20
-11.329618943233413
 30
0.0
 77
               2
1001
ACAD
1000
DSTYLE
1002
{
1070
               6
1000
_OPEN30
1070
               7
1000
_OPEN30
1070
              41
1040
2.77
1070
             173
1070
               1
1070
             341
1005
40F
1002
}
  0
MTEXT
  5
416
100
AcDbEntity
  8
0
  6
CONTINUOUS
 62
               7
100
AcDbMText
 10
-230.4767430951413
 20
153.65000012914339
 30
0.0
 40
6.3000001907348633
 41
0.0
 71
               1
 72
               1
  1
\W1.070;\A1;MV090-06-D(DA)-F-PL(ML)
  0
MTEXT
  5
417
100
AcDbEntity
  8
0
  6
CONTINUOUS
 62
               7
100
AcDbMText
 10
107.29339825527978
 20
160.5
 30
0.0
 40
6.3000001907348633
 41
0.0
 71
               4
 72
               1
  1
\W1.073;\A1;MODEL:MV090-05-D(DA)-F
  0
MTEXT
  5
418
100
AcDbEntity
  8
0
  6
CONTINUOUS
 62
               7
100
AcDbMText
 10
145.07426235828629
 20
153.65000012914339
 30
0.0
 40
6.3000001907348633
 41
0.0
 71
               1
 72
               1
  1
\W1.055;\A1;MV090-06-D(DA)-F
  0
LINE
  5
419
100
AcDbEntity
  8
0
  6
CONTINUOUS
 62
               7
100
AcDbLine
 10
94.316569010416686
 20
195.5
 30
0.0
 11
94.316569010416686
 21
-195.0
 31
0.0
  0
ENDSEC
  0
SECTION
  2
OBJECTS
  0
DICTIONARY
  5
19
100
AcDbDictionary
  3
ACAD_GROUP
350
1A
  3
ACAD_MLINESTYLE
350
1B
  0
DICTIONARY
  5
1A
102
{ACAD_REACTORS
330
19
102
}
100
AcDbDictionary
  0
DICTIONARY
  5
1B
102
{ACAD_REACTORS
330
19
102
}
100
AcDbDictionary
  3
STANDARD
350
1C
  0
MLINESTYLE
  5
1C
102
{ACAD_REACTORS
330
1B
102
}
100
AcDbMlineStyle
  2
Standard
 70
               0
  3

 62
               0
 51
90.0
 52
90.0
 71
               2
 49
0.5
 62
             256
  6
ByLayer
 49
-0.5
 62
             256
  6
ByLayer
  0
ENDSEC
  0
EOF
