  0
SECTION
  2
HEADER
  9
$ACADVER
  1
AC1012
  9
$DWGCODEPAGE
  3
dos932
  9
$INSBASE
 10
0.0
 20
0.0
 30
0.0
  9
$EXTMIN
 10
-194.25
 20
-133.5
 30
0.0
  9
$EXTMAX
 10
196.2723600854633
 20
132.60000610351562
 30
0.0
  9
$LIMMIN
 10
-194.25
 20
-133.5
  9
$LIMMAX
 10
196.2723600854633
 20
132.60000610351562
  9
$ORTHOMODE
 70
               0
  9
$REGENMODE
 70
               1
  9
$FILLMODE
 70
               1
  9
$QTEXTMODE
 70
               0
  9
$MIRRTEXT
 70
               1
  9
$DRAGMODE
 70
               2
  9
$LTSCALE
 40
1.0
  9
$OSMODE
 70
               0
  9
$ATTMODE
 70
               1
  9
$TEXTSIZE
 40
3.2000000476837158
  9
$TRACEWID
 40
0.05
  9
$TEXTSTYLE
  7
MX_NOTE_STANDARD
  9
$CLAYER
  8
0
  9
$CELTYPE
  6
CONTINUOUS
  9
$CECOLOR
 62
             256
  9
$CELTSCALE
 40
1.0
  9
$DELOBJ
 70
               1
  9
$DISPSILH
 70
               0
  9
$DIMSCALE
 40
1.0
  9
$DIMASZ
 40
2.5
  9
$DIMEXO
 40
1.5
  9
$DIMDLI
 40
3.75
  9
$DIMRND
 40
0.0
  9
$DIMDLE
 40
0.0
  9
$DIMEXE
 40
1.5
  9
$DIMTP
 40
0.0
  9
$DIMTM
 40
0.0
  9
$DIMTXT
 40
3.2000000476837158
  9
$DIMCEN
 40
2.5
  9
$DIMTSZ
 40
0.0
  9
$DIMTOL
 70
               0
  9
$DIMLIM
 70
               0
  9
$DIMTIH
 70
               0
  9
$DIMTOH
 70
               0
  9
$DIMSE1
 70
               0
  9
$DIMSE2
 70
               0
  9
$DIMTAD
 70
               1
  9
$DIMZIN
 70
               8
  9
$DIMBLK
  1

  9
$DIMASO
 70
               1
  9
$DIMSHO
 70
               1
  9
$DIMPOST
  1

  9
$DIMAPOST
  1

  9
$DIMALT
 70
               0
  9
$DIMALTD
 70
               4
  9
$DIMALTF
 40
0.03937007874016
  9
$DIMLFAC
 40
1.0
  9
$DIMTOFL
 70
               1
  9
$DIMTVP
 40
0.0
  9
$DIMTIX
 70
               0
  9
$DIMSOXD
 70
               0
  9
$DIMSAH
 70
               0
  9
$DIMBLK1
  1

  9
$DIMBLK2
  1

  9
$DIMSTYLE
  2
MXDIMSTYLE
  9
$DIMCLRD
 70
               0
  9
$DIMCLRE
 70
               0
  9
$DIMCLRT
 70
               0
  9
$DIMTFAC
 40
1.0
  9
$DIMGAP
 40
1.0
  9
$DIMJUST
 70
               0
  9
$DIMSD1
 70
               0
  9
$DIMSD2
 70
               0
  9
$DIMTOLJ
 70
               1
  9
$DIMTZIN
 70
               0
  9
$DIMALTZ
 70
               0
  9
$DIMALTTZ
 70
               0
  9
$DIMFIT
 70
               3
  9
$DIMUPT
 70
               1
  9
$DIMUNIT
 70
               2
  9
$DIMDEC
 70
               4
  9
$DIMTDEC
 70
               4
  9
$DIMALTU
 70
               2
  9
$DIMALTTD
 70
               4
  9
$DIMTXSTY
  7
MX_NOTE_STANDARD
  9
$DIMAUNIT
 70
               0
  9
$LUNITS
 70
               2
  9
$LUPREC
 70
               4
  9
$SKETCHINC
 40
0.1
  9
$FILLETRAD
 40
0.0
  9
$AUNITS
 70
               0
  9
$AUPREC
 70
               0
  9
$MENU
  1
acad
  9
$ELEVATION
 40
0.0
  9
$PELEVATION
 40
0.0
  9
$THICKNESS
 40
0.0
  9
$LIMCHECK
 70
               0
  9
$BLIPMODE
 70
               1
  9
$CHAMFERA
 40
0.0
  9
$CHAMFERB
 40
0.0
  9
$CHAMFERC
 40
0.0
  9
$CHAMFERD
 40
0.0
  9
$SKPOLY
 70
               0
  9
$TDCREATE
 40
2453378.356736111
  9
$TDUPDATE
 40
2453378.356736111
  9
$TDINDWG
 40
0.0000000000
  9
$TDUSRTIMER
 40
0.0000000000
  9
$USRTIMER
 70
               1
  9
$ANGBASE
 50
0.0
  9
$ANGDIR
 70
               0
  9
$PDMODE
 70
               0
  9
$PDSIZE
 40
0.0
  9
$PLINEWID
 40
0.0
  9
$COORDS
 70
               1
  9
$SPLFRAME
 70
               0
  9
$SPLINETYPE
 70
               6
  9
$SPLINESEGS
 70
               8
  9
$ATTDIA
 70
               0
  9
$ATTREQ
 70
               1
  9
$HANDLING
 70
               1
  9
$HANDSEED
  5
3A4
  9
$SURFTAB1
 70
               6
  9
$SURFTAB2
 70
               6
  9
$SURFTYPE
 70
               6
  9
$SURFU
 70
               6
  9
$SURFV
 70
               6
  9
$UCSNAME
  2

  9
$UCSORG
 10
0.0
 20
0.0
 30
0.0
  9
$UCSXDIR
 10
1.0
 20
0.0
 30
0.0
  9
$UCSYDIR
 10
0.0
 20
1.0
 30
0.0
  9
$PUCSNAME
  2

  9
$PUCSORG
 10
0.0
 20
0.0
 30
0.0
  9
$PUCSXDIR
 10
1.0
 20
0.0
 30
0.0
  9
$PUCSYDIR
 10
0.0
 20
1.0
 30
0.0
  9
$USERI1
 70
               0
  9
$USERI2
 70
               0
  9
$USERI3
 70
               0
  9
$USERI4
 70
               0
  9
$USERI5
 70
               0
  9
$USERR1
 40
0.0
  9
$USERR2
 40
0.0
  9
$USERR3
 40
0.0
  9
$USERR4
 40
0.0
  9
$USERR5
 40
0.0
  9
$WORLDVIEW
 70
               1
  9
$SHADEDGE
 70
               3
  9
$SHADEDIF
 70
              70
  9
$TILEMODE
 70
               1
  9
$MAXACTVP
 70
              16
  9
$PINSBASE
 10
0.0
 20
0.0
 30
0.0
  9
$PLIMCHECK
 70
               0
  9
$PEXTMIN
 10
1.0000000000000000E+20
 20
1.0000000000000000E+20
 30
1.0000000000000000E+20
  9
$PEXTMAX
 10
-1.0000000000000000E+20
 20
-1.0000000000000000E+20
 30
-1.0000000000000000E+20
  9
$PLIMMIN
 10
0.0
 20
0.0
  9
$PLIMMAX
 10
12.0
 20
9.0
  9
$UNITMODE
 70
               0
  9
$VISRETAIN
 70
               0
  9
$PLINEGEN
 70
               1
  9
$PSLTSCALE
 70
               0
  9
$TREEDEPTH
 70
            3020
  9
$PICKSTYLE
 70
               1
  9
$CMLSTYLE
  2
Standard
  9
$CMLJUST
 70
               0
  9
$CMLSCALE
 40
1.0
  9
$SAVEIMAGES
 70
               0
  0
ENDSEC
  0
SECTION
  2
CLASSES
  0
CLASS
  1
LWPOLYLINE
  2
AcDbPolyline
  3
"AutoCAD"
 90
        0
280
               0
281
               1
  0
CLASS
  1
IMAGE
  2
AcDbRasterImage
  3
ISM
 90
      127
280
               0
281
               1
  0
CLASS
  1
OLE2FRAME
  2
AcDbOle2Frame
  3
""
 90
        0
280
               0
281
               1
  0
CLASS
  1
HATCH
  2
AcDbHatch
  3
"ACAD_SEDONA"
 90
        0
280
               0
281
               1
  0
CLASS
  1
DICTIONARYVAR
  2
AcDbDictionaryVar
  3
"AutoCAD"
 90
        0
280
               0
281
               0
  0
CLASS
  1
RASTERVARIABLES
  2
AcDbRasterVariables
  3
ISM
 90
        0
280
               0
281
               0
  0
CLASS
  1
IMAGEDEF
  2
AcDbRasterImageDef
  3
ISM
 90
        0
280
               0
281
               0
  0
CLASS
  1
IMAGEDEF_REACTOR
  2
AcDbRasterImageDefReactor
  3
ISM
 90
        1
280
               0
281
               0
  0
CLASS
  1
IDBUFFER
  2
AcDbIdBuffer
  3
"Acad"
 90
        0
280
               0
281
               0
  0
CLASS
  1
SPATIAL_FILTER
  2
AcDbSpatialFilter
  3
"Acad"
 90
        0
280
               0
281
               0
  0
CLASS
  1
XRECORD
  2
AcDbXrecord
  3
"<Built In>"
 90
        0
280
               0
281
               0
  0
CLASS
  1
SORTENTSTABLE
  2
AcDbSortentsTable
  3
"AutoCAD"
 90
        0
280
               0
281
               0
  0
CLASS
  1
LAYER_INDEX
  2
AcDbLayerIndex
  3
"Acad"
 90
        0
280
               0
281
               0
  0
CLASS
  1
SPATIAL_INDEX
  2
AcDbSpatialIndex
  3
"Acad"
 90
        0
280
               0
281
               0
  0
CLASS
  1
OBJECT_PTR
  2
CAseDLPNTableRecord
  3
"ASE-LPNTableRecord"
 90
        1
280
               0
281
               0
  0
CLASS
  1
LAYOUT
  2
AcDbLayout
  3
"AutoCAD 2000"
 90
        1
280
               0
281
               0
  0
CLASS
  1
PLOTSETTINGS
  2
AcDbPlotSettings
  3
"AutoCAD 2000"
 90
        1
280
               0
281
               0
  0
CLASS
  1
ACDBDICTIONARYWDFLT
  2
AcDbDictionaryWithDefault
  3
"AutoCAD 2000"
 90
        1
280
               0
281
               0
  0
CLASS
  1
ACDBPLACEHOLDER
  2
AcDbPlaceHolder
  3
"AutoCAD 2000"
 90
        1
280
               0
281
               0
  0
ENDSEC
  0
SECTION
  2
TABLES
  0
TABLE
  2
VPORT
  5
7
100
AcDbSymbolTable
 70
               1
  0
VPORT
  5
15
100
AcDbSymbolTableRecord
100
AcDbViewportTableRecord
  2
*ACTIVE
 70
               0
 10
0.0
 20
0.0
 11
1.0
 21
1.0
 12
1.0111800427316666
 22
-0.4499969482421875
 13
0.0
 23
0.0
 14
1.0
 24
1.0
 15
0.0
 25
0.0
 16
0.0
 26
0.0
 36
1.0
 17
0.0
 27
0.0
 37
0.0
 40
268.76100616455079
 41
1.7320508075688772
 42
50.0
 43
0.0
 44
0.0
 50
0.0
 51
0.0
 71
               0
 72
             100
 73
               1
 74
               1
 75
               0
 76
               0
 77
               0
 78
               0
  0
ENDTAB
  0
TABLE
  2
LTYPE
  5
4
100
AcDbSymbolTable
 70
               6
  0
LTYPE
  5
11
100
AcDbSymbolTableRecord
100
AcDbLinetypeTableRecord
  2
BYBLOCK
 70
              64
  3

 72
              65
 73
               0
 40
0.0
  0
LTYPE
  5
12
100
AcDbSymbolTableRecord
100
AcDbLinetypeTableRecord
  2
BYLAYER
 70
              64
  3

 72
              65
 73
               0
 40
0.0
  0
LTYPE
  5
13
100
AcDbSymbolTableRecord
100
AcDbLinetypeTableRecord
  2
CONTINUOUS
 70
              64
  3
Solid line
 72
              65
 73
               0
 40
0.0
  0
LTYPE
  5
24
100
AcDbSymbolTableRecord
100
AcDbLinetypeTableRecord
  2
CENTER
 70
              64
  3
Center ____ _ ____ _ ____ _ ____ _ ____ _ ____
 72
              65
 73
               4
 40
26.0
 49
20.0
 74
               0
 49
-2.0
 74
               0
 49
2.0
 74
               0
 49
-2.0
 74
               0
  0
LTYPE
  5
2A
100
AcDbSymbolTableRecord
100
AcDbLinetypeTableRecord
  2
DASHED
 70
              64
  3
Dashed __ __ __ __ __ __ __ __ __ __ __ __ __ _
 72
              65
 73
               2
 40
4.0
 49
2.0
 74
               0
 49
-2.0
 74
               0
  0
LTYPE
  5
99
100
AcDbSymbolTableRecord
100
AcDbLinetypeTableRecord
  2
PHANTOM
 70
              64
  3
Phantom ______  __  __  ______  __  __  ______
 72
              65
 73
               6
 40
30.0
 49
20.0
 74
               0
 49
-2.0
 74
               0
 49
2.0
 74
               0
 49
-2.0
 74
               0
 49
2.0
 74
               0
 49
-2.0
 74
               0
  0
ENDTAB
  0
TABLE
  2
LAYER
  5
2
100
AcDbSymbolTable
 70
               2
  0
LAYER
  5
14
100
AcDbSymbolTableRecord
100
AcDbLayerTableRecord
  2
0
 70
               0
 62
               7
  6
CONTINUOUS
  0
LAYER
  5
1D
100
AcDbSymbolTableRecord
100
AcDbLayerTableRecord
  2
DEFPOINTS
 70
               0
 62
               7
  6
CONTINUOUS
  0
ENDTAB
  0
TABLE
  2
STYLE
  5
3
100
AcDbSymbolTable
 70
               1
  0
STYLE
  5
17
100
AcDbSymbolTableRecord
100
AcDbTextStyleTableRecord
  2
MX_NOTE_STANDARD
 70
               0
 40
0.0
 41
1.0
 50
0.0
 71
               0
 42
3.2000000476837158
  3
txt.shx
  4
extfont.shx
  0
ENDTAB
  0
TABLE
  2
VIEW
  5
5
100
AcDbSymbolTable
 70
               0
  0
ENDTAB
  0
TABLE
  2
UCS
  5
6
100
AcDbSymbolTable
 70
               0
  0
ENDTAB
  0
TABLE
  2
APPID
  5
8
100
AcDbSymbolTable
 70
               1
  0
APPID
  5
16
100
AcDbSymbolTableRecord
100
AcDbRegAppTableRecord
  2
ACAD
 70
               0
  0
ENDTAB
  0
TABLE
  2
DIMSTYLE
  5
9
100
AcDbSymbolTable
 70
               1
  0
DIMSTYLE
105
18
100
AcDbSymbolTableRecord
100
AcDbDimStyleTableRecord
  2
MXDIMSTYLE
 70
               0
  3

  4

  5

  6

  7

 40
1.0
 41
2.5
 42
1.5
 43
3.75
 44
1.5
 45
0.0
 46
0.0
 47
0.0
 48
0.0
 71
               0
 72
               0
 73
               0
 74
               0
 75
               0
 76
               0
 77
               1
 78
               8
140
3.2000000476837158
141
2.5
142
0.0
143
0.03937007874016
144
1.0
145
0.0
146
1.0
147
1.0
170
               0
171
               4
172
               1
173
               0
174
               0
175
               0
176
               0
177
               0
178
               0
270
               2
271
               4
272
               4
273
               2
274
               4
275
               0
280
               0
281
               0
282
               0
283
               1
284
               0
285
               0
286
               0
287
               3
288
               1
340
17
  0
ENDTAB
  0
TABLE
  2
BLOCK_RECORD
  5
1
100
AcDbSymbolTable
 70
               6
  0
BLOCK_RECORD
  5
A
100
AcDbSymbolTableRecord
100
AcDbBlockTableRecord
  2
*MODEL_SPACE
  0
BLOCK_RECORD
  5
B
100
AcDbSymbolTableRecord
100
AcDbBlockTableRecord
  2
*PAPER_SPACE
  0
BLOCK_RECORD
  5
1E
100
AcDbSymbolTableRecord
100
AcDbBlockTableRecord
  2
MV090-01-1
  0
BLOCK_RECORD
  5
1F
100
AcDbSymbolTableRecord
100
AcDbBlockTableRecord
  2
MV090-01-2
  0
BLOCK_RECORD
  5
20
100
AcDbSymbolTableRecord
100
AcDbBlockTableRecord
  2
MV090-01-3
  0
BLOCK_RECORD
  5
21
100
AcDbSymbolTableRecord
100
AcDbBlockTableRecord
  2
MV090-01-4
  0
BLOCK_RECORD
  5
22
100
AcDbSymbolTableRecord
100
AcDbBlockTableRecord
  2
MV090-01-5
  0
BLOCK_RECORD
  5
38F
100
AcDbSymbolTableRecord
100
AcDbBlockTableRecord
  2
_OPEN30
  0
ENDTAB
  0
ENDSEC
  0
SECTION
  2
BLOCKS
  0
BLOCK
  5
D
100
AcDbEntity
  8
0
100
AcDbBlockBegin
  2
*MODEL_SPACE
 70
               0
 10
0.0
 20
0.0
 30
0.0
  3
*MODEL_SPACE
  1

  0
ENDBLK
  5
E
100
AcDbEntity
  8
0
100
AcDbBlockEnd
  0
BLOCK
  5
F
100
AcDbEntity
 67
               1
  8
0
100
AcDbBlockBegin
  2
*PAPER_SPACE
 70
               0
 10
0.0
 20
0.0
 30
0.0
  3
*PAPER_SPACE
  1

  0
ENDBLK
  5
10
100
AcDbEntity
 67
               1
  8
0
100
AcDbBlockEnd
  0
BLOCK
  5
23
100
AcDbEntity
  8
0
100
AcDbBlockBegin
  2
MV090-01-1
 70
               0
 10
0.0
 20
0.0
 30
0.0
  3
MV090-01-1
  1

  0
LINE
  5
25
100
AcDbEntity
  8
0
  6
CENTER
 62
             200
100
AcDbLine
 10
0.0
 20
-1.6999999999999886
 30
0.0
 11
0.0
 21
3.3000000000000114
 31
0.0
  0
LINE
  5
26
100
AcDbEntity
  8
0
  6
CENTER
 62
             200
100
AcDbLine
 10
-7.7000000000000171
 20
18.0
 30
0.0
 11
-0.4512971541956006
 21
18.0
 31
0.0
  0
LINE
  5
27
100
AcDbEntity
  8
0
  6
CENTER
 62
             200
100
AcDbLine
 10
-7.7000000000000171
 20
6.0
 30
0.0
 11
-0.4512971541956006
 21
6.0
 31
0.0
  0
ARC
  5
28
100
AcDbEntity
  8
0
  6
CONTINUOUS
 62
               4
100
AcDbCircle
 10
-5.5
 20
0.5
 30
0.0
 40
0.5
100
AcDbArc
 50
179.99999999999963
 51
269.99999999999937
  0
ARC
  5
29
100
AcDbEntity
  8
0
  6
CONTINUOUS
 62
               4
100
AcDbCircle
 10
-4.0
 20
2.0
 30
0.0
 40
0.4
100
AcDbArc
 50
179.99999999999963
 51
269.99999999999937
  0
ARC
  5
2B
100
AcDbEntity
  8
0
  6
DASHED
 62
             200
100
AcDbCircle
 10
-4.0
 20
2.0
 30
0.0
 40
2.0
100
AcDbArc
 50
179.99999999999963
 51
269.99999999999937
  0
ARC
  5
2C
100
AcDbEntity
  8
0
  6
CONTINUOUS
 62
               4
100
AcDbCircle
 10
3.5
 20
0.5
 30
0.0
 40
0.5
100
AcDbArc
 50
269.99999999999937
 51
0.0
  0
ARC
  5
2D
100
AcDbEntity
  8
0
  6
CONTINUOUS
 62
               4
100
AcDbCircle
 10
3.5
 20
1.0999999999999943
 30
0.0
 40
0.5
100
AcDbArc
 50
0.0
 51
89.999999999999815
  0
ARC
  5
2E
100
AcDbEntity
  8
0
  6
CONTINUOUS
 62
               4
100
AcDbCircle
 10
-4.9000000000000057
 20
22.5
 30
0.0
 40
0.5
100
AcDbArc
 50
0.0
 51
89.999999999999815
  0
ARC
  5
2F
100
AcDbEntity
  8
0
  6
CONTINUOUS
 62
               4
100
AcDbCircle
 10
-5.5
 20
22.5
 30
0.0
 40
0.5
100
AcDbArc
 50
89.999999999999815
 51
179.99999999999963
  0
LINE
  5
30
100
AcDbEntity
  8
0
  6
CONTINUOUS
 62
               4
100
AcDbLine
 10
-5.5
 20
23.0
 30
0.0
 11
-4.9000000000000057
 21
23.0
 31
0.0
  0
LINE
  5
31
100
AcDbEntity
  8
0
  6
CONTINUOUS
 62
               4
100
AcDbLine
 10
3.5
 20
1.5999999999999943
 30
0.0
 11
-5.9595917942265544
 21
1.5999999999999943
 31
0.0
  0
LINE
  5
32
100
AcDbEntity
  8
0
  6
CONTINUOUS
 62
               4
100
AcDbLine
 10
3.5
 20
0.0
 30
0.0
 11
-5.5
 21
0.0
 31
0.0
  0
LINE
  5
33
100
AcDbEntity
  8
0
  6
CONTINUOUS
 62
               4
100
AcDbLine
 10
-4.4000000000000057
 20
22.5
 30
0.0
 11
-4.4000000000000057
 21
2.0
 31
0.0
  0
LINE
  5
34
100
AcDbEntity
  8
0
  6
CONTINUOUS
 62
               4
100
AcDbLine
 10
-6.0
 20
0.5
 30
0.0
 11
-6.0
 21
4.0
 31
0.0
  0
LINE
  5
35
100
AcDbEntity
  8
0
  6
CONTINUOUS
 62
               4
100
AcDbLine
 10
4.0
 20
1.0999999999999943
 30
0.0
 11
4.0
 21
0.5
 31
0.0
  0
LINE
  5
36
100
AcDbEntity
  8
0
  6
CONTINUOUS
 62
               4
100
AcDbLine
 10
-2.0500000000000114
 20
20.25
 30
0.0
 11
-1.8000000000000114
 21
20.0
 31
0.0
  0
LINE
  5
37
100
AcDbEntity
  8
0
  6
CONTINUOUS
 62
               4
100
AcDbLine
 10
-2.0500000000000114
 20
15.75
 30
0.0
 11
-1.8000000000000114
 21
16.0
 31
0.0
  0
LINE
  5
38
100
AcDbEntity
  8
0
  6
CONTINUOUS
 62
               4
100
AcDbLine
 10
-2.0500000000000114
 20
20.25
 30
0.0
 11
-2.0500000000000114
 21
15.75
 31
0.0
  0
LINE
  5
39
100
AcDbEntity
  8
0
  6
CONTINUOUS
 62
               4
100
AcDbLine
 10
-1.8000000000000114
 20
20.0
 30
0.0
 11
-1.8000000000000114
 21
16.0
 31
0.0
  0
LINE
  5
3A
100
AcDbEntity
  8
0
  6
CONTINUOUS
 62
               4
100
AcDbLine
 10
-2.0500000000000114
 20
20.25
 30
0.0
 11
-4.4000000000000057
 21
20.25
 31
0.0
  0
LINE
  5
3B
100
AcDbEntity
  8
0
  6
CONTINUOUS
 62
               4
100
AcDbLine
 10
-2.0500000000000114
 20
15.75
 30
0.0
 11
-4.4000000000000057
 21
15.75
 31
0.0
  0
LINE
  5
3C
100
AcDbEntity
  8
0
  6
CONTINUOUS
 62
               4
100
AcDbLine
 10
-2.0500000000000114
 20
3.75
 30
0.0
 11
-4.4000000000000057
 21
3.75
 31
0.0
  0
LINE
  5
3D
100
AcDbEntity
  8
0
  6
CONTINUOUS
 62
               4
100
AcDbLine
 10
-2.0500000000000114
 20
8.25
 30
0.0
 11
-4.4000000000000057
 21
8.25
 31
0.0
  0
LINE
  5
3E
100
AcDbEntity
  8
0
  6
CONTINUOUS
 62
               4
100
AcDbLine
 10
-1.8000000000000114
 20
8.0
 30
0.0
 11
-1.8000000000000114
 21
4.0
 31
0.0
  0
LINE
  5
3F
100
AcDbEntity
  8
0
  6
CONTINUOUS
 62
               4
100
AcDbLine
 10
-2.0500000000000114
 20
8.25
 30
0.0
 11
-2.0500000000000114
 21
3.75
 31
0.0
  0
LINE
  5
40
100
AcDbEntity
  8
0
  6
CONTINUOUS
 62
               4
100
AcDbLine
 10
-2.0500000000000114
 20
3.75
 30
0.0
 11
-1.8000000000000114
 21
4.0
 31
0.0
  0
LINE
  5
41
100
AcDbEntity
  8
0
  6
CONTINUOUS
 62
               4
100
AcDbLine
 10
-2.0500000000000114
 20
8.25
 30
0.0
 11
-1.8000000000000114
 21
8.0
 31
0.0
  0
CIRCLE
  5
42
100
AcDbEntity
  8
0
  6
CONTINUOUS
 62
               2
100
AcDbCircle
 10
-9.0000000000000284
 20
43.000000000000014
 30
0.0
 40
2.5
  0
CIRCLE
  5
43
100
AcDbEntity
  8
0
  6
CONTINUOUS
 62
               7
100
AcDbCircle
 10
-9.0000000000000284
 20
43.000000000000014
 30
0.0
 40
2.1000000000000001
  0
CIRCLE
  5
44
100
AcDbEntity
  8
0
  6
CONTINUOUS
 62
               2
100
AcDbCircle
 10
-9.0000000000000853
 20
31.497447365852025
 30
0.0
 40
2.5
  0
CIRCLE
  5
45
100
AcDbEntity
  8
0
  6
CONTINUOUS
 62
               7
100
AcDbCircle
 10
-9.0000000000000853
 20
31.497447365852025
 30
0.0
 40
2.1000000000000001
  0
LINE
  5
46
100
AcDbEntity
  8
0
  6
CENTER
 62
               2
100
AcDbLine
 10
-9.0000000000000853
 20
34.496770383476644
 30
0.0
 11
-9.0000000000000853
 21
27.997447365852025
 31
0.0
  0
LINE
  5
47
100
AcDbEntity
  8
0
  6
CENTER
 62
               2
100
AcDbLine
 10
-5.5020691189308906
 20
31.497447365852025
 30
0.0
 11
-12.200000000000017
 21
31.497447365852025
 31
0.0
  0
LINE
  5
48
100
AcDbEntity
  8
0
  6
CONTINUOUS
 62
               7
100
AcDbLine
 10
-7.5
 20
46.300000000000026
 30
0.0
 11
-6.0
 21
46.300000000000026
 31
0.0
  0
LINE
  5
49
100
AcDbEntity
  8
0
  6
CONTINUOUS
 62
               7
100
AcDbLine
 10
-7.5
 20
49.700000000000031
 30
0.0
 11
-6.0
 21
49.700000000000031
 31
0.0
  0
ARC
  5
4A
100
AcDbEntity
  8
0
  6
CONTINUOUS
 62
               7
100
AcDbCircle
 10
-7.5
 20
48.000000000000028
 30
0.0
 40
1.7
100
AcDbArc
 50
89.999999999999815
 51
269.99999999999937
  0
LINE
  5
4B
100
AcDbEntity
  8
0
  6
CONTINUOUS
 62
               7
100
AcDbLine
 10
-14.5
 20
25.800000000000026
 30
0.0
 11
-16.0
 21
25.800000000000026
 31
0.0
  0
LINE
  5
4C
100
AcDbEntity
  8
0
  6
CONTINUOUS
 62
               7
100
AcDbLine
 10
-14.5
 20
29.200000000000031
 30
0.0
 11
-16.0
 21
29.200000000000031
 31
0.0
  0
ARC
  5
4D
100
AcDbEntity
  8
0
  6
CONTINUOUS
 62
               7
100
AcDbCircle
 10
-14.5
 20
27.500000000000028
 30
0.0
 40
1.7
100
AcDbArc
 50
269.99999999999937
 51
89.999999999999801
  0
LINE
  5
4E
100
AcDbEntity
  8
0
  6
CENTER
 62
               2
100
AcDbLine
 10
-7.0
 20
11.000000000000014
 30
0.0
 11
-13.0
 21
11.000000000000014
 31
0.0
  0
LINE
  5
4F
100
AcDbEntity
  8
0
  6
CENTER
 62
               2
100
AcDbLine
 10
-10.0
 20
8.0000000000000142
 30
0.0
 11
-10.0
 21
14.000000000000014
 31
0.0
  0
CIRCLE
  5
50
100
AcDbEntity
  8
0
  6
CONTINUOUS
 62
               2
100
AcDbCircle
 10
-10.0
 20
11.000000000000014
 30
0.0
 40
2.5
  0
CIRCLE
  5
51
100
AcDbEntity
  8
0
  6
CONTINUOUS
 62
               7
100
AcDbCircle
 10
-10.0
 20
11.000000000000014
 30
0.0
 40
2.1000000000000001
  0
LINE
  5
52
100
AcDbEntity
  8
0
  6
CENTER
 62
               2
100
AcDbLine
 10
-12.5
 20
18.0
 30
0.0
 11
-12.5
 21
24.0
 31
0.0
  0
LINE
  5
53
100
AcDbEntity
  8
0
  6
CENTER
 62
               2
100
AcDbLine
 10
-9.4293392467492225
 20
21.0
 30
0.0
 11
-15.5
 21
21.0
 31
0.0
  0
CIRCLE
  5
54
100
AcDbEntity
  8
0
  6
CONTINUOUS
 62
               2
100
AcDbCircle
 10
-12.5
 20
21.0
 30
0.0
 40
2.5
  0
CIRCLE
  5
55
100
AcDbEntity
  8
0
  6
CONTINUOUS
 62
               7
100
AcDbCircle
 10
-12.5
 20
21.0
 30
0.0
 40
2.1000000000000001
  0
LINE
  5
56
100
AcDbEntity
  8
0
  6
CENTER
 62
               2
100
AcDbLine
 10
-7.5
 20
50.135137094546323
 30
0.0
 11
-7.5
 21
46.047118710566806
 31
0.0
  0
LINE
  5
57
100
AcDbEntity
  8
0
  6
CENTER
 62
               2
100
AcDbLine
 10
-14.5
 20
25.32509448832576
 30
0.0
 11
-14.5
 21
29.554079023476987
 31
0.0
  0
LINE
  5
58
100
AcDbEntity
  8
0
  6
CENTER
 62
               2
100
AcDbLine
 10
-16.757613917231026
 20
27.500000000000028
 30
0.0
 11
-11.823798626221276
 21
27.500000000000028
 31
0.0
  0
LINE
  5
59
100
AcDbEntity
  8
0
  6
CENTER
 62
               2
100
AcDbLine
 10
-12.800000000000011
 20
43.000000000000014
 30
0.0
 11
-5.5020691189308906
 21
43.000000000000014
 31
0.0
  0
LINE
  5
5A
100
AcDbEntity
  8
0
  6
CONTINUOUS
 62
               7
100
AcDbLine
 10
-6.0
 20
55.500000000000028
 30
0.0
 11
-16.0
 21
55.500000000000028
 31
0.0
  0
LINE
  5
5B
100
AcDbEntity
  8
0
  6
CONTINUOUS
 62
               7
100
AcDbLine
 10
-6.0
 20
4.0
 30
0.0
 11
-16.0
 21
4.0
 31
0.0
  0
LINE
  5
5C
100
AcDbEntity
  8
0
  6
CONTINUOUS
 62
               7
100
AcDbLine
 10
-16.0
 20
70.999999999999957
 30
0.0
 11
-16.0
 21
4.0
 31
0.0
  0
LINE
  5
5D
100
AcDbEntity
  8
0
  6
CONTINUOUS
 62
               7
100
AcDbLine
 10
-6.0
 20
70.999999999999957
 30
0.0
 11
-6.0
 21
4.0
 31
0.0
  0
LINE
  5
5E
100
AcDbEntity
  8
0
  6
CENTER
 62
               2
100
AcDbLine
 10
-9.9066589702860028
 20
48.000000000000028
 30
0.0
 11
-5.1701962909166355
 21
48.000000000000028
 31
0.0
  0
LINE
  5
5F
100
AcDbEntity
  8
0
  6
CONTINUOUS
 62
               7
100
AcDbLine
 10
-8.0
 20
70.499999999999957
 30
0.0
 11
-8.0
 21
69.999999999999957
 31
0.0
  0
LINE
  5
60
100
AcDbEntity
  8
0
  6
CONTINUOUS
 62
               7
100
AcDbLine
 10
-14.0
 20
70.499999999999957
 30
0.0
 11
-14.0
 21
69.999999999999957
 31
0.0
  0
LINE
  5
61
100
AcDbEntity
  8
0
  6
CONTINUOUS
 62
               7
100
AcDbLine
 10
-8.0
 20
69.999999999999957
 30
0.0
 11
-14.0
 21
69.999999999999957
 31
0.0
  0
LINE
  5
62
100
AcDbEntity
  8
0
  6
CONTINUOUS
 62
               7
100
AcDbLine
 10
-8.0
 20
70.499999999999957
 30
0.0
 11
-14.0
 21
70.499999999999957
 31
0.0
  0
LINE
  5
63
100
AcDbEntity
  8
0
  6
CONTINUOUS
 62
               7
100
AcDbLine
 10
-6.0
 20
70.999999999999957
 30
0.0
 11
-16.0
 21
70.999999999999957
 31
0.0
  0
LINE
  5
64
100
AcDbEntity
  8
0
  6
CONTINUOUS
 62
               7
100
AcDbLine
 10
-6.7928932188134468
 20
47.292893218813475
 30
0.0
 11
-8.2071067811865532
 21
48.707106781186582
 31
0.0
  0
LINE
  5
65
100
AcDbEntity
  8
0
  6
CONTINUOUS
 62
               7
100
AcDbLine
 10
-8.2071067811865532
 20
47.292893218813475
 30
0.0
 11
-6.7928932188134468
 21
48.707106781186582
 31
0.0
  0
CIRCLE
  5
66
100
AcDbEntity
  8
0
  6
CONTINUOUS
 62
               7
100
AcDbCircle
 10
-7.5
 20
48.000000000000028
 30
0.0
 40
1.5
  0
LINE
  5
67
100
AcDbEntity
  8
0
  6
CONTINUOUS
 62
               7
100
AcDbLine
 10
-13.792893218813447
 20
26.792893218813482
 30
0.0
 11
-15.207106781186553
 21
28.207106781186575
 31
0.0
  0
LINE
  5
68
100
AcDbEntity
  8
0
  6
CONTINUOUS
 62
               7
100
AcDbLine
 10
-15.207106781186553
 20
26.792893218813482
 30
0.0
 11
-13.792893218813447
 21
28.207106781186575
 31
0.0
  0
CIRCLE
  5
69
100
AcDbEntity
  8
0
  6
CONTINUOUS
 62
               7
100
AcDbCircle
 10
-14.5
 20
27.500000000000028
 30
0.0
 40
1.5
  0
LINE
  5
6A
100
AcDbEntity
  8
0
  6
CONTINUOUS
 62
               7
100
AcDbLine
 10
-9.5000000000001137
 20
69.06340289823595
 30
0.0
 11
-9.5000000000001137
 21
64.06340289823595
 31
0.0
  0
LINE
  5
6B
100
AcDbEntity
  8
0
  6
CONTINUOUS
 62
               7
100
AcDbLine
 10
-14.500000000000114
 20
69.06340289823595
 30
0.0
 11
-14.500000000000114
 21
64.06340289823595
 31
0.0
  0
LINE
  5
6C
100
AcDbEntity
  8
0
  6
CONTINUOUS
 62
               2
100
AcDbLine
 10
-13.075000000000102
 20
59.358402898235965
 30
0.0
 11
-13.075000000000102
 21
58.719220935761143
 31
0.0
  0
LINE
  5
6D
100
AcDbEntity
  8
0
  6
CONTINUOUS
 62
               7
100
AcDbLine
 10
-13.250000000000114
 20
59.358402898235965
 30
0.0
 11
-13.250000000000114
 21
58.719220935761143
 31
0.0
  0
LINE
  5
6E
100
AcDbEntity
  8
0
  6
CONTINUOUS
 62
               2
100
AcDbLine
 10
-10.925000000000125
 20
59.358402898235965
 30
0.0
 11
-10.925000000000125
 21
58.719220935761143
 31
0.0
  0
LINE
  5
6F
100
AcDbEntity
  8
0
  6
CONTINUOUS
 62
               7
100
AcDbLine
 10
-10.750000000000114
 20
59.358402898235965
 30
0.0
 11
-10.750000000000114
 21
58.719220935761143
 31
0.0
  0
LINE
  5
70
100
AcDbEntity
  8
0
  6
CONTINUOUS
 62
               7
100
AcDbLine
 10
-15.000000000000114
 20
59.858402898235965
 30
0.0
 11
-15.000000000000114
 21
61.858402898235965
 31
0.0
  0
LINE
  5
71
100
AcDbEntity
  8
0
  6
CONTINUOUS
 62
               7
100
AcDbLine
 10
-14.000000000000114
 20
63.56340289823595
 30
0.0
 11
-10.000000000000114
 21
63.56340289823595
 31
0.0
  0
LINE
  5
72
100
AcDbEntity
  8
0
  6
CONTINUOUS
 62
               7
100
AcDbLine
 10
-9.5000000000001137
 20
64.06340289823595
 30
0.0
 11
-10.000000000000114
 21
63.56340289823595
 31
0.0
  0
LINE
  5
73
100
AcDbEntity
  8
0
  6
CONTINUOUS
 62
               7
100
AcDbLine
 10
-14.000000000000114
 20
63.56340289823595
 30
0.0
 11
-14.500000000000114
 21
64.06340289823595
 31
0.0
  0
LINE
  5
74
100
AcDbEntity
  8
0
  6
CONTINUOUS
 62
               7
100
AcDbLine
 10
-9.5000000000001137
 20
62.358402898235965
 30
0.0
 11
-14.500000000000114
 21
62.358402898235965
 31
0.0
  0
LINE
  5
75
100
AcDbEntity
  8
0
  6
CONTINUOUS
 62
               7
100
AcDbLine
 10
-15.000000000000114
 20
61.858402898235965
 30
0.0
 11
-14.500000000000114
 21
62.358402898235965
 31
0.0
  0
LINE
  5
76
100
AcDbEntity
  8
0
  6
CONTINUOUS
 62
               7
100
AcDbLine
 10
-15.000000000000114
 20
59.858402898235965
 30
0.0
 11
-14.500000000000114
 21
59.358402898235965
 31
0.0
  0
LINE
  5
77
100
AcDbEntity
  8
0
  6
CONTINUOUS
 62
               7
100
AcDbLine
 10
-9.0000000000001137
 20
61.858402898235965
 30
0.0
 11
-9.5000000000001137
 21
62.358402898235965
 31
0.0
  0
LINE
  5
78
100
AcDbEntity
  8
0
  6
CONTINUOUS
 62
               7
100
AcDbLine
 10
-9.0000000000001137
 20
59.858402898235965
 30
0.0
 11
-9.5000000000001137
 21
59.358402898235965
 31
0.0
  0
LINE
  5
79
100
AcDbEntity
  8
0
  6
CONTINUOUS
 62
               7
100
AcDbLine
 10
-9.0000000000001137
 20
59.858402898235965
 30
0.0
 11
-9.0000000000001137
 21
61.858402898235965
 31
0.0
  0
LINE
  5
7A
100
AcDbEntity
  8
0
  6
CONTINUOUS
 62
               7
100
AcDbLine
 10
-9.5000000000001137
 20
59.358402898235965
 30
0.0
 11
-14.500000000000114
 21
59.358402898235965
 31
0.0
  0
LINE
  5
7B
100
AcDbEntity
  8
0
  6
CONTINUOUS
 62
               7
100
AcDbLine
 10
-9.2500000000001137
 20
58.719220935761143
 30
0.0
 11
-14.750000000000114
 21
58.719220935761143
 31
0.0
  0
LINE
  5
7C
100
AcDbEntity
  8
0
  6
CONTINUOUS
 62
               7
100
AcDbLine
 10
-8.7500000000001137
 20
58.219220935761143
 30
0.0
 11
-9.2500000000001137
 21
58.719220935761143
 31
0.0
  0
LINE
  5
7D
100
AcDbEntity
  8
0
  6
CONTINUOUS
 62
               7
100
AcDbLine
 10
-15.250000000000114
 20
58.219220935761143
 30
0.0
 11
-14.750000000000114
 21
58.719220935761143
 31
0.0
  0
LINE
  5
7E
100
AcDbEntity
  8
0
  6
CONTINUOUS
 62
               2
100
AcDbLine
 10
-13.075000000000102
 20
63.56340289823595
 30
0.0
 11
-13.075000000000102
 21
62.358402898235965
 31
0.0
  0
LINE
  5
7F
100
AcDbEntity
  8
0
  6
CONTINUOUS
 62
               7
100
AcDbLine
 10
-13.250000000000114
 20
63.56340289823595
 30
0.0
 11
-13.250000000000114
 21
62.358402898235965
 31
0.0
  0
LINE
  5
80
100
AcDbEntity
  8
0
  6
CONTINUOUS
 62
               2
100
AcDbLine
 10
-10.925000000000125
 20
63.56340289823595
 30
0.0
 11
-10.925000000000125
 21
62.358402898235965
 31
0.0
  0
LINE
  5
81
100
AcDbEntity
  8
0
  6
CONTINUOUS
 62
               7
100
AcDbLine
 10
-10.750000000000114
 20
63.56340289823595
 30
0.0
 11
-10.750000000000114
 21
62.358402898235965
 31
0.0
  0
LINE
  5
82
100
AcDbEntity
  8
0
  6
CONTINUOUS
 62
               7
100
AcDbLine
 10
-10.000000000000114
 20
69.56340289823595
 30
0.0
 11
-14.000000000000114
 21
69.56340289823595
 31
0.0
  0
LINE
  5
83
100
AcDbEntity
  8
0
  6
CONTINUOUS
 62
               7
100
AcDbLine
 10
-9.5000000000001137
 20
69.06340289823595
 30
0.0
 11
-10.000000000000114
 21
69.56340289823595
 31
0.0
  0
LINE
  5
84
100
AcDbEntity
  8
0
  6
CONTINUOUS
 62
               7
100
AcDbLine
 10
-14.500000000000114
 20
69.06340289823595
 30
0.0
 11
-14.000000000000114
 21
69.56340289823595
 31
0.0
  0
LINE
  5
85
100
AcDbEntity
  8
0
  6
CONTINUOUS
 62
               7
100
AcDbLine
 10
-14.500000000000114
 20
69.06340289823595
 30
0.0
 11
-9.5000000000001137
 21
69.06340289823595
 31
0.0
  0
LINE
  5
86
100
AcDbEntity
  8
0
  6
CONTINUOUS
 62
               7
100
AcDbLine
 10
-14.500000000000114
 20
64.06340289823595
 30
0.0
 11
-9.5000000000001137
 21
64.06340289823595
 31
0.0
  0
LINE
  5
87
100
AcDbEntity
  8
0
  6
CONTINUOUS
 62
               7
100
AcDbLine
 10
-15.000000000000114
 20
61.858402898235965
 30
0.0
 11
-9.0000000000001137
 21
61.858402898235965
 31
0.0
  0
LINE
  5
88
100
AcDbEntity
  8
0
  6
CONTINUOUS
 62
               7
100
AcDbLine
 10
-15.000000000000114
 20
59.858402898235965
 30
0.0
 11
-9.0000000000001137
 21
59.858402898235965
 31
0.0
  0
LINE
  5
89
100
AcDbEntity
  8
0
  6
CONTINUOUS
 62
               7
100
AcDbLine
 10
-15.250000000000114
 20
58.219220935761143
 30
0.0
 11
-8.7500000000001137
 21
58.219220935761143
 31
0.0
  0
LINE
  5
8A
100
AcDbEntity
  8
0
  6
CENTER
 62
               2
100
AcDbLine
 10
-12.000000000000114
 20
70.588502059841204
 30
0.0
 11
-12.000000000000114
 21
55.500000000000028
 31
0.0
  0
LINE
  5
8B
100
AcDbEntity
  8
0
  6
CONTINUOUS
 62
               7
100
AcDbLine
 10
-15.250000000000114
 20
55.519220935761155
 30
0.0
 11
-15.250000000000114
 21
58.219220935761143
 31
0.0
  0
LINE
  5
8C
100
AcDbEntity
  8
0
  6
CONTINUOUS
 62
               7
100
AcDbLine
 10
-8.7500000000001137
 20
55.519220935761155
 30
0.0
 11
-8.7500000000001137
 21
58.219220935761143
 31
0.0
  0
LINE
  5
8D
100
AcDbEntity
  8
0
  6
CENTER
 62
               2
100
AcDbLine
 10
-9.0000000000000284
 20
46.000000000000014
 30
0.0
 11
-9.0000000000000284
 21
39.500000000000014
 31
0.0
  0
ENDBLK
  5
8E
100
AcDbEntity
  8
0
100
AcDbBlockEnd
  0
BLOCK
  5
8F
100
AcDbEntity
  8
0
100
AcDbBlockBegin
  2
MV090-01-2
 70
               0
 10
0.0
 20
0.0
 30
0.0
  3
MV090-01-2
  1

  0
ARC
  5
90
100
AcDbEntity
  8
0
  6
CONTINUOUS
 62
               7
100
AcDbCircle
 10
56.000000000000028
 20
4.2999999999999972
 30
0.0
 40
0.3
100
AcDbArc
 50
270.00000000000023
 51
0.0
  0
LINE
  5
91
100
AcDbEntity
  8
0
  6
CONTINUOUS
 62
               7
100
AcDbLine
 10
37.899999999999977
 20
3.9999999999999858
 30
0.0
 11
56.000000000000028
 21
3.9999999999999858
 31
0.0
  0
LINE
  5
92
100
AcDbEntity
  8
0
  6
CONTINUOUS
 62
               7
100
AcDbLine
 10
57.499999999999915
 20
16.199999999999974
 30
0.0
 11
58.366025403784391
 21
15.699999999999974
 31
0.0
  0
LINE
  5
93
100
AcDbEntity
  8
0
  6
CONTINUOUS
 62
               7
100
AcDbLine
 10
56.299999999999983
 20
16.199999999999974
 30
0.0
 11
56.299999999999983
 21
4.2999999999999972
 31
0.0
  0
LINE
  5
94
100
AcDbEntity
  8
0
  6
CONTINUOUS
 62
               7
100
AcDbLine
 10
61.799999999999983
 20
21.499999999999986
 30
0.0
 11
61.799999999999983
 21
16.199999999999974
 31
0.0
  0
LINE
  5
95
100
AcDbEntity
  8
0
  6
CONTINUOUS
 62
               7
100
AcDbLine
 10
61.899999999999949
 20
21.499999999999986
 30
0.0
 11
65.899999999999949
 21
21.499999999999986
 31
0.0
  0
LINE
  5
96
100
AcDbEntity
  8
0
  6
CONTINUOUS
 62
               7
100
AcDbLine
 10
65.899999999999949
 20
16.400244132795578
 30
0.0
 11
65.899999999999949
 21
15.199999999999974
 31
0.0
  0
LINE
  5
97
100
AcDbEntity
  8
0
  6
CONTINUOUS
 62
               7
100
AcDbLine
 10
61.899999999999949
 20
16.699999999999974
 30
0.0
 11
61.899999999999949
 21
21.499999999999986
 31
0.0
  0
LINE
  5
98
100
AcDbEntity
  8
0
  6
CONTINUOUS
 62
               7
100
AcDbLine
 10
61.799999999999983
 20
16.699999999999974
 30
0.0
 11
66.899999999999949
 21
16.699999999999974
 31
0.0
  0
LINE
  5
9A
100
AcDbEntity
  8
0
  6
PHANTOM
 62
               7
100
AcDbLine
 10
62.69999999999996
 20
16.699999999999974
 30
0.0
 11
64.198615454114673
 21
16.699999999999974
 31
0.0
  0
LINE
  5
9B
100
AcDbEntity
  8
0
  6
CONTINUOUS
 62
               7
100
AcDbLine
 10
65.899999999999949
 20
16.400244132795578
 30
0.0
 11
64.19999999999996
 21
16.699999999999974
 31
0.0
  0
LINE
  5
9C
100
AcDbEntity
  8
0
  6
CONTINUOUS
 62
               7
100
AcDbLine
 10
66.899999999999949
 20
21.999999999999986
 30
0.0
 11
66.899999999999949
 21
16.699999999999974
 31
0.0
  0
LINE
  5
9D
100
AcDbEntity
  8
0
  6
CONTINUOUS
 62
               7
100
AcDbLine
 10
61.799999999999983
 20
20.799999999999969
 30
0.0
 11
61.899999999999949
 21
20.799999999999969
 31
0.0
  0
LINE
  5
9E
100
AcDbEntity
  8
0
  6
CONTINUOUS
 62
               7
100
AcDbLine
 10
65.188675134594774
 20
15.199999999999974
 30
0.0
 11
65.899999999999949
 21
15.199999999999974
 31
0.0
  0
LINE
  5
9F
100
AcDbEntity
  8
0
  6
CONTINUOUS
 62
               7
100
AcDbLine
 10
64.899999999999949
 20
15.699999999999974
 30
0.0
 11
65.188675134594774
 21
15.199999999999974
 31
0.0
  0
LINE
  5
A0
100
AcDbEntity
  8
0
  6
CONTINUOUS
 62
               7
100
AcDbLine
 10
66.188675134594774
 20
21.999999999999986
 30
0.0
 11
66.899999999999949
 21
21.999999999999986
 31
0.0
  0
LINE
  5
A1
100
AcDbEntity
  8
0
  6
CONTINUOUS
 62
               7
100
AcDbLine
 10
65.899999999999949
 20
21.499999999999986
 30
0.0
 11
66.188675134594774
 21
21.999999999999986
 31
0.0
  0
LINE
  5
A2
100
AcDbEntity
  8
0
  6
CONTINUOUS
 62
               7
100
AcDbLine
 10
72.769999999999953
 20
20.214999999999989
 30
0.0
 11
77.329999999999956
 21
20.214999999999989
 31
0.0
  0
LINE
  5
A3
100
AcDbEntity
  8
0
  6
CONTINUOUS
 62
               7
100
AcDbLine
 10
72.149999999999949
 20
22.539999999999978
 30
0.0
 11
73.749999999999972
 21
16.539999999999978
 31
0.0
  0
LINE
  5
A4
100
AcDbEntity
  8
0
  6
CONTINUOUS
 62
               7
100
AcDbLine
 10
73.15133333333327
 20
18.784999999999982
 30
0.0
 11
77.329999999999956
 21
18.784999999999982
 31
0.0
  0
LINE
  5
A5
100
AcDbEntity
  8
0
  6
CONTINUOUS
 62
               7
100
AcDbLine
 10
77.329999999999956
 20
19.099999999999994
 30
0.0
 11
82.329999999999927
 21
19.099999999999994
 31
0.0
  0
LINE
  5
A6
100
AcDbEntity
  8
0
  6
CONTINUOUS
 62
               7
100
AcDbLine
 10
77.329999999999956
 20
19.899999999999977
 30
0.0
 11
82.329999999999927
 21
19.899999999999977
 31
0.0
  0
LINE
  5
A7
100
AcDbEntity
  8
0
  6
CONTINUOUS
 62
               7
100
AcDbLine
 10
77.329999999999956
 20
18.784999999999982
 30
0.0
 11
77.329999999999956
 21
20.214999999999989
 31
0.0
  0
LINE
  5
A8
100
AcDbEntity
  8
0
  6
CONTINUOUS
 62
               7
100
AcDbLine
 10
66.899999999999949
 20
18.784999999999982
 30
0.0
 11
71.91133333333326
 21
18.784999999999982
 31
0.0
  0
LINE
  5
A9
100
AcDbEntity
  8
0
  6
CONTINUOUS
 62
               7
100
AcDbLine
 10
66.899999999999949
 20
20.214999999999989
 30
0.0
 11
71.529999999999944
 21
20.214999999999989
 31
0.0
  0
LINE
  5
AA
100
AcDbEntity
  8
0
  6
CONTINUOUS
 62
               7
100
AcDbLine
 10
70.90999999999994
 20
22.539999999999978
 30
0.0
 11
72.509999999999962
 21
16.539999999999978
 31
0.0
  0
LINE
  5
AB
100
AcDbEntity
  8
0
  6
CONTINUOUS
 62
               7
100
AcDbLine
 10
61.799999999833659
 20
21.499999999999986
 30
0.0
 11
50.399999999999977
 21
21.499999999999986
 31
0.0
  0
LINE
  5
AC
100
AcDbEntity
  8
0
  6
CONTINUOUS
 62
               7
100
AcDbLine
 10
61.799999999833659
 20
16.199999999999974
 30
0.0
 11
56.299999999833659
 21
16.199999999999974
 31
0.0
  0
LINE
  5
AD
100
AcDbEntity
  8
0
  6
CONTINUOUS
 62
               7
100
AcDbLine
 10
58.366025403784391
 20
15.699999999999974
 30
0.0
 11
64.899999999999949
 21
15.699999999999974
 31
0.0
  0
LINE
  5
AE
100
AcDbEntity
  8
0
  6
CONTINUOUS
 62
               7
100
AcDbLine
 10
57.499999999999915
 20
58.799999999999969
 30
0.0
 11
58.366025403784391
 21
59.299999999999969
 31
0.0
  0
LINE
  5
AF
100
AcDbEntity
  8
0
  6
CONTINUOUS
 62
               7
100
AcDbLine
 10
56.299999999999983
 20
58.799999999999969
 30
0.0
 11
56.299999999999983
 21
70.699999999999946
 31
0.0
  0
LINE
  5
B0
100
AcDbEntity
  8
0
  6
CONTINUOUS
 62
               7
100
AcDbLine
 10
65.899999999999949
 20
53.499999999999957
 30
0.0
 11
66.188675134594774
 21
52.999999999999957
 31
0.0
  0
LINE
  5
B1
100
AcDbEntity
  8
0
  6
CONTINUOUS
 62
               7
100
AcDbLine
 10
66.188675134594774
 20
52.999999999999957
 30
0.0
 11
66.899999999999949
 21
52.999999999999957
 31
0.0
  0
LINE
  5
B2
100
AcDbEntity
  8
0
  6
CONTINUOUS
 62
               7
100
AcDbLine
 10
64.899999999999949
 20
59.299999999999969
 30
0.0
 11
65.188675134594774
 21
59.799999999999969
 31
0.0
  0
LINE
  5
B3
100
AcDbEntity
  8
0
  6
CONTINUOUS
 62
               7
100
AcDbLine
 10
65.188675134594774
 20
59.799999999999969
 30
0.0
 11
65.899999999999949
 21
59.799999999999969
 31
0.0
  0
LINE
  5
B4
100
AcDbEntity
  8
0
  6
CONTINUOUS
 62
               7
100
AcDbLine
 10
61.799999999999983
 20
54.199999999999974
 30
0.0
 11
61.899999999999949
 21
54.199999999999974
 31
0.0
  0
LINE
  5
B5
100
AcDbEntity
  8
0
  6
CONTINUOUS
 62
               7
100
AcDbLine
 10
66.899999999999949
 20
52.999999999999957
 30
0.0
 11
66.899999999999949
 21
58.299999999999969
 31
0.0
  0
LINE
  5
B6
100
AcDbEntity
  8
0
  6
CONTINUOUS
 62
               7
100
AcDbLine
 10
65.899999999999949
 20
58.599755867204365
 30
0.0
 11
64.19999999999996
 21
58.299999999999969
 31
0.0
  0
LINE
  5
B7
100
AcDbEntity
  8
0
  6
PHANTOM
 62
               7
100
AcDbLine
 10
62.69999999999996
 20
58.299999999999969
 30
0.0
 11
64.198615454114673
 21
58.299999999999969
 31
0.0
  0
LINE
  5
B8
100
AcDbEntity
  8
0
  6
CONTINUOUS
 62
               7
100
AcDbLine
 10
61.799999999999983
 20
58.299999999999969
 30
0.0
 11
66.899999999999949
 21
58.299999999999969
 31
0.0
  0
LINE
  5
B9
100
AcDbEntity
  8
0
  6
CONTINUOUS
 62
               7
100
AcDbLine
 10
61.899999999999949
 20
58.299999999999969
 30
0.0
 11
61.899999999999949
 21
53.499999999999957
 31
0.0
  0
LINE
  5
BA
100
AcDbEntity
  8
0
  6
CONTINUOUS
 62
               7
100
AcDbLine
 10
65.899999999999949
 20
58.599755867204365
 30
0.0
 11
65.899999999999949
 21
59.799999999999969
 31
0.0
  0
LINE
  5
BB
100
AcDbEntity
  8
0
  6
CONTINUOUS
 62
               7
100
AcDbLine
 10
61.899999999999949
 20
53.499999999999957
 30
0.0
 11
65.899999999999949
 21
53.499999999999957
 31
0.0
  0
LINE
  5
BC
100
AcDbEntity
  8
0
  6
CONTINUOUS
 62
               7
100
AcDbLine
 10
61.799999999999983
 20
53.499999999999972
 30
0.0
 11
61.799999999999983
 21
58.799999999999969
 31
0.0
  0
LINE
  5
BD
100
AcDbEntity
  8
0
  6
CONTINUOUS
 62
               7
100
AcDbLine
 10
66.899999999999949
 20
55.084999999999965
 30
0.0
 11
71.91133333333326
 21
55.084999999999965
 31
0.0
  0
LINE
  5
BE
100
AcDbEntity
  8
0
  6
CONTINUOUS
 62
               7
100
AcDbLine
 10
66.899999999999949
 20
56.514999999999972
 30
0.0
 11
71.529999999999944
 21
56.514999999999972
 31
0.0
  0
LINE
  5
BF
100
AcDbEntity
  8
0
  6
CONTINUOUS
 62
               7
100
AcDbLine
 10
70.90999999999994
 20
58.839999999999961
 30
0.0
 11
72.509999999999962
 21
52.839999999999961
 31
0.0
  0
LINE
  5
C0
100
AcDbEntity
  8
0
  6
CONTINUOUS
 62
               7
100
AcDbLine
 10
72.149999999999949
 20
58.839999999999961
 30
0.0
 11
73.749999999999972
 21
52.839999999999961
 31
0.0
  0
LINE
  5
C1
100
AcDbEntity
  8
0
  6
CONTINUOUS
 62
               7
100
AcDbLine
 10
72.769999999999953
 20
56.514999999999972
 30
0.0
 11
77.329999999999956
 21
56.514999999999972
 31
0.0
  0
LINE
  5
C2
100
AcDbEntity
  8
0
  6
CONTINUOUS
 62
               7
100
AcDbLine
 10
73.15133333333327
 20
55.084999999999965
 30
0.0
 11
77.329999999999956
 21
55.084999999999965
 31
0.0
  0
LINE
  5
C3
100
AcDbEntity
  8
0
  6
CONTINUOUS
 62
               7
100
AcDbLine
 10
77.329999999999956
 20
55.399999999999977
 30
0.0
 11
82.329999999999927
 21
55.399999999999977
 31
0.0
  0
LINE
  5
C4
100
AcDbEntity
  8
0
  6
CONTINUOUS
 62
               7
100
AcDbLine
 10
77.329999999999956
 20
56.19999999999996
 30
0.0
 11
82.329999999999927
 21
56.19999999999996
 31
0.0
  0
LINE
  5
C5
100
AcDbEntity
  8
0
  6
CONTINUOUS
 62
               7
100
AcDbLine
 10
77.329999999999956
 20
55.084999999999965
 30
0.0
 11
77.329999999999956
 21
56.514999999999972
 31
0.0
  0
LINE
  5
C6
100
AcDbEntity
  8
0
  6
CONTINUOUS
 62
               7
100
AcDbLine
 10
58.366025403784391
 20
59.299999999999969
 30
0.0
 11
64.899999999999949
 21
59.299999999999969
 31
0.0
  0
LINE
  5
C7
100
AcDbEntity
  8
0
  6
CONTINUOUS
 62
               7
100
AcDbLine
 10
61.799999999833659
 20
58.799999999999969
 30
0.0
 11
56.299999999833659
 21
58.799999999999969
 31
0.0
  0
LINE
  5
C8
100
AcDbEntity
  8
0
  6
CONTINUOUS
 62
               7
100
AcDbLine
 10
61.799999999833659
 20
53.499999999999972
 30
0.0
 11
50.399999999999977
 21
53.499999999999972
 31
0.0
  0
ARC
  5
C9
100
AcDbEntity
  8
0
  6
CONTINUOUS
 62
               7
100
AcDbCircle
 10
55.999999999999993
 20
70.699999999999946
 30
0.0
 40
0.3
100
AcDbArc
 50
0.0000000000000254
 51
89.999999999999829
  0
LINE
  5
CA
100
AcDbEntity
  8
0
  6
CONTINUOUS
 62
               7
100
AcDbLine
 10
37.899999999999977
 20
70.999999999999957
 30
0.0
 11
55.999999999999993
 21
70.999999999999957
 31
0.0
  0
LINE
  5
CB
100
AcDbEntity
  8
0
  6
CONTINUOUS
 62
               7
100
AcDbLine
 10
55.699999999999989
 20
53.499999999999972
 30
0.0
 11
55.699999999999989
 21
53.399999999999956
 31
0.0
  0
LINE
  5
CC
100
AcDbEntity
  8
0
  6
CONTINUOUS
 62
               7
100
AcDbLine
 10
50.399999999999984
 20
5.4999999999999858
 30
0.0
 11
50.399999999999991
 21
21.599999999999987
 31
0.0
  0
LINE
  5
CD
100
AcDbEntity
  8
0
  6
CONTINUOUS
 62
               7
100
AcDbLine
 10
50.399999999999984
 20
5.4999999999999858
 30
0.0
 11
37.899999999999977
 21
5.4999999999999858
 31
0.0
  0
LINE
  5
CE
100
AcDbEntity
  8
0
  6
CONTINUOUS
 62
               7
100
AcDbLine
 10
55.699999999999989
 20
21.499999999999972
 30
0.0
 11
55.699999999999989
 21
21.599999999999987
 31
0.0
  0
LINE
  5
CF
100
AcDbEntity
  8
0
  6
CENTER
 62
             200
100
AcDbLine
 10
10.0
 20
-1.6999999999999886
 30
0.0
 11
10.0
 21
3.3000000000000114
 31
0.0
  0
LINE
  5
D0
100
AcDbEntity
  8
0
  6
CENTER
 62
             200
100
AcDbLine
 10
0.0
 20
-1.6999999999999886
 30
0.0
 11
0.0
 21
3.3000000000000114
 31
0.0
  0
CIRCLE
  5
D1
100
AcDbEntity
  8
0
  6
CONTINUOUS
 62
               4
100
AcDbCircle
 10
16.5
 20
6.0
 30
0.0
 40
1.9999999999999996
  0
LINE
  5
D2
100
AcDbEntity
  8
0
  6
CONTINUOUS
 62
               4
100
AcDbLine
 10
15.5
 20
5.4226496815681458
 30
0.0
 11
15.5
 21
6.5773502588272095
 31
0.0
  0
LINE
  5
D3
100
AcDbEntity
  8
0
  6
CONTINUOUS
 62
               4
100
AcDbLine
 10
17.5
 20
5.4226497411727905
 30
0.0
 11
17.5
 21
6.5773502588272095
 31
0.0
  0
LINE
  5
D4
100
AcDbEntity
  8
0
  6
CONTINUOUS
 62
               4
100
AcDbLine
 10
17.499999956111253
 20
6.5773502886295319
 30
0.0
 11
16.499999985913576
 21
7.1547005474567413
 31
0.0
  0
LINE
  5
D5
100
AcDbEntity
  8
0
  6
CONTINUOUS
 62
               4
100
AcDbLine
 10
16.499999956111253
 20
4.8452994525432587
 30
0.0
 11
15.499999985913576
 21
5.4226497113704681
 31
0.0
  0
LINE
  5
D6
100
AcDbEntity
  8
0
  6
CONTINUOUS
 62
               4
100
AcDbLine
 10
16.499999956111253
 20
7.1547005176544189
 30
0.0
 11
15.5
 21
6.5773502738039724
 31
0.0
  0
LINE
  5
D7
100
AcDbEntity
  8
0
  6
CONTINUOUS
 62
               4
100
AcDbLine
 10
17.499999956111253
 20
5.4226497411727905
 30
0.0
 11
16.499999943090586
 21
4.8452994644656826
 31
0.0
  0
CIRCLE
  5
D8
100
AcDbEntity
  8
0
  6
CONTINUOUS
 62
               4
100
AcDbCircle
 10
16.5
 20
6.0
 30
0.0
 40
2.25
  0
LINE
  5
D9
100
AcDbEntity
  8
0
  6
CENTER
 62
             200
100
AcDbLine
 10
13.971124524314888
 20
6.0
 30
0.0
 11
19.0
 21
6.0
 31
0.0
  0
LINE
  5
DA
100
AcDbEntity
  8
0
  6
CENTER
 62
             200
100
AcDbLine
 10
16.5
 20
3.5
 30
0.0
 11
16.5
 21
8.5
 31
0.0
  0
ARC
  5
DB
100
AcDbEntity
  8
0
  6
CONTINUOUS
 62
               4
100
AcDbCircle
 10
16.5
 20
19.0
 30
0.0
 40
4.0
100
AcDbArc
 50
0.0
 51
179.99999999999963
  0
LINE
  5
DC
100
AcDbEntity
  8
0
  6
CONTINUOUS
 62
               4
100
AcDbLine
 10
20.5
 20
19.0
 30
0.0
 11
20.5
 21
0.5
 31
0.0
  0
LINE
  5
DD
100
AcDbEntity
  8
0
  6
CONTINUOUS
 62
               4
100
AcDbLine
 10
12.5
 20
19.0
 30
0.0
 11
12.5
 21
1.5999999999999943
 31
0.0
  0
LINE
  5
DE
100
AcDbEntity
  8
0
  6
CONTINUOUS
 62
               4
100
AcDbLine
 10
20.0
 20
0.0
 30
0.0
 11
-4.0
 21
0.0
 31
0.0
  0
LINE
  5
DF
100
AcDbEntity
  8
0
  6
CONTINUOUS
 62
               4
100
AcDbLine
 10
20.5
 20
1.5999999999999943
 30
0.0
 11
-4.0
 21
1.5999999999999943
 31
0.0
  0
LINE
  5
E0
100
AcDbEntity
  8
0
  6
CONTINUOUS
 62
               4
100
AcDbLine
 10
-4.5
 20
1.0999999999999943
 30
0.0
 11
-4.5
 21
0.5
 31
0.0
  0
ARC
  5
E1
100
AcDbEntity
  8
0
  6
CONTINUOUS
 62
               4
100
AcDbCircle
 10
20.0
 20
0.5
 30
0.0
 40
0.5
100
AcDbArc
 50
270.00000000000023
 51
0.0
  0
ARC
  5
E2
100
AcDbEntity
  8
0
  6
CONTINUOUS
 62
               4
100
AcDbCircle
 10
-4.0
 20
0.5
 30
0.0
 40
0.5
100
AcDbArc
 50
179.99999999999963
 51
269.99999999999937
  0
ARC
  5
E3
100
AcDbEntity
  8
0
  6
CONTINUOUS
 62
               4
100
AcDbCircle
 10
-4.0
 20
1.0999999999999943
 30
0.0
 40
0.5
100
AcDbArc
 50
89.999999999999815
 51
179.99999999999963
  0
LINE
  5
E4
100
AcDbEntity
  8
0
  6
CONTINUOUS
 62
               7
100
AcDbLine
 10
29.450000000000017
 20
58.719220935761115
 30
0.0
 11
23.950000000000017
 21
58.719220935761115
 31
0.0
  0
LINE
  5
E5
100
AcDbEntity
  8
0
  6
CONTINUOUS
 62
               7
100
AcDbLine
 10
29.950000000000017
 20
55.519220935761126
 30
0.0
 11
29.950000000000017
 21
58.219220935761115
 31
0.0
  0
LINE
  5
E6
100
AcDbEntity
  8
0
  6
CONTINUOUS
 62
               7
100
AcDbLine
 10
23.450000000000017
 20
55.519220935761126
 30
0.0
 11
23.450000000000017
 21
58.219220935761115
 31
0.0
  0
LINE
  5
E7
100
AcDbEntity
  8
0
  6
CONTINUOUS
 62
               7
100
AcDbLine
 10
29.950000000000017
 20
58.219220935761115
 30
0.0
 11
29.450000000000017
 21
58.719220935761115
 31
0.0
  0
LINE
  5
E8
100
AcDbEntity
  8
0
  6
CONTINUOUS
 62
               7
100
AcDbLine
 10
29.200000000000017
 20
69.063402898235935
 30
0.0
 11
29.200000000000017
 21
64.063402898235921
 31
0.0
  0
LINE
  5
E9
100
AcDbEntity
  8
0
  6
CONTINUOUS
 62
               7
100
AcDbLine
 10
23.450000000000017
 20
58.219220935761115
 30
0.0
 11
23.950000000000017
 21
58.719220935761115
 31
0.0
  0
LINE
  5
EA
100
AcDbEntity
  8
0
  6
CONTINUOUS
 62
               7
100
AcDbLine
 10
24.200000000000017
 20
69.063402898235935
 30
0.0
 11
24.200000000000017
 21
64.063402898235921
 31
0.0
  0
LINE
  5
EB
100
AcDbEntity
  8
0
  6
CONTINUOUS
 62
               2
100
AcDbLine
 10
25.625000000000028
 20
59.358402898235937
 30
0.0
 11
25.625000000000028
 21
58.719220935761115
 31
0.0
  0
LINE
  5
EC
100
AcDbEntity
  8
0
  6
CONTINUOUS
 62
               7
100
AcDbLine
 10
25.450000000000017
 20
59.358402898235937
 30
0.0
 11
25.450000000000017
 21
58.719220935761115
 31
0.0
  0
LINE
  5
ED
100
AcDbEntity
  8
0
  6
CONTINUOUS
 62
               2
100
AcDbLine
 10
27.775000000000006
 20
59.358402898235937
 30
0.0
 11
27.775000000000006
 21
58.719220935761115
 31
0.0
  0
LINE
  5
EE
100
AcDbEntity
  8
0
  6
CONTINUOUS
 62
               7
100
AcDbLine
 10
27.950000000000017
 20
59.358402898235937
 30
0.0
 11
27.950000000000017
 21
58.719220935761115
 31
0.0
  0
LINE
  5
EF
100
AcDbEntity
  8
0
  6
CONTINUOUS
 62
               7
100
AcDbLine
 10
23.700000000000017
 20
59.858402898235937
 30
0.0
 11
23.700000000000017
 21
61.858402898235937
 31
0.0
  0
LINE
  5
F0
100
AcDbEntity
  8
0
  6
CONTINUOUS
 62
               7
100
AcDbLine
 10
24.700000000000017
 20
63.563402898235921
 30
0.0
 11
28.700000000000017
 21
63.563402898235921
 31
0.0
  0
LINE
  5
F1
100
AcDbEntity
  8
0
  6
CONTINUOUS
 62
               2
100
AcDbLine
 10
25.625000000000028
 20
63.563402898235921
 30
0.0
 11
25.625000000000028
 21
62.358402898235937
 31
0.0
  0
LINE
  5
F2
100
AcDbEntity
  8
0
  6
CONTINUOUS
 62
               7
100
AcDbLine
 10
25.450000000000017
 20
63.563402898235921
 30
0.0
 11
25.450000000000017
 21
62.358402898235937
 31
0.0
  0
LINE
  5
F3
100
AcDbEntity
  8
0
  6
CONTINUOUS
 62
               7
100
AcDbLine
 10
29.200000000000017
 20
64.063402898235921
 30
0.0
 11
28.700000000000017
 21
63.563402898235921
 31
0.0
  0
LINE
  5
F4
100
AcDbEntity
  8
0
  6
CONTINUOUS
 62
               7
100
AcDbLine
 10
24.700000000000017
 20
63.563402898235921
 30
0.0
 11
24.200000000000017
 21
64.063402898235921
 31
0.0
  0
ARC
  5
F5
100
AcDbEntity
  8
0
  6
CONTINUOUS
 62
               7
100
AcDbCircle
 10
50.799999999999983
 20
46.499999999999957
 30
0.0
 40
0.5
100
AcDbArc
 50
270.00000000000023
 51
0.0
  0
ARC
  5
F6
100
AcDbEntity
  8
0
  6
CONTINUOUS
 62
               7
100
AcDbCircle
 10
50.799999999999983
 20
48.499999999999957
 30
0.0
 40
0.5
100
AcDbArc
 50
0.0
 51
89.999999999999815
  0
LINE
  5
F7
100
AcDbEntity
  8
0
  6
CONTINUOUS
 62
               7
100
AcDbLine
 10
51.299999999999983
 20
46.499999999999957
 30
0.0
 11
51.299999999999983
 21
48.499999999999957
 31
0.0
  0
LINE
  5
F8
100
AcDbEntity
  8
0
  6
CONTINUOUS
 62
               7
100
AcDbLine
 10
50.799999999999983
 20
48.999999999999957
 30
0.0
 11
50.699999999999989
 21
48.999999999999957
 31
0.0
  0
LINE
  5
F9
100
AcDbEntity
  8
0
  6
CONTINUOUS
 62
               7
100
AcDbLine
 10
50.799999999999983
 20
45.999999999999957
 30
0.0
 11
50.699999999999989
 21
45.999999999999957
 31
0.0
  0
LINE
  5
FA
100
AcDbEntity
  8
0
  6
CONTINUOUS
 62
               7
100
AcDbLine
 10
51.699999999999989
 20
45.899999999999949
 30
0.0
 11
50.699999999999989
 21
45.899999999999949
 31
0.0
  0
LINE
  5
FB
100
AcDbEntity
  8
0
  6
CONTINUOUS
 62
               7
100
AcDbLine
 10
51.699999999999989
 20
49.099999999999966
 30
0.0
 11
50.699999999999989
 21
49.099999999999966
 31
0.0
  0
LINE
  5
FC
100
AcDbEntity
  8
0
  6
CONTINUOUS
 62
               7
100
AcDbLine
 10
50.699999999999989
 20
45.899999999999949
 30
0.0
 11
50.699999999999989
 21
49.099999999999966
 31
0.0
  0
LINE
  5
FD
100
AcDbEntity
  8
0
  6
CONTINUOUS
 62
               7
100
AcDbLine
 10
50.399999999999977
 20
69.499999999999957
 30
0.0
 11
50.400000000000006
 21
53.399999999999949
 31
0.0
  0
LINE
  5
FE
100
AcDbEntity
  8
0
  6
CONTINUOUS
 62
               7
100
AcDbLine
 10
37.899999999999977
 20
70.999999999999957
 30
0.0
 11
37.899999999999977
 21
69.499999999999957
 31
0.0
  0
LINE
  5
FF
100
AcDbEntity
  8
0
  6
CONTINUOUS
 62
               7
100
AcDbLine
 10
51.699999999999989
 20
45.399999999999949
 30
0.0
 11
51.699999999999989
 21
52.090817451771116
 31
0.0
  0
LINE
  5
100
100
AcDbEntity
  8
0
  6
CONTINUOUS
 62
               7
100
AcDbLine
 10
50.400000000000006
 20
53.399999999999949
 30
0.0
 11
56.299999999999983
 21
53.399999999999949
 31
0.0
  0
LINE
  5
101
100
AcDbEntity
  8
0
  6
CONTINUOUS
 62
               7
100
AcDbLine
 10
51.699999999999989
 20
52.090817451771116
 30
0.0
 11
56.299999999999983
 21
52.901921563030058
 31
0.0
  0
LINE
  5
102
100
AcDbEntity
  8
0
  6
CONTINUOUS
 62
               7
100
AcDbLine
 10
56.299999999999983
 20
52.901921563030058
 30
0.0
 11
56.299999999999983
 21
53.399999999999949
 31
0.0
  0
LINE
  5
103
100
AcDbEntity
  8
0
  6
CONTINUOUS
 62
               7
100
AcDbLine
 10
37.599999999999994
 20
70.999999999999957
 30
0.0
 11
37.899999999999977
 21
70.699999999999946
 31
0.0
  0
LINE
  5
104
100
AcDbEntity
  8
0
  6
CONTINUOUS
 62
               7
100
AcDbLine
 10
50.399999999999977
 20
69.499999999999957
 30
0.0
 11
37.899999999999977
 21
69.499999999999957
 31
0.0
  0
LINE
  5
105
100
AcDbEntity
  8
0
  6
CONTINUOUS
 62
               7
100
AcDbLine
 10
48.199999999999989
 20
44.782855567520315
 30
0.0
 11
51.699999999999989
 21
45.399999999999949
 31
0.0
  0
LINE
  5
106
100
AcDbEntity
  8
0
  6
CONTINUOUS
 62
               7
100
AcDbLine
 10
48.199999999999989
 20
38.999999999999957
 30
0.0
 11
48.199999999999989
 21
44.782855567520315
 31
0.0
  0
LINE
  5
107
100
AcDbEntity
  8
0
  6
CONTINUOUS
 62
               7
100
AcDbLine
 10
36.699999999999989
 20
70.999999999999957
 30
0.0
 11
37.599999999999994
 21
70.999999999999957
 31
0.0
  0
LINE
  5
108
100
AcDbEntity
  8
0
  6
CONTINUOUS
 62
               7
100
AcDbLine
 10
36.699999999999989
 20
38.999999999999957
 30
0.0
 11
48.199999999999989
 21
38.999999999999957
 31
0.0
  0
LINE
  5
109
100
AcDbEntity
  8
0
  6
CONTINUOUS
 62
               7
100
AcDbLine
 10
39.900000000000006
 20
39.69999999999996
 30
0.0
 11
39.900000000000006
 21
40.499999999999957
 31
0.0
  0
LINE
  5
10A
100
AcDbEntity
  8
0
  6
CONTINUOUS
 62
               7
100
AcDbLine
 10
47.499999999999972
 20
40.499999999999957
 30
0.0
 11
47.499999999999972
 21
39.69999999999996
 31
0.0
  0
LINE
  5
10B
100
AcDbEntity
  8
0
  6
CONTINUOUS
 62
               7
100
AcDbLine
 10
47.499999999999972
 20
40.499999999999957
 30
0.0
 11
39.900000000000006
 21
40.499999999999957
 31
0.0
  0
LINE
  5
10C
100
AcDbEntity
  8
0
  6
CONTINUOUS
 62
               7
100
AcDbLine
 10
47.499999999999972
 20
39.69999999999996
 30
0.0
 11
39.899999999999977
 21
39.69999999999996
 31
0.0
  0
LINE
  5
10D
100
AcDbEntity
  8
0
  6
CONTINUOUS
 62
               7
100
AcDbLine
 10
47.499999999999972
 20
35.299999999999997
 30
0.0
 11
39.899999999999977
 21
35.299999999999997
 31
0.0
  0
LINE
  5
10E
100
AcDbEntity
  8
0
  6
CONTINUOUS
 62
               7
100
AcDbLine
 10
47.499999999999972
 20
34.499999999999986
 30
0.0
 11
39.900000000000006
 21
34.499999999999986
 31
0.0
  0
LINE
  5
10F
100
AcDbEntity
  8
0
  6
CONTINUOUS
 62
               7
100
AcDbLine
 10
47.499999999999972
 20
34.499999999999986
 30
0.0
 11
47.499999999999972
 21
35.299999999999997
 31
0.0
  0
LINE
  5
110
100
AcDbEntity
  8
0
  6
CONTINUOUS
 62
               7
100
AcDbLine
 10
39.900000000000006
 20
35.299999999999997
 30
0.0
 11
39.900000000000006
 21
34.499999999999986
 31
0.0
  0
LINE
  5
111
100
AcDbEntity
  8
0
  6
CONTINUOUS
 62
               7
100
AcDbLine
 10
36.699999999999989
 20
35.999999999999986
 30
0.0
 11
48.199999999999989
 21
35.999999999999986
 31
0.0
  0
LINE
  5
112
100
AcDbEntity
  8
0
  6
CONTINUOUS
 62
               7
100
AcDbLine
 10
36.699999999999989
 20
3.9999999999999858
 30
0.0
 11
37.599999999999994
 21
3.9999999999999858
 31
0.0
  0
LINE
  5
113
100
AcDbEntity
  8
0
  6
CONTINUOUS
 62
               7
100
AcDbLine
 10
48.199999999999989
 20
35.999999999999986
 30
0.0
 11
48.199999999999989
 21
30.217144432479628
 31
0.0
  0
LINE
  5
114
100
AcDbEntity
  8
0
  6
CONTINUOUS
 62
               7
100
AcDbLine
 10
48.199999999999989
 20
30.217144432479628
 30
0.0
 11
51.699999999999989
 21
29.600000000000009
 31
0.0
  0
LINE
  5
115
100
AcDbEntity
  8
0
  6
CONTINUOUS
 62
               7
100
AcDbLine
 10
37.599999999999994
 20
3.9999999999999858
 30
0.0
 11
37.899999999999977
 21
4.2999999999999972
 31
0.0
  0
LINE
  5
116
100
AcDbEntity
  8
0
  6
CONTINUOUS
 62
               7
100
AcDbLine
 10
56.299999999999983
 20
22.098078436969885
 30
0.0
 11
56.299999999999983
 21
21.599999999999994
 31
0.0
  0
LINE
  5
117
100
AcDbEntity
  8
0
  6
CONTINUOUS
 62
               7
100
AcDbLine
 10
51.699999999999989
 20
22.909182548228827
 30
0.0
 11
56.299999999999983
 21
22.098078436969885
 31
0.0
  0
LINE
  5
118
100
AcDbEntity
  8
0
  6
CONTINUOUS
 62
               7
100
AcDbLine
 10
50.400000000000006
 20
21.599999999999994
 30
0.0
 11
56.299999999999983
 21
21.599999999999994
 31
0.0
  0
LINE
  5
119
100
AcDbEntity
  8
0
  6
CONTINUOUS
 62
               7
100
AcDbLine
 10
51.699999999999989
 20
29.600000000000009
 30
0.0
 11
51.699999999999989
 21
22.909182548228827
 31
0.0
  0
LINE
  5
11A
100
AcDbEntity
  8
0
  6
CONTINUOUS
 62
               7
100
AcDbLine
 10
37.899999999999977
 20
3.9999999999999858
 30
0.0
 11
37.899999999999977
 21
5.4999999999999858
 31
0.0
  0
LINE
  5
11B
100
AcDbEntity
  8
0
  6
CONTINUOUS
 62
               7
100
AcDbLine
 10
50.699999999999989
 20
29.099999999999994
 30
0.0
 11
50.699999999999989
 21
25.899999999999991
 31
0.0
  0
LINE
  5
11C
100
AcDbEntity
  8
0
  6
CONTINUOUS
 62
               7
100
AcDbLine
 10
51.699999999999989
 20
25.899999999999991
 30
0.0
 11
50.699999999999989
 21
25.899999999999991
 31
0.0
  0
LINE
  5
11D
100
AcDbEntity
  8
0
  6
CONTINUOUS
 62
               7
100
AcDbLine
 10
51.699999999999989
 20
29.099999999999994
 30
0.0
 11
50.699999999999989
 21
29.099999999999994
 31
0.0
  0
LINE
  5
11E
100
AcDbEntity
  8
0
  6
CONTINUOUS
 62
               7
100
AcDbLine
 10
50.799999999999983
 20
28.999999999999986
 30
0.0
 11
50.699999999999989
 21
28.999999999999986
 31
0.0
  0
LINE
  5
11F
100
AcDbEntity
  8
0
  6
CONTINUOUS
 62
               7
100
AcDbLine
 10
50.799999999999983
 20
25.999999999999986
 30
0.0
 11
50.699999999999989
 21
25.999999999999986
 31
0.0
  0
LINE
  5
120
100
AcDbEntity
  8
0
  6
CONTINUOUS
 62
               7
100
AcDbLine
 10
51.299999999999983
 20
28.499999999999986
 30
0.0
 11
51.299999999999983
 21
26.499999999999986
 31
0.0
  0
ARC
  5
121
100
AcDbEntity
  8
0
  6
CONTINUOUS
 62
               7
100
AcDbCircle
 10
50.799999999999983
 20
26.499999999999986
 30
0.0
 40
0.5
100
AcDbArc
 50
269.99999999999937
 51
0.0
  0
ARC
  5
122
100
AcDbEntity
  8
0
  6
CONTINUOUS
 62
               7
100
AcDbCircle
 10
50.799999999999983
 20
28.499999999999986
 30
0.0
 40
0.5
100
AcDbArc
 50
0.0
 51
89.999999999999815
  0
LINE
  5
123
100
AcDbEntity
  8
0
  6
CONTINUOUS
 62
               7
100
AcDbLine
 10
22.699999999999989
 20
55.5
 30
0.0
 11
22.699999999999989
 21
4.0
 31
0.0
  0
LINE
  5
124
100
AcDbEntity
  8
0
  6
CONTINUOUS
 62
               7
100
AcDbLine
 10
36.700000000000017
 20
55.5
 30
0.0
 11
14.699999999999989
 21
55.5
 31
0.0
  0
LINE
  5
125
100
AcDbEntity
  8
0
  6
CONTINUOUS
 62
               7
100
AcDbLine
 10
36.699999999999989
 20
4.0
 30
0.0
 11
36.700000000000017
 21
70.999999999999957
 31
0.0
  0
LINE
  5
126
100
AcDbEntity
  8
0
  6
CONTINUOUS
 62
               7
100
AcDbLine
 10
36.699999999999989
 20
11.5
 30
0.0
 11
22.699999999999989
 21
11.5
 31
0.0
  0
LINE
  5
127
100
AcDbEntity
  8
0
  6
CONTINUOUS
 62
               7
100
AcDbLine
 10
33.300000000000011
 20
5.0
 30
0.0
 11
36.699999999999989
 21
5.0
 31
0.0
  0
LINE
  5
128
100
AcDbEntity
  8
0
  6
CONTINUOUS
 62
               7
100
AcDbLine
 10
33.300000000000011
 20
4.0
 30
0.0
 11
33.300000000000011
 21
5.0
 31
0.0
  0
LINE
  5
129
100
AcDbEntity
  8
0
  6
CONTINUOUS
 62
               7
100
AcDbLine
 10
20.5
 20
4.0
 30
0.0
 11
36.699999999999989
 21
4.0
 31
0.0
  0
LINE
  5
12A
100
AcDbEntity
  8
0
  6
CONTINUOUS
 62
               7
100
AcDbLine
 10
14.699999999999989
 20
46.300000000000026
 30
0.0
 11
15.699999999999989
 21
46.300000000000026
 31
0.0
  0
LINE
  5
12B
100
AcDbEntity
  8
0
  6
CONTINUOUS
 62
               7
100
AcDbLine
 10
15.699999999999989
 20
49.700000000000031
 30
0.0
 11
15.699999999999989
 21
46.300000000000026
 31
0.0
  0
LINE
  5
12C
100
AcDbEntity
  8
0
  6
CONTINUOUS
 62
               7
100
AcDbLine
 10
14.699999999999989
 20
49.700000000000031
 30
0.0
 11
15.699999999999989
 21
49.700000000000031
 31
0.0
  0
LINE
  5
12D
100
AcDbEntity
  8
0
  6
CONTINUOUS
 62
               7
100
AcDbLine
 10
14.699999999999989
 20
55.500000000000028
 30
0.0
 11
14.699999999999989
 21
22.572114219898346
 31
0.0
  0
LINE
  5
12E
100
AcDbEntity
  8
0
  6
CONTINUOUS
 62
               7
100
AcDbLine
 10
15.0
 20
49.30000000000004
 30
0.0
 11
15.0
 21
46.700000000000017
 31
0.0
  0
ARC
  5
12F
100
AcDbEntity
  8
0
  6
CONTINUOUS
 62
               7
100
AcDbCircle
 10
15.400000000000006
 20
49.30000000000004
 30
0.0
 40
0.4
100
AcDbArc
 50
89.999999999999815
 51
179.99999999999963
  0
ARC
  5
130
100
AcDbEntity
  8
0
  6
CONTINUOUS
 62
               7
100
AcDbCircle
 10
15.400000000000006
 20
46.700000000000017
 30
0.0
 40
0.4
100
AcDbArc
 50
179.99999999999963
 51
269.99999999999937
  0
LINE
  5
131
100
AcDbEntity
  8
0
  6
CONTINUOUS
 62
               7
100
AcDbLine
 10
29.200000000000017
 20
62.358402898235937
 30
0.0
 11
24.200000000000017
 21
62.358402898235937
 31
0.0
  0
LINE
  5
132
100
AcDbEntity
  8
0
  6
CONTINUOUS
 62
               7
100
AcDbLine
 10
23.700000000000017
 20
61.858402898235937
 30
0.0
 11
24.200000000000017
 21
62.358402898235937
 31
0.0
  0
LINE
  5
133
100
AcDbEntity
  8
0
  6
CONTINUOUS
 62
               7
100
AcDbLine
 10
23.700000000000017
 20
59.858402898235937
 30
0.0
 11
24.200000000000017
 21
59.358402898235937
 31
0.0
  0
LINE
  5
134
100
AcDbEntity
  8
0
  6
CONTINUOUS
 62
               7
100
AcDbLine
 10
29.700000000000017
 20
61.858402898235937
 30
0.0
 11
29.200000000000017
 21
62.358402898235937
 31
0.0
  0
LINE
  5
135
100
AcDbEntity
  8
0
  6
CONTINUOUS
 62
               7
100
AcDbLine
 10
29.700000000000017
 20
59.858402898235937
 30
0.0
 11
29.200000000000017
 21
59.358402898235937
 31
0.0
  0
LINE
  5
136
100
AcDbEntity
  8
0
  6
CONTINUOUS
 62
               7
100
AcDbLine
 10
29.700000000000017
 20
59.858402898235937
 30
0.0
 11
29.700000000000017
 21
61.858402898235937
 31
0.0
  0
LINE
  5
137
100
AcDbEntity
  8
0
  6
CONTINUOUS
 62
               7
100
AcDbLine
 10
29.200000000000017
 20
59.358402898235937
 30
0.0
 11
24.200000000000017
 21
59.358402898235937
 31
0.0
  0
LINE
  5
138
100
AcDbEntity
  8
0
  6
CONTINUOUS
 62
               2
100
AcDbLine
 10
27.775000000000006
 20
63.563402898235921
 30
0.0
 11
27.775000000000006
 21
62.358402898235937
 31
0.0
  0
LINE
  5
139
100
AcDbEntity
  8
0
  6
CONTINUOUS
 62
               7
100
AcDbLine
 10
27.200000000000017
 20
69.063402898235935
 30
0.0
 11
29.200000000000017
 21
69.063402898235935
 31
0.0
  0
LINE
  5
13A
100
AcDbEntity
  8
0
  6
CONTINUOUS
 62
               7
100
AcDbLine
 10
27.200000000000017
 20
69.563402898235935
 30
0.0
 11
28.700000000000017
 21
69.563402898235935
 31
0.0
  0
LINE
  5
13B
100
AcDbEntity
  8
0
  6
CONTINUOUS
 62
               7
100
AcDbLine
 10
27.200000000000017
 20
69.563402898235935
 30
0.0
 11
27.200000000000017
 21
68.563402898235935
 31
0.0
  0
LINE
  5
13C
100
AcDbEntity
  8
0
  6
CONTINUOUS
 62
               7
100
AcDbLine
 10
26.200000000000017
 20
69.563402898235935
 30
0.0
 11
26.200000000000017
 21
68.563402898235935
 31
0.0
  0
LINE
  5
13D
100
AcDbEntity
  8
0
  6
CONTINUOUS
 62
               7
100
AcDbLine
 10
23.450000000000017
 20
58.219220935761115
 30
0.0
 11
29.950000000000017
 21
58.219220935761115
 31
0.0
  0
LINE
  5
13E
100
AcDbEntity
  8
0
  6
CONTINUOUS
 62
               7
100
AcDbLine
 10
23.700000000000017
 20
59.858402898235937
 30
0.0
 11
29.700000000000017
 21
59.858402898235937
 31
0.0
  0
LINE
  5
13F
100
AcDbEntity
  8
0
  6
CONTINUOUS
 62
               7
100
AcDbLine
 10
23.700000000000017
 20
61.858402898235937
 30
0.0
 11
29.700000000000017
 21
61.858402898235937
 31
0.0
  0
LINE
  5
140
100
AcDbEntity
  8
0
  6
CONTINUOUS
 62
               7
100
AcDbLine
 10
24.200000000000017
 20
64.063402898235921
 30
0.0
 11
29.200000000000017
 21
64.063402898235921
 31
0.0
  0
LINE
  5
141
100
AcDbEntity
  8
0
  6
CONTINUOUS
 62
               7
100
AcDbLine
 10
24.200000000000017
 20
69.063402898235935
 30
0.0
 11
26.200000000000017
 21
69.063402898235935
 31
0.0
  0
LINE
  5
142
100
AcDbEntity
  8
0
  6
CENTER
 62
               2
100
AcDbLine
 10
26.700000000000017
 20
70.272376761412715
 30
0.0
 11
26.700000000000017
 21
55.5
 31
0.0
  0
LINE
  5
143
100
AcDbEntity
  8
0
  6
CONTINUOUS
 62
               7
100
AcDbLine
 10
27.200000000000017
 20
68.563402898235935
 30
0.0
 11
26.200000000000017
 21
68.563402898235935
 31
0.0
  0
LINE
  5
144
100
AcDbEntity
  8
0
  6
CONTINUOUS
 62
               7
100
AcDbLine
 10
24.200000000000017
 20
69.063402898235935
 30
0.0
 11
24.700000000000017
 21
69.563402898235935
 31
0.0
  0
LINE
  5
145
100
AcDbEntity
  8
0
  6
CONTINUOUS
 62
               7
100
AcDbLine
 10
29.200000000000017
 20
69.063402898235935
 30
0.0
 11
28.700000000000017
 21
69.563402898235935
 31
0.0
  0
LINE
  5
146
100
AcDbEntity
  8
0
  6
CONTINUOUS
 62
               7
100
AcDbLine
 10
26.200000000000017
 20
69.563402898235935
 30
0.0
 11
24.700000000000017
 21
69.563402898235935
 31
0.0
  0
LINE
  5
147
100
AcDbEntity
  8
0
  6
CONTINUOUS
 62
               7
100
AcDbLine
 10
27.950000000000017
 20
63.563402898235921
 30
0.0
 11
27.950000000000017
 21
62.358402898235937
 31
0.0
  0
LINE
  5
148
100
AcDbEntity
  8
0
  6
CENTER
 62
             200
100
AcDbLine
 10
16.5
 20
14.032680004656473
 30
0.0
 11
16.5
 21
23.5
 31
0.0
  0
ARC
  5
149
100
AcDbEntity
  8
0
  6
CONTINUOUS
 62
               4
100
AcDbCircle
 10
16.5
 20
19.0
 30
0.0
 40
1.8
100
AcDbArc
 50
13.207141758581814
 51
166.79285824141775
  0
LINE
  5
14A
100
AcDbEntity
  8
0
  6
CENTER
 62
             200
100
AcDbLine
 10
13.971124524314888
 20
18.0
 30
0.0
 11
19.0
 21
18.0
 31
0.0
  0
LINE
  5
14B
100
AcDbEntity
  8
0
  6
CENTER
 62
             200
100
AcDbLine
 10
13.971124524314888
 20
19.0
 30
0.0
 11
19.0
 21
19.0
 31
0.0
  0
CIRCLE
  5
14C
100
AcDbEntity
  8
0
  6
CONTINUOUS
 62
               4
100
AcDbCircle
 10
16.5
 20
18.0
 30
0.0
 40
2.25
  0
LINE
  5
14D
100
AcDbEntity
  8
0
  6
CONTINUOUS
 62
               4
100
AcDbLine
 10
17.499999956111253
 20
17.422649741172791
 30
0.0
 11
16.499999943090586
 21
16.845299464465683
 31
0.0
  0
LINE
  5
14E
100
AcDbEntity
  8
0
  6
CONTINUOUS
 62
               4
100
AcDbLine
 10
16.499999956111253
 20
19.154700517654419
 30
0.0
 11
15.5
 21
18.577350273803972
 31
0.0
  0
LINE
  5
14F
100
AcDbEntity
  8
0
  6
CONTINUOUS
 62
               4
100
AcDbLine
 10
16.499999956111253
 20
16.845299452543259
 30
0.0
 11
15.499999985913576
 21
17.422649711370468
 31
0.0
  0
LINE
  5
150
100
AcDbEntity
  8
0
  6
CONTINUOUS
 62
               4
100
AcDbLine
 10
17.499999956111253
 20
18.577350288629532
 30
0.0
 11
16.499999985913576
 21
19.154700547456741
 31
0.0
  0
LINE
  5
151
100
AcDbEntity
  8
0
  6
CONTINUOUS
 62
               4
100
AcDbLine
 10
17.5
 20
17.422649741172791
 30
0.0
 11
17.5
 21
18.577350258827209
 31
0.0
  0
LINE
  5
152
100
AcDbEntity
  8
0
  6
CONTINUOUS
 62
               4
100
AcDbLine
 10
15.5
 20
17.422649681568146
 30
0.0
 11
15.5
 21
18.577350258827209
 31
0.0
  0
CIRCLE
  5
153
100
AcDbEntity
  8
0
  6
CONTINUOUS
 62
               4
100
AcDbCircle
 10
16.5
 20
18.0
 30
0.0
 40
1.9999999999999996
  0
LINE
  5
154
100
AcDbEntity
  8
0
  6
CONTINUOUS
 62
               4
100
AcDbLine
 10
17.900000000000006
 20
16.0
 30
0.0
 11
17.900000000000006
 21
16.238608504619151
 31
0.0
  0
ARC
  5
155
100
AcDbEntity
  8
0
  6
CONTINUOUS
 62
               4
100
AcDbCircle
 10
16.5
 20
16.0
 30
0.0
 40
1.3999999999999999
100
AcDbArc
 50
179.99999999999963
 51
0.0
  0
LINE
  5
156
100
AcDbEntity
  8
0
  6
CONTINUOUS
 62
               4
100
AcDbLine
 10
15.100000000000009
 20
16.0
 30
0.0
 11
15.100000000000009
 21
16.23860850461914
 31
0.0
  0
ENDBLK
  5
157
100
AcDbEntity
  8
0
100
AcDbBlockEnd
  0
BLOCK
  5
158
100
AcDbEntity
  8
0
100
AcDbBlockBegin
  2
MV090-01-3
 70
               0
 10
0.0
 20
0.0
 30
0.0
  3
MV090-01-3
  1

  0
LINE
  5
159
100
AcDbEntity
  8
0
  6
CENTER
 62
             200
100
AcDbLine
 10
0.0
 20
-1.6999999999999886
 30
0.0
 11
0.0
 21
3.3000000000000114
 31
0.0
  0
LINE
  5
15A
100
AcDbEntity
  8
0
  6
CENTER
 62
             200
100
AcDbLine
 10
7.7000000000000171
 20
18.0
 30
0.0
 11
0.4512971541956006
 21
18.0
 31
0.0
  0
LINE
  5
15B
100
AcDbEntity
  8
0
  6
CENTER
 62
             200
100
AcDbLine
 10
7.7000000000000171
 20
6.0
 30
0.0
 11
0.4512971541956006
 21
6.0
 31
0.0
  0
ARC
  5
15C
100
AcDbEntity
  8
0
  6
CONTINUOUS
 62
               4
100
AcDbCircle
 10
5.5
 20
0.5
 30
0.0
 40
0.5
100
AcDbArc
 50
269.99999999999937
 51
0.0
  0
ARC
  5
15D
100
AcDbEntity
  8
0
  6
CONTINUOUS
 62
               4
100
AcDbCircle
 10
4.0
 20
2.0
 30
0.0
 40
0.4
100
AcDbArc
 50
269.99999999999937
 51
0.0
  0
ARC
  5
15E
100
AcDbEntity
  8
0
  6
CONTINUOUS
 62
               4
100
AcDbCircle
 10
-3.5
 20
0.5
 30
0.0
 40
0.5
100
AcDbArc
 50
179.99999999999963
 51
269.99999999999937
  0
ARC
  5
15F
100
AcDbEntity
  8
0
  6
CONTINUOUS
 62
               4
100
AcDbCircle
 10
-3.5
 20
1.0999999999999943
 30
0.0
 40
0.5
100
AcDbArc
 50
89.999999999999815
 51
179.99999999999963
  0
ARC
  5
160
100
AcDbEntity
  8
0
  6
CONTINUOUS
 62
               4
100
AcDbCircle
 10
4.9000000000000057
 20
22.5
 30
0.0
 40
0.5
100
AcDbArc
 50
89.999999999999815
 51
179.99999999999963
  0
ARC
  5
161
100
AcDbEntity
  8
0
  6
CONTINUOUS
 62
               4
100
AcDbCircle
 10
5.5
 20
22.5
 30
0.0
 40
0.5
100
AcDbArc
 50
0.0
 51
89.999999999999815
  0
LINE
  5
162
100
AcDbEntity
  8
0
  6
CONTINUOUS
 62
               4
100
AcDbLine
 10
5.5
 20
23.0
 30
0.0
 11
4.9000000000000057
 21
23.0
 31
0.0
  0
LINE
  5
163
100
AcDbEntity
  8
0
  6
CONTINUOUS
 62
               4
100
AcDbLine
 10
-3.5
 20
1.5999999999999943
 30
0.0
 11
4.0
 21
1.5999999999999943
 31
0.0
  0
LINE
  5
164
100
AcDbEntity
  8
0
  6
CONTINUOUS
 62
               4
100
AcDbLine
 10
-3.5
 20
0.0
 30
0.0
 11
5.5
 21
0.0
 31
0.0
  0
LINE
  5
165
100
AcDbEntity
  8
0
  6
CONTINUOUS
 62
               4
100
AcDbLine
 10
4.4000000000000057
 20
22.5
 30
0.0
 11
4.4000000000000057
 21
2.0
 31
0.0
  0
LINE
  5
166
100
AcDbEntity
  8
0
  6
CONTINUOUS
 62
               4
100
AcDbLine
 10
6.0
 20
0.5
 30
0.0
 11
6.0
 21
4.0
 31
0.0
  0
LINE
  5
167
100
AcDbEntity
  8
0
  6
CONTINUOUS
 62
               4
100
AcDbLine
 10
-4.0
 20
1.0999999999999943
 30
0.0
 11
-4.0
 21
0.5
 31
0.0
  0
LINE
  5
168
100
AcDbEntity
  8
0
  6
CONTINUOUS
 62
               4
100
AcDbLine
 10
2.0500000000000114
 20
20.25
 30
0.0
 11
1.8000000000000114
 21
20.0
 31
0.0
  0
LINE
  5
169
100
AcDbEntity
  8
0
  6
CONTINUOUS
 62
               4
100
AcDbLine
 10
2.0500000000000114
 20
15.75
 30
0.0
 11
1.8000000000000114
 21
16.0
 31
0.0
  0
LINE
  5
16A
100
AcDbEntity
  8
0
  6
CONTINUOUS
 62
               4
100
AcDbLine
 10
2.0500000000000114
 20
20.25
 30
0.0
 11
2.0500000000000114
 21
15.75
 31
0.0
  0
LINE
  5
16B
100
AcDbEntity
  8
0
  6
CONTINUOUS
 62
               4
100
AcDbLine
 10
1.8000000000000114
 20
20.0
 30
0.0
 11
1.8000000000000114
 21
16.0
 31
0.0
  0
LINE
  5
16C
100
AcDbEntity
  8
0
  6
CONTINUOUS
 62
               4
100
AcDbLine
 10
2.0500000000000114
 20
20.25
 30
0.0
 11
4.4000000000000057
 21
20.25
 31
0.0
  0
LINE
  5
16D
100
AcDbEntity
  8
0
  6
CONTINUOUS
 62
               4
100
AcDbLine
 10
2.0500000000000114
 20
15.75
 30
0.0
 11
4.4000000000000057
 21
15.75
 31
0.0
  0
LINE
  5
16E
100
AcDbEntity
  8
0
  6
CONTINUOUS
 62
               4
100
AcDbLine
 10
2.0500000000000114
 20
3.75
 30
0.0
 11
4.4000000000000057
 21
3.75
 31
0.0
  0
LINE
  5
16F
100
AcDbEntity
  8
0
  6
CONTINUOUS
 62
               4
100
AcDbLine
 10
2.0500000000000114
 20
8.25
 30
0.0
 11
4.4000000000000057
 21
8.25
 31
0.0
  0
LINE
  5
170
100
AcDbEntity
  8
0
  6
CONTINUOUS
 62
               4
100
AcDbLine
 10
1.8000000000000114
 20
8.0
 30
0.0
 11
1.8000000000000114
 21
4.0
 31
0.0
  0
LINE
  5
171
100
AcDbEntity
  8
0
  6
CONTINUOUS
 62
               4
100
AcDbLine
 10
2.0500000000000114
 20
8.25
 30
0.0
 11
2.0500000000000114
 21
3.75
 31
0.0
  0
LINE
  5
172
100
AcDbEntity
  8
0
  6
CONTINUOUS
 62
               4
100
AcDbLine
 10
2.0500000000000114
 20
3.75
 30
0.0
 11
1.8000000000000114
 21
4.0
 31
0.0
  0
LINE
  5
173
100
AcDbEntity
  8
0
  6
CONTINUOUS
 62
               4
100
AcDbLine
 10
2.0500000000000114
 20
8.25
 30
0.0
 11
1.8000000000000114
 21
8.0
 31
0.0
  0
LINE
  5
174
100
AcDbEntity
  8
0
  6
CONTINUOUS
 62
               7
100
AcDbLine
 10
6.0
 20
4.0
 30
0.0
 11
16.0
 21
4.0
 31
0.0
  0
LINE
  5
175
100
AcDbEntity
  8
0
  6
CONTINUOUS
 62
               7
100
AcDbLine
 10
12.5
 20
9.0
 30
0.0
 11
9.5
 21
9.0
 31
0.0
  0
LINE
  5
176
100
AcDbEntity
  8
0
  6
CONTINUOUS
 62
               7
100
AcDbLine
 10
9.5
 20
9.0
 30
0.0
 11
9.5
 21
4.0
 31
0.0
  0
LINE
  5
177
100
AcDbEntity
  8
0
  6
CONTINUOUS
 62
               7
100
AcDbLine
 10
12.5
 20
9.0
 30
0.0
 11
12.5
 21
4.0
 31
0.0
  0
LINE
  5
178
100
AcDbEntity
  8
0
  6
CONTINUOUS
 62
               7
100
AcDbLine
 10
15.699999999999932
 20
16.199999999999932
 30
0.0
 11
13.5
 21
16.199999999999932
 31
0.0
  0
LINE
  5
179
100
AcDbEntity
  8
0
  6
CONTINUOUS
 62
               7
100
AcDbLine
 10
13.899999999999977
 20
17.199999999999932
 30
0.0
 11
13.5
 21
17.199999999999932
 31
0.0
  0
LINE
  5
17A
100
AcDbEntity
  8
0
  6
CONTINUOUS
 62
               7
100
AcDbLine
 10
13.899999999999977
 20
17.199999999999932
 30
0.0
 11
13.899999999999977
 21
16.199999999999932
 31
0.0
  0
LINE
  5
17B
100
AcDbEntity
  8
0
  6
CONTINUOUS
 62
               7
100
AcDbLine
 10
8.0999999999999091
 20
17.199999999999932
 30
0.0
 11
8.0999999999999091
 21
16.199999999999932
 31
0.0
  0
LINE
  5
17C
100
AcDbEntity
  8
0
  6
CONTINUOUS
 62
               7
100
AcDbLine
 10
13.899999999999977
 20
16.699999999999932
 30
0.0
 11
8.0999999999999091
 21
16.699999999999932
 31
0.0
  0
LINE
  5
17D
100
AcDbEntity
  8
0
  6
CONTINUOUS
 62
               7
100
AcDbLine
 10
8.5
 20
15.199999999999932
 30
0.0
 11
8.5
 21
17.699999999999932
 31
0.0
  0
LINE
  5
17E
100
AcDbEntity
  8
0
  6
CONTINUOUS
 62
               7
100
AcDbLine
 10
13.5
 20
15.199999999999932
 30
0.0
 11
13.5
 21
17.699999999999932
 31
0.0
  0
LINE
  5
17F
100
AcDbEntity
  8
0
  6
CONTINUOUS
 62
               7
100
AcDbLine
 10
7.5099999999999909
 20
18.199999999999932
 30
0.0
 11
7.3859999999999673
 21
20.087999999999965
 31
0.0
  0
ARC
  5
180
100
AcDbEntity
  8
0
  6
CONTINUOUS
 62
               7
100
AcDbCircle
 10
7.5852851473609917
 20
20.100334766640458
 30
0.0
 40
0.1996665130331531
100
AcDbArc
 50
89.79486732121282
 51
183.54180757537307
  0
LINE
  5
181
100
AcDbEntity
  8
0
  6
CONTINUOUS
 62
               7
100
AcDbLine
 10
7.9099999999999682
 20
20.299999999999955
 30
0.0
 11
7.9099999999999682
 21
20.799999999999955
 31
0.0
  0
LINE
  5
182
100
AcDbEntity
  8
0
  6
CONTINUOUS
 62
               7
100
AcDbLine
 10
9.0099999999999909
 20
20.799999999999955
 30
0.0
 11
7.9099999999999682
 21
20.799999999999955
 31
0.0
  0
LINE
  5
183
100
AcDbEntity
  8
0
  6
CONTINUOUS
 62
               7
100
AcDbLine
 10
9.0099999999999909
 20
20.299999999999955
 30
0.0
 11
9.0099999999999909
 21
20.799999999999955
 31
0.0
  0
LINE
  5
184
100
AcDbEntity
  8
0
  6
CONTINUOUS
 62
               7
100
AcDbLine
 10
9.335999999999899
 20
20.299999999999955
 30
0.0
 11
7.585999999999899
 21
20.299999999999955
 31
0.0
  0
ARC
  5
185
100
AcDbEntity
  8
0
  6
CONTINUOUS
 62
               7
100
AcDbCircle
 10
9.3356558920256703
 20
20.099335747194004
 30
0.0
 40
0.2006645478515588
100
AcDbArc
 50
356.76157835491654
 51
89.901746748495754
  0
LINE
  5
186
100
AcDbEntity
  8
0
  6
CONTINUOUS
 62
               7
100
AcDbLine
 10
9.5359999999999445
 20
20.087999999999965
 30
0.0
 11
9.4099999999999682
 21
18.199999999999932
 31
0.0
  0
LINE
  5
187
100
AcDbEntity
  8
0
  6
CONTINUOUS
 62
               7
100
AcDbLine
 10
9.4099999999999682
 20
18.199999999999932
 30
0.0
 11
7.5099999999999909
 21
18.199999999999932
 31
0.0
  0
LINE
  5
188
100
AcDbEntity
  8
0
  6
CONTINUOUS
 62
               7
100
AcDbLine
 10
10.599999999999909
 20
19.599999999999909
 30
0.0
 11
11.399999999999977
 21
19.599999999999909
 31
0.0
  0
LINE
  5
189
100
AcDbEntity
  8
0
  6
CONTINUOUS
 62
               7
100
AcDbLine
 10
10.599999999999909
 20
18.799999999999955
 30
0.0
 11
10.599999999999909
 21
19.599999999999909
 31
0.0
  0
LINE
  5
18A
100
AcDbEntity
  8
0
  6
CONTINUOUS
 62
               7
100
AcDbLine
 10
10.599999999999909
 20
18.799999999999955
 30
0.0
 11
11.399999999999977
 21
18.799999999999955
 31
0.0
  0
LINE
  5
18B
100
AcDbEntity
  8
0
  6
CONTINUOUS
 62
               7
100
AcDbLine
 10
11.399999999999977
 20
18.799999999999955
 30
0.0
 11
11.399999999999977
 21
19.599999999999909
 31
0.0
  0
LINE
  5
18C
100
AcDbEntity
  8
0
  6
CONTINUOUS
 62
               7
100
AcDbLine
 10
10.049999999999955
 20
18.199999999999932
 30
0.0
 11
9.9259999999999309
 21
20.087999999999965
 31
0.0
  0
ARC
  5
18D
100
AcDbEntity
  8
0
  6
CONTINUOUS
 62
               7
100
AcDbCircle
 10
10.125285147361069
 20
20.100334766640458
 30
0.0
 40
0.1996665130331531
100
AcDbArc
 50
89.79486732121282
 51
183.54180757537307
  0
LINE
  5
18E
100
AcDbEntity
  8
0
  6
CONTINUOUS
 62
               7
100
AcDbLine
 10
10.449999999999932
 20
20.299999999999955
 30
0.0
 11
10.449999999999932
 21
20.799999999999955
 31
0.0
  0
LINE
  5
18F
100
AcDbEntity
  8
0
  6
CONTINUOUS
 62
               7
100
AcDbLine
 10
11.549999999999955
 20
20.799999999999955
 30
0.0
 11
10.449999999999932
 21
20.799999999999955
 31
0.0
  0
LINE
  5
190
100
AcDbEntity
  8
0
  6
CONTINUOUS
 62
               7
100
AcDbLine
 10
11.549999999999955
 20
20.299999999999955
 30
0.0
 11
11.549999999999955
 21
20.799999999999955
 31
0.0
  0
LINE
  5
191
100
AcDbEntity
  8
0
  6
CONTINUOUS
 62
               7
100
AcDbLine
 10
11.875999999999976
 20
20.299999999999955
 30
0.0
 11
10.125999999999976
 21
20.299999999999955
 31
0.0
  0
ARC
  5
192
100
AcDbEntity
  8
0
  6
CONTINUOUS
 62
               7
100
AcDbCircle
 10
11.875655892025634
 20
20.099335747194004
 30
0.0
 40
0.2006645478515588
100
AcDbArc
 50
356.76157835491654
 51
89.901746748495754
  0
LINE
  5
193
100
AcDbEntity
  8
0
  6
CONTINUOUS
 62
               7
100
AcDbLine
 10
12.075999999999908
 20
20.087999999999965
 30
0.0
 11
11.949999999999932
 21
18.199999999999932
 31
0.0
  0
LINE
  5
194
100
AcDbEntity
  8
0
  6
CONTINUOUS
 62
               7
100
AcDbLine
 10
11.949999999999932
 20
18.199999999999932
 30
0.0
 11
10.049999999999955
 21
18.199999999999932
 31
0.0
  0
LINE
  5
195
100
AcDbEntity
  8
0
  6
CONTINUOUS
 62
               7
100
AcDbLine
 10
14.615999999999985
 20
20.087999999999965
 30
0.0
 11
14.490000000000009
 21
18.199999999999932
 31
0.0
  0
LINE
  5
196
100
AcDbEntity
  8
0
  6
CONTINUOUS
 62
               7
100
AcDbLine
 10
12.589999999999918
 20
18.199999999999932
 30
0.0
 11
12.465999999999894
 21
20.087999999999965
 31
0.0
  0
LINE
  5
197
100
AcDbEntity
  8
0
  6
CONTINUOUS
 62
               7
100
AcDbLine
 10
7.2999999999999545
 20
17.699999999999932
 30
0.0
 11
7.2999999999999545
 21
16.699999999999932
 31
0.0
  0
LINE
  5
198
100
AcDbEntity
  8
0
  6
CONTINUOUS
 62
               7
100
AcDbLine
 10
14.699999999999932
 20
17.699999999999932
 30
0.0
 11
14.699999999999932
 21
16.699999999999932
 31
0.0
  0
LINE
  5
199
100
AcDbEntity
  8
0
  6
CONTINUOUS
 62
               7
100
AcDbLine
 10
15.699999999999932
 20
16.699999999999932
 30
0.0
 11
14.699999999999932
 21
16.699999999999932
 31
0.0
  0
LINE
  5
19A
100
AcDbEntity
  8
0
  6
CONTINUOUS
 62
               7
100
AcDbLine
 10
12.25
 20
16.699999999999932
 30
0.0
 11
12.25
 21
17.699999999999932
 31
0.0
  0
LINE
  5
19B
100
AcDbEntity
  8
0
  6
CONTINUOUS
 62
               7
100
AcDbLine
 10
9.75
 20
16.699999999999932
 30
0.0
 11
9.75
 21
17.699999999999932
 31
0.0
  0
LINE
  5
19C
100
AcDbEntity
  8
0
  6
CONTINUOUS
 62
               7
100
AcDbLine
 10
14.089999999999918
 20
20.799999999999955
 30
0.0
 11
12.990000000000009
 21
20.799999999999955
 31
0.0
  0
LINE
  5
19D
100
AcDbEntity
  8
0
  6
CONTINUOUS
 62
               7
100
AcDbLine
 10
14.41599999999994
 20
20.299999999999955
 30
0.0
 11
12.66599999999994
 21
20.299999999999955
 31
0.0
  0
LINE
  5
19E
100
AcDbEntity
  8
0
  6
CONTINUOUS
 62
               7
100
AcDbLine
 10
14.490000000000009
 20
18.199999999999932
 30
0.0
 11
12.589999999999918
 21
18.199999999999932
 31
0.0
  0
ARC
  5
19F
100
AcDbEntity
  8
0
  6
CONTINUOUS
 62
               7
100
AcDbCircle
 10
12.665285147361033
 20
20.100334766640458
 30
0.0
 40
0.1996665130331531
100
AcDbArc
 50
89.79486732121282
 51
183.54180757537307
  0
LINE
  5
1A0
100
AcDbEntity
  8
0
  6
CONTINUOUS
 62
               7
100
AcDbLine
 10
12.990000000000009
 20
20.299999999999955
 30
0.0
 11
12.990000000000009
 21
20.799999999999955
 31
0.0
  0
ARC
  5
1A1
100
AcDbEntity
  8
0
  6
CONTINUOUS
 62
               7
100
AcDbCircle
 10
14.415655892025597
 20
20.099335747194004
 30
0.0
 40
0.2006645478515588
100
AcDbArc
 50
356.76157835491654
 51
89.901746748495754
  0
LINE
  5
1A2
100
AcDbEntity
  8
0
  6
CONTINUOUS
 62
               7
100
AcDbLine
 10
14.089999999999918
 20
20.299999999999955
 30
0.0
 11
14.089999999999918
 21
20.799999999999955
 31
0.0
  0
LINE
  5
1A3
100
AcDbEntity
  8
0
  6
CONTINUOUS
 62
               7
100
AcDbLine
 10
15.699999999999932
 20
21.999999999999886
 30
0.0
 11
15.699999999999932
 21
16.699999999999932
 31
0.0
  0
LINE
  5
1A4
100
AcDbEntity
  8
0
  6
CONTINUOUS
 62
               7
100
AcDbLine
 10
14.699999999999932
 20
17.699999999999932
 30
0.0
 11
7.2999999999999545
 21
17.699999999999932
 31
0.0
  0
LINE
  5
1A5
100
AcDbEntity
  8
0
  6
CONTINUOUS
 62
               7
100
AcDbLine
 10
13.50000000057662
 20
15.199999999999932
 30
0.0
 11
8.5000000005766196
 21
15.199999999999932
 31
0.0
  0
LINE
  5
1A6
100
AcDbEntity
  8
0
  6
CONTINUOUS
 62
               7
100
AcDbLine
 10
13.5
 20
16.399999999999977
 30
0.0
 11
8.5
 21
16.399999999999977
 31
0.0
  0
CIRCLE
  5
1A7
100
AcDbEntity
  8
0
  6
CONTINUOUS
 62
               7
100
AcDbCircle
 10
13.539999999999964
 20
19.199999999999932
 30
0.0
 40
0.75
  0
CIRCLE
  5
1A8
100
AcDbEntity
  8
0
  6
CONTINUOUS
 62
               7
100
AcDbCircle
 10
8.4599999999999227
 20
19.199999999999932
 30
0.0
 40
0.75
  0
LINE
  5
1A9
100
AcDbEntity
  8
0
  6
CONTINUOUS
 62
               7
100
AcDbLine
 10
8.5
 20
17.199999999999932
 30
0.0
 11
8.0999999999999091
 21
17.199999999999932
 31
0.0
  0
LINE
  5
1AA
100
AcDbEntity
  8
0
  6
CONTINUOUS
 62
               7
100
AcDbLine
 10
15.699999999999932
 20
21.499999999999886
 30
0.0
 11
16.0
 21
21.499999999999886
 31
0.0
  0
LINE
  5
1AB
100
AcDbEntity
  8
0
  6
CONTINUOUS
 62
               7
100
AcDbLine
 10
15.699999999999932
 20
21.600000000000023
 30
0.0
 11
16.0
 21
21.600000000000023
 31
0.0
  0
LINE
  5
1AC
100
AcDbEntity
  8
0
  6
CONTINUOUS
 62
               7
100
AcDbLine
 10
8.5
 20
16.199999999999932
 30
0.0
 11
6.2999999999999545
 21
16.199999999999932
 31
0.0
  0
LINE
  5
1AD
100
AcDbEntity
  8
0
  6
CONTINUOUS
 62
               7
100
AcDbLine
 10
6.2999999999999545
 20
16.699999999999932
 30
0.0
 11
7.2999999999999545
 21
16.699999999999932
 31
0.0
  0
ARC
  5
1AE
100
AcDbEntity
  8
0
  6
CONTINUOUS
 62
               7
100
AcDbCircle
 10
15.699999999999932
 20
16.499999999999886
 30
0.0
 40
0.3
100
AcDbArc
 50
269.99999999999937
 51
0.0
  0
LINE
  5
1AF
100
AcDbEntity
  8
0
  6
CONTINUOUS
 62
               7
100
AcDbLine
 10
6.0
 20
21.600000000000023
 30
0.0
 11
6.2999999999999545
 21
21.600000000000023
 31
0.0
  0
LINE
  5
1B0
100
AcDbEntity
  8
0
  6
CONTINUOUS
 62
               7
100
AcDbLine
 10
6.0
 20
21.499999999999886
 30
0.0
 11
6.2999999999999545
 21
21.499999999999886
 31
0.0
  0
LINE
  5
1B1
100
AcDbEntity
  8
0
  6
CONTINUOUS
 62
               7
100
AcDbLine
 10
6.2999999999999545
 20
21.999999999999886
 30
0.0
 11
6.2999999999999545
 21
16.699999999999932
 31
0.0
  0
LINE
  5
1B2
100
AcDbEntity
  8
0
  6
CONTINUOUS
 62
               7
100
AcDbLine
 10
15.699999999999932
 20
21.999999999999886
 30
0.0
 11
6.2999999999999545
 21
21.999999999999886
 31
0.0
  0
LINE
  5
1B3
100
AcDbEntity
  8
0
  6
CONTINUOUS
 62
               7
100
AcDbLine
 10
6.0
 20
22.909182548228841
 30
0.0
 11
16.0
 21
22.909182548228841
 31
0.0
  0
LINE
  5
1B4
100
AcDbEntity
  8
0
  6
CONTINUOUS
 62
               7
100
AcDbLine
 10
16.0
 20
22.098078436969899
 30
0.0
 11
6.0
 21
22.098078436969899
 31
0.0
  0
CIRCLE
  5
1B5
100
AcDbEntity
  8
0
  6
CONTINUOUS
 62
               7
100
AcDbCircle
 10
7.5
 20
27.5
 30
0.0
 40
1.5
  0
LINE
  5
1B6
100
AcDbEntity
  8
0
  6
CONTINUOUS
 62
               7
100
AcDbLine
 10
6.7928932188133331
 20
28.207106781186553
 30
0.0
 11
8.2071067811864395
 21
26.792893218813447
 31
0.0
  0
LINE
  5
1B7
100
AcDbEntity
  8
0
  6
CONTINUOUS
 62
               7
100
AcDbLine
 10
6.7928932188133331
 20
26.792893218813447
 30
0.0
 11
8.2071067811864395
 21
28.207106781186553
 31
0.0
  0
LINE
  5
1B8
100
AcDbEntity
  8
0
  6
CONTINUOUS
 62
               7
100
AcDbLine
 10
9.1744863736471416
 20
25.449999999999932
 30
0.0
 11
11.0
 21
25.449999999999932
 31
0.0
  0
ARC
  5
1B9
100
AcDbEntity
  8
0
  6
CONTINUOUS
 62
               7
100
AcDbCircle
 10
11.0
 20
25.75
 30
0.0
 40
0.8
100
AcDbArc
 50
22.024312837042157
 51
157.97568716295754
  0
ARC
  5
1BA
100
AcDbEntity
  8
0
  6
CONTINUOUS
 62
               7
100
AcDbCircle
 10
11.0
 20
25.75
 30
0.0
 40
0.8
100
AcDbArc
 50
202.02431283704175
 51
337.97568716295712
  0
LINE
  5
1BB
100
AcDbEntity
  8
0
  6
CONTINUOUS
 62
               7
100
AcDbLine
 10
11.0
 20
25.449999999999932
 30
0.0
 11
12.825513626352858
 21
25.449999999999932
 31
0.0
  0
LINE
  5
1BC
100
AcDbEntity
  8
0
  6
CONTINUOUS
 62
               7
100
AcDbLine
 10
9.1744863736471416
 20
26.049999999999955
 30
0.0
 11
12.825513626352858
 21
26.049999999999955
 31
0.0
  0
LINE
  5
1BD
100
AcDbEntity
  8
0
  6
CENTER
 62
               2
100
AcDbLine
 10
8.5
 20
25.75
 30
0.0
 11
13.5
 21
25.75
 31
0.0
  0
ARC
  5
1BE
100
AcDbEntity
  8
0
  6
CONTINUOUS
 62
               7
100
AcDbCircle
 10
7.5
 20
27.5
 30
0.0
 40
1.6000000000000001
100
AcDbArc
 50
270.00000000000023
 51
89.999999999999801
  0
ARC
  5
1BF
100
AcDbEntity
  8
0
  6
CONTINUOUS
 62
               7
100
AcDbCircle
 10
14.5
 20
27.5
 30
0.0
 40
1.6000000000000001
100
AcDbArc
 50
89.999999999999815
 51
269.99999999999937
  0
LINE
  5
1C0
100
AcDbEntity
  8
0
  6
CONTINUOUS
 62
               7
100
AcDbLine
 10
6.0
 20
29.100000000000023
 30
0.0
 11
7.5
 21
29.100000000000023
 31
0.0
  0
LINE
  5
1C1
100
AcDbEntity
  8
0
  6
CONTINUOUS
 62
               7
100
AcDbLine
 10
7.5
 20
25.899999999999977
 30
0.0
 11
6.0
 21
25.899999999999977
 31
0.0
  0
LINE
  5
1C2
100
AcDbEntity
  8
0
  6
CONTINUOUS
 62
               7
100
AcDbLine
 10
12.399999999999977
 20
28.350000000000023
 30
0.0
 11
9.5999999999999091
 21
28.350000000000023
 31
0.0
  0
LINE
  5
1C3
100
AcDbEntity
  8
0
  6
CONTINUOUS
 62
               7
100
AcDbLine
 10
8.3499999999999091
 20
29.600000000000023
 30
0.0
 11
9.5999999999999091
 21
28.350000000000023
 31
0.0
  0
LINE
  5
1C4
100
AcDbEntity
  8
0
  6
CONTINUOUS
 62
               7
100
AcDbLine
 10
5.9999999999998863
 20
29.600000000000023
 30
0.0
 11
8.3499999999999091
 21
29.600000000000023
 31
0.0
  0
LINE
  5
1C5
100
AcDbEntity
  8
0
  6
CONTINUOUS
 62
               7
100
AcDbLine
 10
12.144370406123812
 20
28.79081745177109
 30
0.0
 11
9.8556295938760741
 21
28.79081745177109
 31
0.0
  0
LINE
  5
1C6
100
AcDbEntity
  8
0
  6
CONTINUOUS
 62
               7
100
AcDbLine
 10
6.0
 20
30.04081745177109
 30
0.0
 11
8.6056295938760741
 21
30.04081745177109
 31
0.0
  0
LINE
  5
1C7
100
AcDbEntity
  8
0
  6
CONTINUOUS
 62
               7
100
AcDbLine
 10
9.8556295938760741
 20
28.79081745177109
 30
0.0
 11
8.6056295938760741
 21
30.04081745177109
 31
0.0
  0
LINE
  5
1C8
100
AcDbEntity
  8
0
  6
CONTINUOUS
 62
               7
100
AcDbLine
 10
9.8556295938760741
 20
28.79081745177109
 30
0.0
 11
9.5999999999999091
 21
28.350000000000023
 31
0.0
  0
LINE
  5
1C9
100
AcDbEntity
  8
0
  6
CONTINUOUS
 62
               7
100
AcDbLine
 10
12.144370406123812
 20
28.79081745177109
 30
0.0
 11
13.394370406123812
 21
30.04081745177109
 31
0.0
  0
LINE
  5
1CA
100
AcDbEntity
  8
0
  6
CONTINUOUS
 62
               7
100
AcDbLine
 10
13.649999999999977
 20
29.600000000000023
 30
0.0
 11
12.399999999999977
 21
28.350000000000023
 31
0.0
  0
LINE
  5
1CB
100
AcDbEntity
  8
0
  6
CONTINUOUS
 62
               7
100
AcDbLine
 10
12.144370406123812
 20
28.79081745177109
 30
0.0
 11
12.399999999999977
 21
28.350000000000023
 31
0.0
  0
LINE
  5
1CC
100
AcDbEntity
  8
0
  6
CONTINUOUS
 62
               7
100
AcDbLine
 10
8.3499999999999091
 20
29.600000000000023
 30
0.0
 11
8.6056295938760741
 21
30.04081745177109
 31
0.0
  0
LINE
  5
1CD
100
AcDbEntity
  8
0
  6
CONTINUOUS
 62
               7
100
AcDbLine
 10
13.394370406123812
 20
30.04081745177109
 30
0.0
 11
13.649999999999977
 21
29.600000000000023
 31
0.0
  0
LINE
  5
1CE
100
AcDbEntity
  8
0
  6
CONTINUOUS
 62
               7
100
AcDbLine
 10
13.394370406123812
 20
30.04081745177109
 30
0.0
 11
16.0
 21
30.04081745177109
 31
0.0
  0
LINE
  5
1CF
100
AcDbEntity
  8
0
  6
CONTINUOUS
 62
               7
100
AcDbLine
 10
13.649999999999977
 20
29.600000000000023
 30
0.0
 11
16.0
 21
29.600000000000023
 31
0.0
  0
CIRCLE
  5
1D0
100
AcDbEntity
  8
0
  6
CONTINUOUS
 62
               7
100
AcDbCircle
 10
11.0
 20
25.75
 30
0.0
 40
2.0500000000000003
  0
LINE
  5
1D1
100
AcDbEntity
  8
0
  6
CONTINUOUS
 62
               7
100
AcDbLine
 10
14.5
 20
29.100000000000023
 30
0.0
 11
16.0
 21
29.100000000000023
 31
0.0
  0
LINE
  5
1D2
100
AcDbEntity
  8
0
  6
CONTINUOUS
 62
               7
100
AcDbLine
 10
16.0
 20
25.899999999999977
 30
0.0
 11
14.5
 21
25.899999999999977
 31
0.0
  0
CIRCLE
  5
1D3
100
AcDbEntity
  8
0
  6
CONTINUOUS
 62
               7
100
AcDbCircle
 10
11.0
 20
25.75
 30
0.0
 40
1.9000000000000001
  0
CIRCLE
  5
1D4
100
AcDbEntity
  8
0
  6
CONTINUOUS
 62
               7
100
AcDbCircle
 10
11.0
 20
25.75
 30
0.0
 40
1.8500000000000001
  0
CIRCLE
  5
1D5
100
AcDbEntity
  8
0
  6
CONTINUOUS
 62
               7
100
AcDbCircle
 10
14.5
 20
27.5
 30
0.0
 40
1.5
  0
LINE
  5
1D6
100
AcDbEntity
  8
0
  6
CONTINUOUS
 62
               7
100
AcDbLine
 10
15.20710678118644
 20
28.207106781186553
 30
0.0
 11
13.792893218813333
 21
26.792893218813447
 31
0.0
  0
LINE
  5
1D7
100
AcDbEntity
  8
0
  6
CONTINUOUS
 62
               7
100
AcDbLine
 10
15.20710678118644
 20
26.792893218813447
 30
0.0
 11
13.792893218813333
 21
28.207106781186553
 31
0.0
  0
LINE
  5
1D8
100
AcDbEntity
  8
0
  6
CONTINUOUS
 62
               7
100
AcDbLine
 10
6.0
 20
36.0
 30
0.0
 11
16.0
 21
36.0
 31
0.0
  0
LINE
  5
1D9
100
AcDbEntity
  8
0
  6
CONTINUOUS
 62
               7
100
AcDbLine
 10
16.0
 20
4.0
 30
0.0
 11
16.0
 21
70.999999999999886
 31
0.0
  0
LINE
  5
1DA
100
AcDbEntity
  8
0
  6
CONTINUOUS
 62
               7
100
AcDbLine
 10
6.2999999999999545
 20
53.499999999999886
 30
0.0
 11
6.0
 21
53.499999999999886
 31
0.0
  0
LINE
  5
1DB
100
AcDbEntity
  8
0
  6
CONTINUOUS
 62
               7
100
AcDbLine
 10
6.2999999999999545
 20
53.399999999999977
 30
0.0
 11
6.0
 21
53.399999999999977
 31
0.0
  0
CIRCLE
  5
1DC
100
AcDbEntity
  8
0
  6
CONTINUOUS
 62
               7
100
AcDbCircle
 10
13.539999999999964
 20
55.799999999999955
 30
0.0
 40
0.75
  0
CIRCLE
  5
1DD
100
AcDbEntity
  8
0
  6
CONTINUOUS
 62
               7
100
AcDbCircle
 10
8.4599999999999227
 20
55.799999999999955
 30
0.0
 40
0.75
  0
LINE
  5
1DE
100
AcDbEntity
  8
0
  6
CONTINUOUS
 62
               7
100
AcDbLine
 10
15.699999999999932
 20
52.999999999999886
 30
0.0
 11
15.699999999999932
 21
58.299999999999955
 31
0.0
  0
LINE
  5
1DF
100
AcDbEntity
  8
0
  6
CONTINUOUS
 62
               7
100
AcDbLine
 10
6.2999999999999545
 20
52.999999999999886
 30
0.0
 11
15.699999999999932
 21
52.999999999999886
 31
0.0
  0
LINE
  5
1E0
100
AcDbEntity
  8
0
  6
CONTINUOUS
 62
               7
100
AcDbLine
 10
7.9099999999999682
 20
54.699999999999932
 30
0.0
 11
7.9099999999999682
 21
54.199999999999932
 31
0.0
  0
ARC
  5
1E1
100
AcDbEntity
  8
0
  6
CONTINUOUS
 62
               7
100
AcDbCircle
 10
7.5843441079742888
 20
54.900664252805882
 30
0.0
 40
0.2006645478515588
100
AcDbArc
 50
176.76157835491691
 51
269.90174674849533
  0
LINE
  5
1E2
100
AcDbEntity
  8
0
  6
CONTINUOUS
 62
               7
100
AcDbLine
 10
9.0099999999999909
 20
54.699999999999932
 30
0.0
 11
9.0099999999999909
 21
54.199999999999932
 31
0.0
  0
ARC
  5
1E3
100
AcDbEntity
  8
0
  6
CONTINUOUS
 62
               7
100
AcDbCircle
 10
9.3347148526388537
 20
54.899665233359542
 30
0.0
 40
0.1996665130331531
100
AcDbArc
 50
269.79486732121239
 51
3.5418075753734648
  0
LINE
  5
1E4
100
AcDbEntity
  8
0
  6
CONTINUOUS
 62
               7
100
AcDbLine
 10
7.5099999999999909
 20
56.799999999999955
 30
0.0
 11
9.4099999999999682
 21
56.799999999999955
 31
0.0
  0
LINE
  5
1E5
100
AcDbEntity
  8
0
  6
CONTINUOUS
 62
               7
100
AcDbLine
 10
7.5839999999999463
 20
54.699999999999932
 30
0.0
 11
9.3339999999999463
 21
54.699999999999932
 31
0.0
  0
LINE
  5
1E6
100
AcDbEntity
  8
0
  6
CONTINUOUS
 62
               7
100
AcDbLine
 10
7.9099999999999682
 20
54.199999999999932
 30
0.0
 11
9.0099999999999909
 21
54.199999999999932
 31
0.0
  0
LINE
  5
1E7
100
AcDbEntity
  8
0
  6
CONTINUOUS
 62
               7
100
AcDbLine
 10
15.699999999999932
 20
58.299999999999955
 30
0.0
 11
14.699999999999932
 21
58.299999999999955
 31
0.0
  0
LINE
  5
1E8
100
AcDbEntity
  8
0
  6
CONTINUOUS
 62
               7
100
AcDbLine
 10
14.699999999999932
 20
57.299999999999955
 30
0.0
 11
14.699999999999932
 21
58.299999999999955
 31
0.0
  0
LINE
  5
1E9
100
AcDbEntity
  8
0
  6
CONTINUOUS
 62
               7
100
AcDbLine
 10
9.4099999999999682
 20
56.799999999999955
 30
0.0
 11
9.5339999999998781
 21
54.911999999999921
 31
0.0
  0
LINE
  5
1EA
100
AcDbEntity
  8
0
  6
CONTINUOUS
 62
               7
100
AcDbLine
 10
7.3840000000000146
 20
54.911999999999921
 30
0.0
 11
7.5099999999999909
 21
56.799999999999955
 31
0.0
  0
LINE
  5
1EB
100
AcDbEntity
  8
0
  6
CONTINUOUS
 62
               7
100
AcDbLine
 10
10.049999999999955
 20
56.799999999999955
 30
0.0
 11
11.949999999999932
 21
56.799999999999955
 31
0.0
  0
LINE
  5
1EC
100
AcDbEntity
  8
0
  6
CONTINUOUS
 62
               7
100
AcDbLine
 10
9.9239999999999782
 20
54.911999999999921
 30
0.0
 11
10.049999999999955
 21
56.799999999999955
 31
0.0
  0
ARC
  5
1ED
100
AcDbEntity
  8
0
  6
CONTINUOUS
 62
               7
100
AcDbCircle
 10
10.124344107974252
 20
54.900664252805882
 30
0.0
 40
0.2006645478515588
100
AcDbArc
 50
176.76157835491691
 51
269.90174674849533
  0
LINE
  5
1EE
100
AcDbEntity
  8
0
  6
CONTINUOUS
 62
               7
100
AcDbLine
 10
10.12399999999991
 20
54.699999999999932
 30
0.0
 11
11.87399999999991
 21
54.699999999999932
 31
0.0
  0
LINE
  5
1EF
100
AcDbEntity
  8
0
  6
CONTINUOUS
 62
               7
100
AcDbLine
 10
10.449999999999932
 20
54.699999999999932
 30
0.0
 11
10.449999999999932
 21
54.199999999999932
 31
0.0
  0
LINE
  5
1F0
100
AcDbEntity
  8
0
  6
CONTINUOUS
 62
               7
100
AcDbLine
 10
10.449999999999932
 20
54.199999999999932
 30
0.0
 11
11.549999999999955
 21
54.199999999999932
 31
0.0
  0
LINE
  5
1F1
100
AcDbEntity
  8
0
  6
CONTINUOUS
 62
               7
100
AcDbLine
 10
11.549999999999955
 20
54.699999999999932
 30
0.0
 11
11.549999999999955
 21
54.199999999999932
 31
0.0
  0
ARC
  5
1F2
100
AcDbEntity
  8
0
  6
CONTINUOUS
 62
               7
100
AcDbCircle
 10
11.874714852638817
 20
54.899665233359542
 30
0.0
 40
0.1996665130331531
100
AcDbArc
 50
269.79486732121239
 51
3.5418075753734648
  0
LINE
  5
1F3
100
AcDbEntity
  8
0
  6
CONTINUOUS
 62
               7
100
AcDbLine
 10
11.949999999999932
 20
56.799999999999955
 30
0.0
 11
12.073999999999955
 21
54.911999999999921
 31
0.0
  0
LINE
  5
1F4
100
AcDbEntity
  8
0
  6
CONTINUOUS
 62
               7
100
AcDbLine
 10
10.599999999999909
 20
56.199999999999932
 30
0.0
 11
10.599999999999909
 21
55.399999999999977
 31
0.0
  0
LINE
  5
1F5
100
AcDbEntity
  8
0
  6
CONTINUOUS
 62
               7
100
AcDbLine
 10
11.399999999999977
 20
56.199999999999932
 30
0.0
 11
10.599999999999909
 21
56.199999999999932
 31
0.0
  0
LINE
  5
1F6
100
AcDbEntity
  8
0
  6
CONTINUOUS
 62
               7
100
AcDbLine
 10
11.399999999999977
 20
56.199999999999932
 30
0.0
 11
11.399999999999977
 21
55.399999999999977
 31
0.0
  0
LINE
  5
1F7
100
AcDbEntity
  8
0
  6
CONTINUOUS
 62
               7
100
AcDbLine
 10
11.399999999999977
 20
55.399999999999977
 30
0.0
 11
10.599999999999909
 21
55.399999999999977
 31
0.0
  0
LINE
  5
1F8
100
AcDbEntity
  8
0
  6
CONTINUOUS
 62
               7
100
AcDbLine
 10
12.589999999999918
 20
56.799999999999955
 30
0.0
 11
14.490000000000009
 21
56.799999999999955
 31
0.0
  0
LINE
  5
1F9
100
AcDbEntity
  8
0
  6
CONTINUOUS
 62
               7
100
AcDbLine
 10
12.463999999999942
 20
54.911999999999921
 30
0.0
 11
12.589999999999918
 21
56.799999999999955
 31
0.0
  0
ARC
  5
1FA
100
AcDbEntity
  8
0
  6
CONTINUOUS
 62
               7
100
AcDbCircle
 10
12.664344107974216
 20
54.900664252805882
 30
0.0
 40
0.2006645478515588
100
AcDbArc
 50
176.76157835491691
 51
269.90174674849533
  0
LINE
  5
1FB
100
AcDbEntity
  8
0
  6
CONTINUOUS
 62
               7
100
AcDbLine
 10
12.663999999999987
 20
54.699999999999932
 30
0.0
 11
14.413999999999987
 21
54.699999999999932
 31
0.0
  0
LINE
  5
1FC
100
AcDbEntity
  8
0
  6
CONTINUOUS
 62
               7
100
AcDbLine
 10
12.990000000000009
 20
54.699999999999932
 30
0.0
 11
12.990000000000009
 21
54.199999999999932
 31
0.0
  0
LINE
  5
1FD
100
AcDbEntity
  8
0
  6
CONTINUOUS
 62
               7
100
AcDbLine
 10
12.990000000000009
 20
54.199999999999932
 30
0.0
 11
14.089999999999918
 21
54.199999999999932
 31
0.0
  0
LINE
  5
1FE
100
AcDbEntity
  8
0
  6
CONTINUOUS
 62
               7
100
AcDbLine
 10
14.089999999999918
 20
54.699999999999932
 30
0.0
 11
14.089999999999918
 21
54.199999999999932
 31
0.0
  0
ARC
  5
1FF
100
AcDbEntity
  8
0
  6
CONTINUOUS
 62
               7
100
AcDbCircle
 10
14.414714852638781
 20
54.899665233359542
 30
0.0
 40
0.1996665130331531
100
AcDbArc
 50
269.79486732121239
 51
3.5418075753734648
  0
LINE
  5
200
100
AcDbEntity
  8
0
  6
CONTINUOUS
 62
               7
100
AcDbLine
 10
14.490000000000009
 20
56.799999999999955
 30
0.0
 11
14.613999999999919
 21
54.911999999999921
 31
0.0
  0
LINE
  5
201
100
AcDbEntity
  8
0
  6
CONTINUOUS
 62
               7
100
AcDbLine
 10
8.6056295938760741
 20
44.959182548228796
 30
0.0
 11
8.3499999999999091
 21
45.399999999999977
 31
0.0
  0
LINE
  5
202
100
AcDbEntity
  8
0
  6
CONTINUOUS
 62
               7
100
AcDbLine
 10
13.649999999999977
 20
45.399999999999977
 30
0.0
 11
13.394370406123812
 21
44.959182548228796
 31
0.0
  0
LINE
  5
203
100
AcDbEntity
  8
0
  6
CONTINUOUS
 62
               7
100
AcDbLine
 10
9.8556295938760741
 20
46.209182548228796
 30
0.0
 11
9.5999999999999091
 21
46.649999999999977
 31
0.0
  0
LINE
  5
204
100
AcDbEntity
  8
0
  6
CONTINUOUS
 62
               7
100
AcDbLine
 10
8.3499999999999091
 20
45.399999999999977
 30
0.0
 11
9.5999999999999091
 21
46.649999999999977
 31
0.0
  0
LINE
  5
205
100
AcDbEntity
  8
0
  6
CONTINUOUS
 62
               7
100
AcDbLine
 10
9.8556295938760741
 20
46.209182548228796
 30
0.0
 11
8.6056295938760741
 21
44.959182548228796
 31
0.0
  0
LINE
  5
206
100
AcDbEntity
  8
0
  6
CONTINUOUS
 62
               7
100
AcDbLine
 10
12.144370406123812
 20
46.209182548228796
 30
0.0
 11
12.399999999999977
 21
46.649999999999977
 31
0.0
  0
LINE
  5
207
100
AcDbEntity
  8
0
  6
CONTINUOUS
 62
               7
100
AcDbLine
 10
12.144370406123812
 20
46.209182548228796
 30
0.0
 11
13.394370406123812
 21
44.959182548228796
 31
0.0
  0
LINE
  5
208
100
AcDbEntity
  8
0
  6
CONTINUOUS
 62
               7
100
AcDbLine
 10
8.6056295938760741
 20
44.959182548228796
 30
0.0
 11
6.0
 21
44.959182548228796
 31
0.0
  0
LINE
  5
209
100
AcDbEntity
  8
0
  6
CONTINUOUS
 62
               7
100
AcDbLine
 10
9.8556295938760741
 20
46.209182548228796
 30
0.0
 11
12.144370406123812
 21
46.209182548228796
 31
0.0
  0
LINE
  5
20A
100
AcDbEntity
  8
0
  6
CONTINUOUS
 62
               7
100
AcDbLine
 10
13.649999999999977
 20
45.399999999999977
 30
0.0
 11
12.399999999999977
 21
46.649999999999977
 31
0.0
  0
LINE
  5
20B
100
AcDbEntity
  8
0
  6
CONTINUOUS
 62
               7
100
AcDbLine
 10
9.5999999999999091
 20
46.649999999999977
 30
0.0
 11
12.399999999999977
 21
46.649999999999977
 31
0.0
  0
LINE
  5
20C
100
AcDbEntity
  8
0
  6
CONTINUOUS
 62
               7
100
AcDbLine
 10
8.3499999999999091
 20
45.399999999999977
 30
0.0
 11
6.0
 21
45.399999999999977
 31
0.0
  0
CIRCLE
  5
20D
100
AcDbEntity
  8
0
  6
CONTINUOUS
 62
               7
100
AcDbCircle
 10
11.0
 20
49.249999999999886
 30
0.0
 40
2.0500000000000003
  0
LINE
  5
20E
100
AcDbEntity
  8
0
  6
CONTINUOUS
 62
               7
100
AcDbLine
 10
7.5
 20
45.899999999999977
 30
0.0
 11
6.0
 21
45.899999999999977
 31
0.0
  0
LINE
  5
20F
100
AcDbEntity
  8
0
  6
CONTINUOUS
 62
               7
100
AcDbLine
 10
6.0
 20
49.099999999999909
 30
0.0
 11
7.5
 21
49.099999999999909
 31
0.0
  0
ARC
  5
210
100
AcDbEntity
  8
0
  6
CONTINUOUS
 62
               7
100
AcDbCircle
 10
7.5
 20
47.499999999999886
 30
0.0
 40
1.6000000000000001
100
AcDbArc
 50
270.00000000000023
 51
89.999999999999844
  0
ARC
  5
211
100
AcDbEntity
  8
0
  6
CONTINUOUS
 62
               7
100
AcDbCircle
 10
14.5
 20
47.499999999999886
 30
0.0
 40
1.6000000000000001
100
AcDbArc
 50
89.999999999999815
 51
269.99999999999937
  0
LINE
  5
212
100
AcDbEntity
  8
0
  6
CENTER
 62
               2
100
AcDbLine
 10
13.5
 20
49.249999999999886
 30
0.0
 11
8.5
 21
49.249999999999886
 31
0.0
  0
CIRCLE
  5
213
100
AcDbEntity
  8
0
  6
CONTINUOUS
 62
               7
100
AcDbCircle
 10
11.0
 20
49.249999999999886
 30
0.0
 40
1.9000000000000001
  0
LINE
  5
214
100
AcDbEntity
  8
0
  6
CONTINUOUS
 62
               7
100
AcDbLine
 10
12.825513626352858
 20
48.949999999999932
 30
0.0
 11
9.1744863736471416
 21
48.949999999999932
 31
0.0
  0
LINE
  5
215
100
AcDbEntity
  8
0
  6
CONTINUOUS
 62
               7
100
AcDbLine
 10
11.0
 20
49.549999999999955
 30
0.0
 11
9.1744863736471416
 21
49.549999999999955
 31
0.0
  0
CIRCLE
  5
216
100
AcDbEntity
  8
0
  6
CONTINUOUS
 62
               7
100
AcDbCircle
 10
11.0
 20
49.249999999999886
 30
0.0
 40
1.8500000000000001
  0
ARC
  5
217
100
AcDbEntity
  8
0
  6
CONTINUOUS
 62
               7
100
AcDbCircle
 10
11.0
 20
49.249999999999886
 30
0.0
 40
0.8
100
AcDbArc
 50
22.024312837042132
 51
157.97568716295751
  0
ARC
  5
218
100
AcDbEntity
  8
0
  6
CONTINUOUS
 62
               7
100
AcDbCircle
 10
11.0
 20
49.249999999999886
 30
0.0
 40
0.8
100
AcDbArc
 50
202.02431283704175
 51
337.97568716295712
  0
LINE
  5
219
100
AcDbEntity
  8
0
  6
CONTINUOUS
 62
               7
100
AcDbLine
 10
12.825513626352858
 20
49.549999999999955
 30
0.0
 11
11.0
 21
49.549999999999955
 31
0.0
  0
CIRCLE
  5
21A
100
AcDbEntity
  8
0
  6
CONTINUOUS
 62
               7
100
AcDbCircle
 10
7.5
 20
47.499999999999886
 30
0.0
 40
1.5
  0
LINE
  5
21B
100
AcDbEntity
  8
0
  6
CONTINUOUS
 62
               7
100
AcDbLine
 10
6.7928932188133331
 20
46.792893218813333
 30
0.0
 11
8.2071067811864395
 21
48.20710678118644
 31
0.0
  0
LINE
  5
21C
100
AcDbEntity
  8
0
  6
CONTINUOUS
 62
               7
100
AcDbLine
 10
6.7928932188133331
 20
48.20710678118644
 30
0.0
 11
8.2071067811864395
 21
46.792893218813333
 31
0.0
  0
LINE
  5
21D
100
AcDbEntity
  8
0
  6
CONTINUOUS
 62
               7
100
AcDbLine
 10
15.20710678118644
 20
48.20710678118644
 30
0.0
 11
13.792893218813333
 21
46.792893218813333
 31
0.0
  0
LINE
  5
21E
100
AcDbEntity
  8
0
  6
CONTINUOUS
 62
               7
100
AcDbLine
 10
15.20710678118644
 20
46.792893218813333
 30
0.0
 11
13.792893218813333
 21
48.20710678118644
 31
0.0
  0
CIRCLE
  5
21F
100
AcDbEntity
  8
0
  6
CONTINUOUS
 62
               7
100
AcDbCircle
 10
14.5
 20
47.499999999999886
 30
0.0
 40
1.5
  0
LINE
  5
220
100
AcDbEntity
  8
0
  6
CONTINUOUS
 62
               7
100
AcDbLine
 10
16.0
 20
45.899999999999977
 30
0.0
 11
14.5
 21
45.899999999999977
 31
0.0
  0
LINE
  5
221
100
AcDbEntity
  8
0
  6
CONTINUOUS
 62
               7
100
AcDbLine
 10
14.5
 20
49.099999999999909
 30
0.0
 11
16.0
 21
49.099999999999909
 31
0.0
  0
LINE
  5
222
100
AcDbEntity
  8
0
  6
CONTINUOUS
 62
               7
100
AcDbLine
 10
16.0
 20
53.399999999999977
 30
0.0
 11
15.699999999999932
 21
53.399999999999977
 31
0.0
  0
LINE
  5
223
100
AcDbEntity
  8
0
  6
CONTINUOUS
 62
               7
100
AcDbLine
 10
6.0
 20
52.901921563029987
 30
0.0
 11
16.0
 21
52.901921563029987
 31
0.0
  0
LINE
  5
224
100
AcDbEntity
  8
0
  6
CONTINUOUS
 62
               7
100
AcDbLine
 10
16.0
 20
45.399999999999977
 30
0.0
 11
13.649999999999977
 21
45.399999999999977
 31
0.0
  0
LINE
  5
225
100
AcDbEntity
  8
0
  6
CONTINUOUS
 62
               7
100
AcDbLine
 10
16.0
 20
44.959182548228796
 30
0.0
 11
13.394370406123812
 21
44.959182548228796
 31
0.0
  0
LINE
  5
226
100
AcDbEntity
  8
0
  6
CONTINUOUS
 62
               7
100
AcDbLine
 10
16.0
 20
52.090817451771159
 30
0.0
 11
6.0
 21
52.090817451771159
 31
0.0
  0
ARC
  5
227
100
AcDbEntity
  8
0
  6
CONTINUOUS
 62
               7
100
AcDbCircle
 10
15.699999999999932
 20
58.499999999999886
 30
0.0
 40
0.3
100
AcDbArc
 50
0.0
 51
89.999999999999815
  0
LINE
  5
228
100
AcDbEntity
  8
0
  6
CONTINUOUS
 62
               7
100
AcDbLine
 10
16.0
 20
53.499999999999886
 30
0.0
 11
15.699999999999932
 21
53.499999999999886
 31
0.0
  0
LINE
  5
229
100
AcDbEntity
  8
0
  6
CONTINUOUS
 62
               7
100
AcDbLine
 10
6.0
 20
38.999999999999886
 30
0.0
 11
16.0
 21
38.999999999999886
 31
0.0
  0
LINE
  5
22A
100
AcDbEntity
  8
0
  6
CONTINUOUS
 62
               7
100
AcDbLine
 10
13.5
 20
57.799999999999955
 30
0.0
 11
13.899999999999864
 21
57.799999999999955
 31
0.0
  0
LINE
  5
22B
100
AcDbEntity
  8
0
  6
CONTINUOUS
 62
               7
100
AcDbLine
 10
8.5
 20
58.599999999999909
 30
0.0
 11
13.5
 21
58.599999999999909
 31
0.0
  0
LINE
  5
22C
100
AcDbEntity
  8
0
  6
CONTINUOUS
 62
               7
100
AcDbLine
 10
8.4999999994233804
 20
59.799999999999955
 30
0.0
 11
13.499999999423267
 21
59.799999999999955
 31
0.0
  0
LINE
  5
22D
100
AcDbEntity
  8
0
  6
CONTINUOUS
 62
               7
100
AcDbLine
 10
12.25
 20
58.299999999999955
 30
0.0
 11
12.25
 21
57.299999999999955
 31
0.0
  0
LINE
  5
22E
100
AcDbEntity
  8
0
  6
CONTINUOUS
 62
               7
100
AcDbLine
 10
9.75
 20
58.299999999999955
 30
0.0
 11
9.75
 21
57.299999999999955
 31
0.0
  0
LINE
  5
22F
100
AcDbEntity
  8
0
  6
CONTINUOUS
 62
               7
100
AcDbLine
 10
6.2999999999999545
 20
58.299999999999955
 30
0.0
 11
7.2999999999999545
 21
58.299999999999955
 31
0.0
  0
LINE
  5
230
100
AcDbEntity
  8
0
  6
CONTINUOUS
 62
               7
100
AcDbLine
 10
7.2999999999999545
 20
57.299999999999955
 30
0.0
 11
7.2999999999999545
 21
58.299999999999955
 31
0.0
  0
LINE
  5
231
100
AcDbEntity
  8
0
  6
CONTINUOUS
 62
               7
100
AcDbLine
 10
8.5
 20
59.799999999999955
 30
0.0
 11
8.5
 21
57.299999999999955
 31
0.0
  0
LINE
  5
232
100
AcDbEntity
  8
0
  6
CONTINUOUS
 62
               7
100
AcDbLine
 10
13.5
 20
59.799999999999955
 30
0.0
 11
13.5
 21
57.299999999999955
 31
0.0
  0
LINE
  5
233
100
AcDbEntity
  8
0
  6
CONTINUOUS
 62
               7
100
AcDbLine
 10
8.0999999999999091
 20
58.299999999999955
 30
0.0
 11
13.899999999999864
 21
58.299999999999955
 31
0.0
  0
LINE
  5
234
100
AcDbEntity
  8
0
  6
CONTINUOUS
 62
               7
100
AcDbLine
 10
13.899999999999864
 20
57.799999999999955
 30
0.0
 11
13.899999999999864
 21
58.799999999999955
 31
0.0
  0
LINE
  5
235
100
AcDbEntity
  8
0
  6
CONTINUOUS
 62
               7
100
AcDbLine
 10
8.0999999999999091
 20
57.799999999999955
 30
0.0
 11
8.0999999999999091
 21
58.799999999999955
 31
0.0
  0
LINE
  5
236
100
AcDbEntity
  8
0
  6
CONTINUOUS
 62
               7
100
AcDbLine
 10
8.0999999999999091
 20
57.799999999999955
 30
0.0
 11
8.5
 21
57.799999999999955
 31
0.0
  0
LINE
  5
237
100
AcDbEntity
  8
0
  6
CONTINUOUS
 62
               7
100
AcDbLine
 10
6.2999999999999545
 20
58.799999999999955
 30
0.0
 11
8.5
 21
58.799999999999955
 31
0.0
  0
LINE
  5
238
100
AcDbEntity
  8
0
  6
CONTINUOUS
 62
               7
100
AcDbLine
 10
12.5
 20
65.999999999999886
 30
0.0
 11
12.5
 21
70.999999999999886
 31
0.0
  0
LINE
  5
239
100
AcDbEntity
  8
0
  6
CONTINUOUS
 62
               7
100
AcDbLine
 10
9.5
 20
65.999999999999886
 30
0.0
 11
12.5
 21
65.999999999999886
 31
0.0
  0
LINE
  5
23A
100
AcDbEntity
  8
0
  6
CONTINUOUS
 62
               7
100
AcDbLine
 10
9.5
 20
65.999999999999886
 30
0.0
 11
9.5
 21
70.999999999999886
 31
0.0
  0
ARC
  5
23B
100
AcDbEntity
  8
0
  6
CONTINUOUS
 62
               7
100
AcDbCircle
 10
6.2999999999999545
 20
58.499999999999886
 30
0.0
 40
0.3
100
AcDbArc
 50
89.999999999999815
 51
179.99999999999963
  0
LINE
  5
23C
100
AcDbEntity
  8
0
  6
CENTER
 62
               2
100
AcDbLine
 10
11.0
 20
60.5
 30
0.0
 11
11.0
 21
1.4298196863001067
 31
0.0
  0
LINE
  5
23D
100
AcDbEntity
  8
0
  6
CONTINUOUS
 62
               7
100
AcDbLine
 10
6.0
 20
4.0
 30
0.0
 11
6.0
 21
70.999999999999886
 31
0.0
  0
LINE
  5
23E
100
AcDbEntity
  8
0
  6
CONTINUOUS
 62
               7
100
AcDbLine
 10
16.0
 20
70.999999999999886
 30
0.0
 11
6.0
 21
70.999999999999886
 31
0.0
  0
LINE
  5
23F
100
AcDbEntity
  8
0
  6
CONTINUOUS
 62
               7
100
AcDbLine
 10
6.2999999999999545
 20
52.999999999999886
 30
0.0
 11
6.2999999999999545
 21
58.299999999999955
 31
0.0
  0
LINE
  5
240
100
AcDbEntity
  8
0
  6
CONTINUOUS
 62
               7
100
AcDbLine
 10
7.2999999999999545
 20
57.299999999999955
 30
0.0
 11
14.699999999999932
 21
57.299999999999955
 31
0.0
  0
LINE
  5
241
100
AcDbEntity
  8
0
  6
CONTINUOUS
 62
               7
100
AcDbLine
 10
13.5
 20
58.799999999999955
 30
0.0
 11
15.699999999999932
 21
58.799999999999955
 31
0.0
  0
ENDBLK
  5
242
100
AcDbEntity
  8
0
100
AcDbBlockEnd
  0
BLOCK
  5
243
100
AcDbEntity
  8
0
100
AcDbBlockBegin
  2
MV090-01-4
 70
               0
 10
0.0
 20
0.0
 30
0.0
  3
MV090-01-4
  1

  0
LINE
  5
244
100
AcDbEntity
  8
0
  6
CONTINUOUS
 62
               4
100
AcDbLine
 10
15.100000000000009
 20
16.0
 30
0.0
 11
15.100000000000009
 21
16.23860850461914
 31
0.0
  0
ARC
  5
245
100
AcDbEntity
  8
0
  6
CONTINUOUS
 62
               4
100
AcDbCircle
 10
16.5
 20
16.0
 30
0.0
 40
1.3999999999999999
100
AcDbArc
 50
179.99999999999963
 51
0.0
  0
LINE
  5
246
100
AcDbEntity
  8
0
  6
CONTINUOUS
 62
               4
100
AcDbLine
 10
17.900000000000006
 20
16.0
 30
0.0
 11
17.900000000000006
 21
16.238608504619151
 31
0.0
  0
CIRCLE
  5
247
100
AcDbEntity
  8
0
  6
CONTINUOUS
 62
               4
100
AcDbCircle
 10
16.5
 20
18.0
 30
0.0
 40
1.9999999999999996
  0
LINE
  5
248
100
AcDbEntity
  8
0
  6
CONTINUOUS
 62
               4
100
AcDbLine
 10
15.5
 20
17.422649681568146
 30
0.0
 11
15.5
 21
18.577350258827209
 31
0.0
  0
LINE
  5
249
100
AcDbEntity
  8
0
  6
CONTINUOUS
 62
               4
100
AcDbLine
 10
17.5
 20
17.422649741172791
 30
0.0
 11
17.5
 21
18.577350258827209
 31
0.0
  0
LINE
  5
24A
100
AcDbEntity
  8
0
  6
CONTINUOUS
 62
               4
100
AcDbLine
 10
17.499999956111253
 20
18.577350288629532
 30
0.0
 11
16.499999985913576
 21
19.154700547456741
 31
0.0
  0
LINE
  5
24B
100
AcDbEntity
  8
0
  6
CONTINUOUS
 62
               4
100
AcDbLine
 10
16.499999956111253
 20
16.845299452543259
 30
0.0
 11
15.499999985913576
 21
17.422649711370468
 31
0.0
  0
LINE
  5
24C
100
AcDbEntity
  8
0
  6
CONTINUOUS
 62
               4
100
AcDbLine
 10
16.499999956111253
 20
19.154700517654419
 30
0.0
 11
15.5
 21
18.577350273803972
 31
0.0
  0
LINE
  5
24D
100
AcDbEntity
  8
0
  6
CONTINUOUS
 62
               4
100
AcDbLine
 10
17.499999956111253
 20
17.422649741172791
 30
0.0
 11
16.499999943090586
 21
16.845299464465683
 31
0.0
  0
CIRCLE
  5
24E
100
AcDbEntity
  8
0
  6
CONTINUOUS
 62
               4
100
AcDbCircle
 10
16.5
 20
18.0
 30
0.0
 40
2.25
  0
LINE
  5
24F
100
AcDbEntity
  8
0
  6
CENTER
 62
             200
100
AcDbLine
 10
13.971124524314888
 20
19.0
 30
0.0
 11
19.0
 21
19.0
 31
0.0
  0
LINE
  5
250
100
AcDbEntity
  8
0
  6
CENTER
 62
             200
100
AcDbLine
 10
13.971124524314888
 20
18.0
 30
0.0
 11
19.0
 21
18.0
 31
0.0
  0
ARC
  5
251
100
AcDbEntity
  8
0
  6
CONTINUOUS
 62
               4
100
AcDbCircle
 10
16.5
 20
19.0
 30
0.0
 40
1.8
100
AcDbArc
 50
13.207141758581814
 51
166.79285824141775
  0
LINE
  5
252
100
AcDbEntity
  8
0
  6
CENTER
 62
             200
100
AcDbLine
 10
16.5
 20
14.032680004656473
 30
0.0
 11
16.5
 21
23.5
 31
0.0
  0
LINE
  5
253
100
AcDbEntity
  8
0
  6
CONTINUOUS
 62
               7
100
AcDbLine
 10
27.950000000000017
 20
63.563402898235921
 30
0.0
 11
27.950000000000017
 21
62.358402898235937
 31
0.0
  0
LINE
  5
254
100
AcDbEntity
  8
0
  6
CONTINUOUS
 62
               7
100
AcDbLine
 10
26.200000000000017
 20
69.563402898235935
 30
0.0
 11
24.700000000000017
 21
69.563402898235935
 31
0.0
  0
LINE
  5
255
100
AcDbEntity
  8
0
  6
CONTINUOUS
 62
               7
100
AcDbLine
 10
29.200000000000017
 20
69.063402898235935
 30
0.0
 11
28.700000000000017
 21
69.563402898235935
 31
0.0
  0
LINE
  5
256
100
AcDbEntity
  8
0
  6
CONTINUOUS
 62
               7
100
AcDbLine
 10
24.200000000000017
 20
69.063402898235935
 30
0.0
 11
24.700000000000017
 21
69.563402898235935
 31
0.0
  0
LINE
  5
257
100
AcDbEntity
  8
0
  6
CONTINUOUS
 62
               7
100
AcDbLine
 10
27.200000000000017
 20
68.563402898235935
 30
0.0
 11
26.200000000000017
 21
68.563402898235935
 31
0.0
  0
LINE
  5
258
100
AcDbEntity
  8
0
  6
CENTER
 62
               2
100
AcDbLine
 10
26.700000000000017
 20
70.272376761412715
 30
0.0
 11
26.700000000000017
 21
55.5
 31
0.0
  0
LINE
  5
259
100
AcDbEntity
  8
0
  6
CONTINUOUS
 62
               7
100
AcDbLine
 10
24.200000000000017
 20
69.063402898235935
 30
0.0
 11
26.200000000000017
 21
69.063402898235935
 31
0.0
  0
LINE
  5
25A
100
AcDbEntity
  8
0
  6
CONTINUOUS
 62
               7
100
AcDbLine
 10
24.200000000000017
 20
64.063402898235921
 30
0.0
 11
29.200000000000017
 21
64.063402898235921
 31
0.0
  0
LINE
  5
25B
100
AcDbEntity
  8
0
  6
CONTINUOUS
 62
               7
100
AcDbLine
 10
23.700000000000017
 20
61.858402898235937
 30
0.0
 11
29.700000000000017
 21
61.858402898235937
 31
0.0
  0
LINE
  5
25C
100
AcDbEntity
  8
0
  6
CONTINUOUS
 62
               7
100
AcDbLine
 10
23.700000000000017
 20
59.858402898235937
 30
0.0
 11
29.700000000000017
 21
59.858402898235937
 31
0.0
  0
LINE
  5
25D
100
AcDbEntity
  8
0
  6
CONTINUOUS
 62
               7
100
AcDbLine
 10
23.450000000000017
 20
58.219220935761115
 30
0.0
 11
29.950000000000017
 21
58.219220935761115
 31
0.0
  0
LINE
  5
25E
100
AcDbEntity
  8
0
  6
CONTINUOUS
 62
               7
100
AcDbLine
 10
26.200000000000017
 20
69.563402898235935
 30
0.0
 11
26.200000000000017
 21
68.563402898235935
 31
0.0
  0
LINE
  5
25F
100
AcDbEntity
  8
0
  6
CONTINUOUS
 62
               7
100
AcDbLine
 10
27.200000000000017
 20
69.563402898235935
 30
0.0
 11
27.200000000000017
 21
68.563402898235935
 31
0.0
  0
LINE
  5
260
100
AcDbEntity
  8
0
  6
CONTINUOUS
 62
               7
100
AcDbLine
 10
27.200000000000017
 20
69.563402898235935
 30
0.0
 11
28.700000000000017
 21
69.563402898235935
 31
0.0
  0
LINE
  5
261
100
AcDbEntity
  8
0
  6
CONTINUOUS
 62
               7
100
AcDbLine
 10
27.200000000000017
 20
69.063402898235935
 30
0.0
 11
29.200000000000017
 21
69.063402898235935
 31
0.0
  0
LINE
  5
262
100
AcDbEntity
  8
0
  6
CONTINUOUS
 62
               2
100
AcDbLine
 10
27.775000000000006
 20
63.563402898235921
 30
0.0
 11
27.775000000000006
 21
62.358402898235937
 31
0.0
  0
LINE
  5
263
100
AcDbEntity
  8
0
  6
CONTINUOUS
 62
               7
100
AcDbLine
 10
29.200000000000017
 20
59.358402898235937
 30
0.0
 11
24.200000000000017
 21
59.358402898235937
 31
0.0
  0
LINE
  5
264
100
AcDbEntity
  8
0
  6
CONTINUOUS
 62
               7
100
AcDbLine
 10
29.700000000000017
 20
59.858402898235937
 30
0.0
 11
29.700000000000017
 21
61.858402898235937
 31
0.0
  0
LINE
  5
265
100
AcDbEntity
  8
0
  6
CONTINUOUS
 62
               7
100
AcDbLine
 10
29.700000000000017
 20
59.858402898235937
 30
0.0
 11
29.200000000000017
 21
59.358402898235937
 31
0.0
  0
LINE
  5
266
100
AcDbEntity
  8
0
  6
CONTINUOUS
 62
               7
100
AcDbLine
 10
29.700000000000017
 20
61.858402898235937
 30
0.0
 11
29.200000000000017
 21
62.358402898235937
 31
0.0
  0
LINE
  5
267
100
AcDbEntity
  8
0
  6
CONTINUOUS
 62
               7
100
AcDbLine
 10
23.700000000000017
 20
59.858402898235937
 30
0.0
 11
24.200000000000017
 21
59.358402898235937
 31
0.0
  0
LINE
  5
268
100
AcDbEntity
  8
0
  6
CONTINUOUS
 62
               7
100
AcDbLine
 10
23.700000000000017
 20
61.858402898235937
 30
0.0
 11
24.200000000000017
 21
62.358402898235937
 31
0.0
  0
LINE
  5
269
100
AcDbEntity
  8
0
  6
CONTINUOUS
 62
               7
100
AcDbLine
 10
29.200000000000017
 20
62.358402898235937
 30
0.0
 11
24.200000000000017
 21
62.358402898235937
 31
0.0
  0
ARC
  5
26A
100
AcDbEntity
  8
0
  6
CONTINUOUS
 62
               7
100
AcDbCircle
 10
15.400000000000006
 20
46.700000000000017
 30
0.0
 40
0.4
100
AcDbArc
 50
179.99999999999963
 51
269.99999999999937
  0
ARC
  5
26B
100
AcDbEntity
  8
0
  6
CONTINUOUS
 62
               7
100
AcDbCircle
 10
15.400000000000006
 20
49.30000000000004
 30
0.0
 40
0.4
100
AcDbArc
 50
89.999999999999815
 51
179.99999999999963
  0
LINE
  5
26C
100
AcDbEntity
  8
0
  6
CONTINUOUS
 62
               7
100
AcDbLine
 10
15.0
 20
49.30000000000004
 30
0.0
 11
15.0
 21
46.700000000000017
 31
0.0
  0
LINE
  5
26D
100
AcDbEntity
  8
0
  6
CONTINUOUS
 62
               7
100
AcDbLine
 10
14.699999999999989
 20
55.500000000000028
 30
0.0
 11
14.699999999999989
 21
22.572114219898346
 31
0.0
  0
LINE
  5
26E
100
AcDbEntity
  8
0
  6
CONTINUOUS
 62
               7
100
AcDbLine
 10
14.699999999999989
 20
49.700000000000031
 30
0.0
 11
15.699999999999989
 21
49.700000000000031
 31
0.0
  0
LINE
  5
26F
100
AcDbEntity
  8
0
  6
CONTINUOUS
 62
               7
100
AcDbLine
 10
15.699999999999989
 20
49.700000000000031
 30
0.0
 11
15.699999999999989
 21
46.300000000000026
 31
0.0
  0
LINE
  5
270
100
AcDbEntity
  8
0
  6
CONTINUOUS
 62
               7
100
AcDbLine
 10
14.699999999999989
 20
46.300000000000026
 30
0.0
 11
15.699999999999989
 21
46.300000000000026
 31
0.0
  0
LINE
  5
271
100
AcDbEntity
  8
0
  6
CONTINUOUS
 62
               7
100
AcDbLine
 10
20.5
 20
4.0
 30
0.0
 11
36.699999999999989
 21
4.0
 31
0.0
  0
LINE
  5
272
100
AcDbEntity
  8
0
  6
CONTINUOUS
 62
               7
100
AcDbLine
 10
33.300000000000011
 20
4.0
 30
0.0
 11
33.300000000000011
 21
5.0
 31
0.0
  0
LINE
  5
273
100
AcDbEntity
  8
0
  6
CONTINUOUS
 62
               7
100
AcDbLine
 10
33.300000000000011
 20
5.0
 30
0.0
 11
36.699999999999989
 21
5.0
 31
0.0
  0
LINE
  5
274
100
AcDbEntity
  8
0
  6
CONTINUOUS
 62
               7
100
AcDbLine
 10
36.699999999999989
 20
11.5
 30
0.0
 11
22.699999999999989
 21
11.5
 31
0.0
  0
LINE
  5
275
100
AcDbEntity
  8
0
  6
CONTINUOUS
 62
               7
100
AcDbLine
 10
36.699999999999989
 20
4.0
 30
0.0
 11
36.700000000000017
 21
70.999999999999957
 31
0.0
  0
LINE
  5
276
100
AcDbEntity
  8
0
  6
CONTINUOUS
 62
               7
100
AcDbLine
 10
36.700000000000017
 20
55.5
 30
0.0
 11
14.699999999999989
 21
55.5
 31
0.0
  0
LINE
  5
277
100
AcDbEntity
  8
0
  6
CONTINUOUS
 62
               7
100
AcDbLine
 10
22.699999999999989
 20
55.5
 30
0.0
 11
22.699999999999989
 21
4.0
 31
0.0
  0
ARC
  5
278
100
AcDbEntity
  8
0
  6
CONTINUOUS
 62
               7
100
AcDbCircle
 10
50.799999999999983
 20
28.499999999999986
 30
0.0
 40
0.5
100
AcDbArc
 50
0.0
 51
89.999999999999815
  0
ARC
  5
279
100
AcDbEntity
  8
0
  6
CONTINUOUS
 62
               7
100
AcDbCircle
 10
50.799999999999983
 20
26.499999999999986
 30
0.0
 40
0.5
100
AcDbArc
 50
269.99999999999937
 51
0.0
  0
LINE
  5
27A
100
AcDbEntity
  8
0
  6
CONTINUOUS
 62
               7
100
AcDbLine
 10
51.299999999999983
 20
28.499999999999986
 30
0.0
 11
51.299999999999983
 21
26.499999999999986
 31
0.0
  0
LINE
  5
27B
100
AcDbEntity
  8
0
  6
CONTINUOUS
 62
               7
100
AcDbLine
 10
50.799999999999983
 20
25.999999999999986
 30
0.0
 11
50.699999999999989
 21
25.999999999999986
 31
0.0
  0
LINE
  5
27C
100
AcDbEntity
  8
0
  6
CONTINUOUS
 62
               7
100
AcDbLine
 10
50.799999999999983
 20
28.999999999999986
 30
0.0
 11
50.699999999999989
 21
28.999999999999986
 31
0.0
  0
LINE
  5
27D
100
AcDbEntity
  8
0
  6
CONTINUOUS
 62
               7
100
AcDbLine
 10
51.699999999999989
 20
29.099999999999994
 30
0.0
 11
50.699999999999989
 21
29.099999999999994
 31
0.0
  0
LINE
  5
27E
100
AcDbEntity
  8
0
  6
CONTINUOUS
 62
               7
100
AcDbLine
 10
51.699999999999989
 20
25.899999999999991
 30
0.0
 11
50.699999999999989
 21
25.899999999999991
 31
0.0
  0
LINE
  5
27F
100
AcDbEntity
  8
0
  6
CONTINUOUS
 62
               7
100
AcDbLine
 10
50.699999999999989
 20
29.099999999999994
 30
0.0
 11
50.699999999999989
 21
25.899999999999991
 31
0.0
  0
LINE
  5
280
100
AcDbEntity
  8
0
  6
CONTINUOUS
 62
               7
100
AcDbLine
 10
37.899999999999977
 20
3.9999999999999858
 30
0.0
 11
37.899999999999977
 21
5.4999999999999858
 31
0.0
  0
LINE
  5
281
100
AcDbEntity
  8
0
  6
CONTINUOUS
 62
               7
100
AcDbLine
 10
51.699999999999989
 20
29.600000000000009
 30
0.0
 11
51.699999999999989
 21
22.909182548228827
 31
0.0
  0
LINE
  5
282
100
AcDbEntity
  8
0
  6
CONTINUOUS
 62
               7
100
AcDbLine
 10
50.400000000000006
 20
21.599999999999994
 30
0.0
 11
56.299999999999983
 21
21.599999999999994
 31
0.0
  0
LINE
  5
283
100
AcDbEntity
  8
0
  6
CONTINUOUS
 62
               7
100
AcDbLine
 10
51.699999999999989
 20
22.909182548228827
 30
0.0
 11
56.299999999999983
 21
22.098078436969885
 31
0.0
  0
LINE
  5
284
100
AcDbEntity
  8
0
  6
CONTINUOUS
 62
               7
100
AcDbLine
 10
56.299999999999983
 20
22.098078436969885
 30
0.0
 11
56.299999999999983
 21
21.599999999999994
 31
0.0
  0
LINE
  5
285
100
AcDbEntity
  8
0
  6
CONTINUOUS
 62
               7
100
AcDbLine
 10
55.69999999999996
 20
21.499999999999986
 30
0.0
 11
55.69999999999996
 21
21.599999999999994
 31
0.0
  0
LINE
  5
286
100
AcDbEntity
  8
0
  6
CONTINUOUS
 62
               7
100
AcDbLine
 10
37.599999999999994
 20
3.9999999999999858
 30
0.0
 11
37.899999999999977
 21
4.2999999999999972
 31
0.0
  0
LINE
  5
287
100
AcDbEntity
  8
0
  6
CONTINUOUS
 62
               7
100
AcDbLine
 10
48.199999999999989
 20
30.217144432479628
 30
0.0
 11
51.699999999999989
 21
29.600000000000009
 31
0.0
  0
LINE
  5
288
100
AcDbEntity
  8
0
  6
CONTINUOUS
 62
               7
100
AcDbLine
 10
48.199999999999989
 20
35.999999999999986
 30
0.0
 11
48.199999999999989
 21
30.217144432479628
 31
0.0
  0
LINE
  5
289
100
AcDbEntity
  8
0
  6
CONTINUOUS
 62
               7
100
AcDbLine
 10
36.699999999999989
 20
3.9999999999999858
 30
0.0
 11
37.599999999999994
 21
3.9999999999999858
 31
0.0
  0
LINE
  5
28A
100
AcDbEntity
  8
0
  6
CONTINUOUS
 62
               7
100
AcDbLine
 10
36.699999999999989
 20
35.999999999999986
 30
0.0
 11
48.199999999999989
 21
35.999999999999986
 31
0.0
  0
LINE
  5
28B
100
AcDbEntity
  8
0
  6
CONTINUOUS
 62
               7
100
AcDbLine
 10
39.900000000000006
 20
35.299999999999997
 30
0.0
 11
39.900000000000006
 21
34.499999999999986
 31
0.0
  0
LINE
  5
28C
100
AcDbEntity
  8
0
  6
CONTINUOUS
 62
               7
100
AcDbLine
 10
47.499999999999972
 20
34.499999999999986
 30
0.0
 11
47.499999999999972
 21
35.299999999999997
 31
0.0
  0
LINE
  5
28D
100
AcDbEntity
  8
0
  6
CONTINUOUS
 62
               7
100
AcDbLine
 10
47.499999999999972
 20
34.499999999999986
 30
0.0
 11
39.900000000000006
 21
34.499999999999986
 31
0.0
  0
LINE
  5
28E
100
AcDbEntity
  8
0
  6
CONTINUOUS
 62
               7
100
AcDbLine
 10
47.499999999999972
 20
35.299999999999997
 30
0.0
 11
39.899999999999977
 21
35.299999999999997
 31
0.0
  0
LINE
  5
28F
100
AcDbEntity
  8
0
  6
CONTINUOUS
 62
               7
100
AcDbLine
 10
47.499999999999972
 20
39.69999999999996
 30
0.0
 11
39.899999999999977
 21
39.69999999999996
 31
0.0
  0
LINE
  5
290
100
AcDbEntity
  8
0
  6
CONTINUOUS
 62
               7
100
AcDbLine
 10
47.499999999999972
 20
40.499999999999957
 30
0.0
 11
39.900000000000006
 21
40.499999999999957
 31
0.0
  0
LINE
  5
291
100
AcDbEntity
  8
0
  6
CONTINUOUS
 62
               7
100
AcDbLine
 10
47.499999999999972
 20
40.499999999999957
 30
0.0
 11
47.499999999999972
 21
39.69999999999996
 31
0.0
  0
LINE
  5
292
100
AcDbEntity
  8
0
  6
CONTINUOUS
 62
               7
100
AcDbLine
 10
39.900000000000006
 20
39.69999999999996
 30
0.0
 11
39.900000000000006
 21
40.499999999999957
 31
0.0
  0
LINE
  5
293
100
AcDbEntity
  8
0
  6
CONTINUOUS
 62
               7
100
AcDbLine
 10
36.699999999999989
 20
38.999999999999957
 30
0.0
 11
48.199999999999989
 21
38.999999999999957
 31
0.0
  0
LINE
  5
294
100
AcDbEntity
  8
0
  6
CONTINUOUS
 62
               7
100
AcDbLine
 10
36.699999999999989
 20
70.999999999999957
 30
0.0
 11
37.599999999999994
 21
70.999999999999957
 31
0.0
  0
LINE
  5
295
100
AcDbEntity
  8
0
  6
CONTINUOUS
 62
               7
100
AcDbLine
 10
48.199999999999989
 20
38.999999999999957
 30
0.0
 11
48.199999999999989
 21
44.782855567520315
 31
0.0
  0
LINE
  5
296
100
AcDbEntity
  8
0
  6
CONTINUOUS
 62
               7
100
AcDbLine
 10
48.199999999999989
 20
44.782855567520315
 30
0.0
 11
51.699999999999989
 21
45.399999999999949
 31
0.0
  0
LINE
  5
297
100
AcDbEntity
  8
0
  6
CONTINUOUS
 62
               7
100
AcDbLine
 10
50.399999999999977
 20
69.499999999999957
 30
0.0
 11
37.899999999999977
 21
69.499999999999957
 31
0.0
  0
LINE
  5
298
100
AcDbEntity
  8
0
  6
CONTINUOUS
 62
               7
100
AcDbLine
 10
37.599999999999994
 20
70.999999999999957
 30
0.0
 11
37.899999999999977
 21
70.699999999999946
 31
0.0
  0
LINE
  5
299
100
AcDbEntity
  8
0
  6
CONTINUOUS
 62
               7
100
AcDbLine
 10
55.69999999999996
 20
53.499999999999972
 30
0.0
 11
55.69999999999996
 21
53.399999999999949
 31
0.0
  0
LINE
  5
29A
100
AcDbEntity
  8
0
  6
CONTINUOUS
 62
               7
100
AcDbLine
 10
56.299999999999983
 20
52.901921563030058
 30
0.0
 11
56.299999999999983
 21
53.399999999999949
 31
0.0
  0
LINE
  5
29B
100
AcDbEntity
  8
0
  6
CONTINUOUS
 62
               7
100
AcDbLine
 10
51.699999999999989
 20
52.090817451771116
 30
0.0
 11
56.299999999999983
 21
52.901921563030058
 31
0.0
  0
LINE
  5
29C
100
AcDbEntity
  8
0
  6
CONTINUOUS
 62
               7
100
AcDbLine
 10
50.400000000000006
 20
53.399999999999949
 30
0.0
 11
56.299999999999983
 21
53.399999999999949
 31
0.0
  0
LINE
  5
29D
100
AcDbEntity
  8
0
  6
CONTINUOUS
 62
               7
100
AcDbLine
 10
51.699999999999989
 20
45.399999999999949
 30
0.0
 11
51.699999999999989
 21
52.090817451771116
 31
0.0
  0
LINE
  5
29E
100
AcDbEntity
  8
0
  6
CONTINUOUS
 62
               7
100
AcDbLine
 10
37.899999999999977
 20
70.999999999999957
 30
0.0
 11
37.899999999999977
 21
69.499999999999957
 31
0.0
  0
LINE
  5
29F
100
AcDbEntity
  8
0
  6
CONTINUOUS
 62
               7
100
AcDbLine
 10
50.399999999999977
 20
69.499999999999957
 30
0.0
 11
50.400000000000006
 21
53.399999999999949
 31
0.0
  0
LINE
  5
2A0
100
AcDbEntity
  8
0
  6
CONTINUOUS
 62
               7
100
AcDbLine
 10
50.699999999999989
 20
45.899999999999949
 30
0.0
 11
50.699999999999989
 21
49.099999999999966
 31
0.0
  0
LINE
  5
2A1
100
AcDbEntity
  8
0
  6
CONTINUOUS
 62
               7
100
AcDbLine
 10
51.699999999999989
 20
49.099999999999966
 30
0.0
 11
50.699999999999989
 21
49.099999999999966
 31
0.0
  0
LINE
  5
2A2
100
AcDbEntity
  8
0
  6
CONTINUOUS
 62
               7
100
AcDbLine
 10
51.699999999999989
 20
45.899999999999949
 30
0.0
 11
50.699999999999989
 21
45.899999999999949
 31
0.0
  0
LINE
  5
2A3
100
AcDbEntity
  8
0
  6
CONTINUOUS
 62
               7
100
AcDbLine
 10
50.799999999999983
 20
45.999999999999957
 30
0.0
 11
50.699999999999989
 21
45.999999999999957
 31
0.0
  0
LINE
  5
2A4
100
AcDbEntity
  8
0
  6
CONTINUOUS
 62
               7
100
AcDbLine
 10
50.799999999999983
 20
48.999999999999957
 30
0.0
 11
50.699999999999989
 21
48.999999999999957
 31
0.0
  0
LINE
  5
2A5
100
AcDbEntity
  8
0
  6
CONTINUOUS
 62
               7
100
AcDbLine
 10
51.299999999999983
 20
46.499999999999957
 30
0.0
 11
51.299999999999983
 21
48.499999999999957
 31
0.0
  0
ARC
  5
2A6
100
AcDbEntity
  8
0
  6
CONTINUOUS
 62
               7
100
AcDbCircle
 10
50.799999999999983
 20
48.499999999999957
 30
0.0
 40
0.5
100
AcDbArc
 50
0.0
 51
89.999999999999815
  0
ARC
  5
2A7
100
AcDbEntity
  8
0
  6
CONTINUOUS
 62
               7
100
AcDbCircle
 10
50.799999999999983
 20
46.499999999999957
 30
0.0
 40
0.5
100
AcDbArc
 50
270.00000000000023
 51
0.0
  0
LINE
  5
2A8
100
AcDbEntity
  8
0
  6
CONTINUOUS
 62
               7
100
AcDbLine
 10
24.700000000000017
 20
63.563402898235921
 30
0.0
 11
24.200000000000017
 21
64.063402898235921
 31
0.0
  0
LINE
  5
2A9
100
AcDbEntity
  8
0
  6
CONTINUOUS
 62
               7
100
AcDbLine
 10
29.200000000000017
 20
64.063402898235921
 30
0.0
 11
28.700000000000017
 21
63.563402898235921
 31
0.0
  0
LINE
  5
2AA
100
AcDbEntity
  8
0
  6
CONTINUOUS
 62
               7
100
AcDbLine
 10
25.450000000000017
 20
63.563402898235921
 30
0.0
 11
25.450000000000017
 21
62.358402898235937
 31
0.0
  0
LINE
  5
2AB
100
AcDbEntity
  8
0
  6
CONTINUOUS
 62
               2
100
AcDbLine
 10
25.625000000000028
 20
63.563402898235921
 30
0.0
 11
25.625000000000028
 21
62.358402898235937
 31
0.0
  0
LINE
  5
2AC
100
AcDbEntity
  8
0
  6
CONTINUOUS
 62
               7
100
AcDbLine
 10
24.700000000000017
 20
63.563402898235921
 30
0.0
 11
28.700000000000017
 21
63.563402898235921
 31
0.0
  0
LINE
  5
2AD
100
AcDbEntity
  8
0
  6
CONTINUOUS
 62
               7
100
AcDbLine
 10
23.700000000000017
 20
59.858402898235937
 30
0.0
 11
23.700000000000017
 21
61.858402898235937
 31
0.0
  0
LINE
  5
2AE
100
AcDbEntity
  8
0
  6
CONTINUOUS
 62
               7
100
AcDbLine
 10
27.950000000000017
 20
59.358402898235937
 30
0.0
 11
27.950000000000017
 21
58.719220935761115
 31
0.0
  0
LINE
  5
2AF
100
AcDbEntity
  8
0
  6
CONTINUOUS
 62
               2
100
AcDbLine
 10
27.775000000000006
 20
59.358402898235937
 30
0.0
 11
27.775000000000006
 21
58.719220935761115
 31
0.0
  0
LINE
  5
2B0
100
AcDbEntity
  8
0
  6
CONTINUOUS
 62
               7
100
AcDbLine
 10
25.450000000000017
 20
59.358402898235937
 30
0.0
 11
25.450000000000017
 21
58.719220935761115
 31
0.0
  0
LINE
  5
2B1
100
AcDbEntity
  8
0
  6
CONTINUOUS
 62
               2
100
AcDbLine
 10
25.625000000000028
 20
59.358402898235937
 30
0.0
 11
25.625000000000028
 21
58.719220935761115
 31
0.0
  0
LINE
  5
2B2
100
AcDbEntity
  8
0
  6
CONTINUOUS
 62
               7
100
AcDbLine
 10
24.200000000000017
 20
69.063402898235935
 30
0.0
 11
24.200000000000017
 21
64.063402898235921
 31
0.0
  0
LINE
  5
2B3
100
AcDbEntity
  8
0
  6
CONTINUOUS
 62
               7
100
AcDbLine
 10
23.450000000000017
 20
58.219220935761115
 30
0.0
 11
23.950000000000017
 21
58.719220935761115
 31
0.0
  0
LINE
  5
2B4
100
AcDbEntity
  8
0
  6
CONTINUOUS
 62
               7
100
AcDbLine
 10
29.200000000000017
 20
69.063402898235935
 30
0.0
 11
29.200000000000017
 21
64.063402898235921
 31
0.0
  0
LINE
  5
2B5
100
AcDbEntity
  8
0
  6
CONTINUOUS
 62
               7
100
AcDbLine
 10
29.950000000000017
 20
58.219220935761115
 30
0.0
 11
29.450000000000017
 21
58.719220935761115
 31
0.0
  0
LINE
  5
2B6
100
AcDbEntity
  8
0
  6
CONTINUOUS
 62
               7
100
AcDbLine
 10
23.450000000000017
 20
55.519220935761126
 30
0.0
 11
23.450000000000017
 21
58.219220935761115
 31
0.0
  0
LINE
  5
2B7
100
AcDbEntity
  8
0
  6
CONTINUOUS
 62
               7
100
AcDbLine
 10
29.950000000000017
 20
55.519220935761126
 30
0.0
 11
29.950000000000017
 21
58.219220935761115
 31
0.0
  0
LINE
  5
2B8
100
AcDbEntity
  8
0
  6
CONTINUOUS
 62
               7
100
AcDbLine
 10
29.450000000000017
 20
58.719220935761115
 30
0.0
 11
23.950000000000017
 21
58.719220935761115
 31
0.0
  0
ARC
  5
2B9
100
AcDbEntity
  8
0
  6
CONTINUOUS
 62
               4
100
AcDbCircle
 10
-4.0
 20
1.0999999999999943
 30
0.0
 40
0.5
100
AcDbArc
 50
89.999999999999815
 51
179.99999999999963
  0
ARC
  5
2BA
100
AcDbEntity
  8
0
  6
CONTINUOUS
 62
               4
100
AcDbCircle
 10
-4.0
 20
0.5
 30
0.0
 40
0.5
100
AcDbArc
 50
179.99999999999963
 51
269.99999999999937
  0
ARC
  5
2BB
100
AcDbEntity
  8
0
  6
CONTINUOUS
 62
               4
100
AcDbCircle
 10
20.0
 20
0.5
 30
0.0
 40
0.5
100
AcDbArc
 50
270.00000000000023
 51
0.0
  0
LINE
  5
2BC
100
AcDbEntity
  8
0
  6
CONTINUOUS
 62
               4
100
AcDbLine
 10
-4.5
 20
1.0999999999999943
 30
0.0
 11
-4.5
 21
0.5
 31
0.0
  0
LINE
  5
2BD
100
AcDbEntity
  8
0
  6
CONTINUOUS
 62
               4
100
AcDbLine
 10
20.5
 20
1.5999999999999943
 30
0.0
 11
-4.0
 21
1.5999999999999943
 31
0.0
  0
LINE
  5
2BE
100
AcDbEntity
  8
0
  6
CONTINUOUS
 62
               4
100
AcDbLine
 10
20.0
 20
0.0
 30
0.0
 11
-4.0
 21
0.0
 31
0.0
  0
LINE
  5
2BF
100
AcDbEntity
  8
0
  6
CONTINUOUS
 62
               4
100
AcDbLine
 10
12.5
 20
19.0
 30
0.0
 11
12.5
 21
1.5999999999999943
 31
0.0
  0
LINE
  5
2C0
100
AcDbEntity
  8
0
  6
CONTINUOUS
 62
               4
100
AcDbLine
 10
20.5
 20
19.0
 30
0.0
 11
20.5
 21
0.5
 31
0.0
  0
ARC
  5
2C1
100
AcDbEntity
  8
0
  6
CONTINUOUS
 62
               4
100
AcDbCircle
 10
16.5
 20
19.0
 30
0.0
 40
4.0
100
AcDbArc
 50
0.0
 51
179.99999999999963
  0
LINE
  5
2C2
100
AcDbEntity
  8
0
  6
CENTER
 62
             200
100
AcDbLine
 10
16.5
 20
3.5
 30
0.0
 11
16.5
 21
8.5
 31
0.0
  0
LINE
  5
2C3
100
AcDbEntity
  8
0
  6
CENTER
 62
             200
100
AcDbLine
 10
13.971124524314888
 20
6.0
 30
0.0
 11
19.0
 21
6.0
 31
0.0
  0
CIRCLE
  5
2C4
100
AcDbEntity
  8
0
  6
CONTINUOUS
 62
               4
100
AcDbCircle
 10
16.5
 20
6.0
 30
0.0
 40
2.25
  0
LINE
  5
2C5
100
AcDbEntity
  8
0
  6
CONTINUOUS
 62
               4
100
AcDbLine
 10
17.499999956111253
 20
5.4226497411727905
 30
0.0
 11
16.499999943090586
 21
4.8452994644656826
 31
0.0
  0
LINE
  5
2C6
100
AcDbEntity
  8
0
  6
CONTINUOUS
 62
               4
100
AcDbLine
 10
16.499999956111253
 20
7.1547005176544189
 30
0.0
 11
15.5
 21
6.5773502738039724
 31
0.0
  0
LINE
  5
2C7
100
AcDbEntity
  8
0
  6
CONTINUOUS
 62
               4
100
AcDbLine
 10
16.499999956111253
 20
4.8452994525432587
 30
0.0
 11
15.499999985913576
 21
5.4226497113704681
 31
0.0
  0
LINE
  5
2C8
100
AcDbEntity
  8
0
  6
CONTINUOUS
 62
               4
100
AcDbLine
 10
17.499999956111253
 20
6.5773502886295319
 30
0.0
 11
16.499999985913576
 21
7.1547005474567413
 31
0.0
  0
LINE
  5
2C9
100
AcDbEntity
  8
0
  6
CONTINUOUS
 62
               4
100
AcDbLine
 10
17.5
 20
5.4226497411727905
 30
0.0
 11
17.5
 21
6.5773502588272095
 31
0.0
  0
LINE
  5
2CA
100
AcDbEntity
  8
0
  6
CONTINUOUS
 62
               4
100
AcDbLine
 10
15.5
 20
5.4226496815681458
 30
0.0
 11
15.5
 21
6.5773502588272095
 31
0.0
  0
CIRCLE
  5
2CB
100
AcDbEntity
  8
0
  6
CONTINUOUS
 62
               4
100
AcDbCircle
 10
16.5
 20
6.0
 30
0.0
 40
1.9999999999999996
  0
LINE
  5
2CC
100
AcDbEntity
  8
0
  6
CENTER
 62
             200
100
AcDbLine
 10
0.0
 20
-1.6999999999999886
 30
0.0
 11
0.0
 21
3.3000000000000114
 31
0.0
  0
LINE
  5
2CD
100
AcDbEntity
  8
0
  6
CENTER
 62
             200
100
AcDbLine
 10
10.0
 20
-1.6999999999999886
 30
0.0
 11
10.0
 21
3.3000000000000114
 31
0.0
  0
LINE
  5
2CE
100
AcDbEntity
  8
0
  6
CONTINUOUS
 62
               7
100
AcDbLine
 10
56.299999999999997
 20
21.499999999999972
 30
0.0
 11
56.29999999999999
 21
4.2999999999999936
 31
0.0
  0
LINE
  5
2CF
100
AcDbEntity
  8
0
  6
CONTINUOUS
 62
               7
100
AcDbLine
 10
62.189999999999991
 20
16.649999999999981
 30
0.0
 11
65.499999999999986
 21
16.649999999999981
 31
0.0
  0
LINE
  5
2D0
100
AcDbEntity
  8
0
  6
CONTINUOUS
 62
               7
100
AcDbLine
 10
61.839999999999989
 20
17.949999999999978
 30
0.0
 11
65.499999999999986
 21
17.949999999999978
 31
0.0
  0
LINE
  5
2D1
100
AcDbEntity
  8
0
  6
CONTINUOUS
 62
               7
100
AcDbLine
 10
65.499999999999986
 20
17.549999999999979
 30
0.0
 11
69.499999999999986
 21
17.549999999999979
 31
0.0
  0
LINE
  5
2D2
100
AcDbEntity
  8
0
  6
CONTINUOUS
 62
               7
100
AcDbLine
 10
65.499999999999986
 20
17.049999999999979
 30
0.0
 11
69.499999999999986
 21
17.049999999999979
 31
0.0
  0
LINE
  5
2D3
100
AcDbEntity
  8
0
  6
CONTINUOUS
 62
               7
100
AcDbLine
 10
65.499999999999986
 20
16.649999999999981
 30
0.0
 11
65.499999999999986
 21
17.949999999999978
 31
0.0
  0
LINE
  5
2D4
100
AcDbEntity
  8
0
  6
CONTINUOUS
 62
               7
100
AcDbLine
 10
69.499999999999986
 20
17.049999999999979
 30
0.0
 11
69.499999999999986
 21
17.549999999999979
 31
0.0
  0
LINE
  5
2D5
100
AcDbEntity
  8
0
  6
CONTINUOUS
 62
               2
100
AcDbLine
 10
60.54999999999999
 20
18.899999999999977
 30
0.0
 11
61.409999999999982
 21
15.699999999999978
 31
0.0
  0
LINE
  5
2D6
100
AcDbEntity
  8
0
  6
CONTINUOUS
 62
               2
100
AcDbLine
 10
61.579999999999991
 20
18.899999999999977
 30
0.0
 11
62.439999999999991
 21
15.699999999999978
 31
0.0
  0
LINE
  5
2D7
100
AcDbEntity
  8
0
  6
CONTINUOUS
 62
               7
100
AcDbLine
 10
57.29999999999999
 20
16.649999999999981
 30
0.0
 11
61.149999999999991
 21
16.649999999999981
 31
0.0
  0
LINE
  5
2D8
100
AcDbEntity
  8
0
  6
CONTINUOUS
 62
               7
100
AcDbLine
 10
57.29999999999999
 20
17.949999999999978
 30
0.0
 11
60.79999999999999
 21
17.949999999999978
 31
0.0
  0
ARC
  5
2D9
100
AcDbEntity
  8
0
  6
CONTINUOUS
 62
               7
100
AcDbCircle
 10
55.999999999999993
 20
4.2999999999999936
 30
0.0
 40
0.3
100
AcDbArc
 50
270.00000000000023
 51
0.0
  0
LINE
  5
2DA
100
AcDbEntity
  8
0
  6
CONTINUOUS
 62
               7
100
AcDbLine
 10
57.099999999999987
 20
15.299999999999983
 30
0.0
 11
56.29999999999999
 21
15.299999999999983
 31
0.0
  0
ARC
  5
2DB
100
AcDbEntity
  8
0
  6
CONTINUOUS
 62
               7
100
AcDbCircle
 10
57.100711437663726
 20
15.499288562336226
 30
0.0
 40
0.1992898322082596
100
AcDbArc
 50
269.79546140589491
 51
0.2045385941045798
  0
LINE
  5
2DC
100
AcDbEntity
  8
0
  6
CONTINUOUS
 62
               7
100
AcDbLine
 10
57.29999999999999
 20
19.09999999999998
 30
0.0
 11
57.29999999999999
 21
15.499999999999982
 31
0.0
  0
ARC
  5
2DD
100
AcDbEntity
  8
0
  6
CONTINUOUS
 62
               7
100
AcDbCircle
 10
57.10071143766374
 20
19.10071143766374
 30
0.0
 40
0.1992898322082596
100
AcDbArc
 50
359.79546140589474
 51
90.204538594104179
  0
LINE
  5
2DE
100
AcDbEntity
  8
0
  6
CONTINUOUS
 62
               7
100
AcDbLine
 10
57.099999999999987
 20
19.299999999999983
 30
0.0
 11
56.29999999999999
 21
19.299999999999983
 31
0.0
  0
LINE
  5
2DF
100
AcDbEntity
  8
0
  6
CONTINUOUS
 62
               7
100
AcDbLine
 10
37.899999999999977
 20
3.9999999999999858
 30
0.0
 11
55.999999999999993
 21
3.9999999999999858
 31
0.0
  0
LINE
  5
2E0
100
AcDbEntity
  8
0
  6
CONTINUOUS
 62
               7
100
AcDbLine
 10
50.399999999999991
 20
21.499999999999972
 30
0.0
 11
56.299999999999997
 21
21.499999999999972
 31
0.0
  0
LINE
  5
2E1
100
AcDbEntity
  8
0
  6
CONTINUOUS
 62
               7
100
AcDbLine
 10
55.699999999999989
 20
21.499999999999972
 30
0.0
 11
55.699999999999989
 21
21.599999999999987
 31
0.0
  0
LINE
  5
2E2
100
AcDbEntity
  8
0
  6
CONTINUOUS
 62
               7
100
AcDbLine
 10
50.399999999999984
 20
5.4999999999999858
 30
0.0
 11
37.899999999999977
 21
5.4999999999999858
 31
0.0
  0
LINE
  5
2E3
100
AcDbEntity
  8
0
  6
CONTINUOUS
 62
               7
100
AcDbLine
 10
50.399999999999984
 20
5.4999999999999858
 30
0.0
 11
50.399999999999991
 21
21.599999999999987
 31
0.0
  0
LINE
  5
2E4
100
AcDbEntity
  8
0
  6
CONTINUOUS
 62
               7
100
AcDbLine
 10
55.699999999999989
 20
53.499999999999972
 30
0.0
 11
55.699999999999989
 21
53.399999999999956
 31
0.0
  0
LINE
  5
2E5
100
AcDbEntity
  8
0
  6
CONTINUOUS
 62
               7
100
AcDbLine
 10
50.399999999999991
 20
53.499999999999972
 30
0.0
 11
56.299999999999997
 21
53.499999999999972
 31
0.0
  0
LINE
  5
2E6
100
AcDbEntity
  8
0
  6
CONTINUOUS
 62
               7
100
AcDbLine
 10
37.899999999999977
 20
70.999999999999957
 30
0.0
 11
55.999999999999993
 21
70.999999999999957
 31
0.0
  0
LINE
  5
2E7
100
AcDbEntity
  8
0
  6
CONTINUOUS
 62
               7
100
AcDbLine
 10
57.099999999999987
 20
55.69999999999996
 30
0.0
 11
56.29999999999999
 21
55.69999999999996
 31
0.0
  0
ARC
  5
2E8
100
AcDbEntity
  8
0
  6
CONTINUOUS
 62
               7
100
AcDbCircle
 10
57.10071143766374
 20
55.899288562336203
 30
0.0
 40
0.1992898322082596
100
AcDbArc
 50
269.79546140589582
 51
0.2045385941044271
  0
LINE
  5
2E9
100
AcDbEntity
  8
0
  6
CONTINUOUS
 62
               7
100
AcDbLine
 10
57.29999999999999
 20
55.899999999999963
 30
0.0
 11
57.29999999999999
 21
59.499999999999957
 31
0.0
  0
ARC
  5
2EA
100
AcDbEntity
  8
0
  6
CONTINUOUS
 62
               7
100
AcDbCircle
 10
57.100711437663726
 20
59.500711437663718
 30
0.0
 40
0.1992898322082596
100
AcDbArc
 50
359.79546140589542
 51
90.204538594104278
  0
LINE
  5
2EB
100
AcDbEntity
  8
0
  6
CONTINUOUS
 62
               7
100
AcDbLine
 10
57.099999999999987
 20
59.69999999999996
 30
0.0
 11
56.29999999999999
 21
59.69999999999996
 31
0.0
  0
ARC
  5
2EC
100
AcDbEntity
  8
0
  6
CONTINUOUS
 62
               7
100
AcDbCircle
 10
55.999999999999993
 20
70.699999999999946
 30
0.0
 40
0.3
100
AcDbArc
 50
0.0000000000000254
 51
89.999999999999829
  0
LINE
  5
2ED
100
AcDbEntity
  8
0
  6
CONTINUOUS
 62
               7
100
AcDbLine
 10
57.29999999999999
 20
58.349999999999952
 30
0.0
 11
60.79999999999999
 21
58.349999999999952
 31
0.0
  0
LINE
  5
2EE
100
AcDbEntity
  8
0
  6
CONTINUOUS
 62
               7
100
AcDbLine
 10
57.29999999999999
 20
57.049999999999955
 30
0.0
 11
61.149999999999991
 21
57.049999999999955
 31
0.0
  0
LINE
  5
2EF
100
AcDbEntity
  8
0
  6
CONTINUOUS
 62
               2
100
AcDbLine
 10
61.579999999999991
 20
59.299999999999955
 30
0.0
 11
62.439999999999991
 21
56.099999999999952
 31
0.0
  0
LINE
  5
2F0
100
AcDbEntity
  8
0
  6
CONTINUOUS
 62
               2
100
AcDbLine
 10
60.54999999999999
 20
59.299999999999955
 30
0.0
 11
61.409999999999982
 21
56.099999999999952
 31
0.0
  0
LINE
  5
2F1
100
AcDbEntity
  8
0
  6
CONTINUOUS
 62
               7
100
AcDbLine
 10
69.499999999999986
 20
57.94999999999996
 30
0.0
 11
69.499999999999986
 21
57.44999999999996
 31
0.0
  0
LINE
  5
2F2
100
AcDbEntity
  8
0
  6
CONTINUOUS
 62
               7
100
AcDbLine
 10
65.499999999999986
 20
58.349999999999966
 30
0.0
 11
65.499999999999986
 21
57.049999999999969
 31
0.0
  0
LINE
  5
2F3
100
AcDbEntity
  8
0
  6
CONTINUOUS
 62
               7
100
AcDbLine
 10
65.499999999999986
 20
57.94999999999996
 30
0.0
 11
69.499999999999986
 21
57.94999999999996
 31
0.0
  0
LINE
  5
2F4
100
AcDbEntity
  8
0
  6
CONTINUOUS
 62
               7
100
AcDbLine
 10
65.499999999999986
 20
57.44999999999996
 30
0.0
 11
69.499999999999986
 21
57.44999999999996
 31
0.0
  0
LINE
  5
2F5
100
AcDbEntity
  8
0
  6
CONTINUOUS
 62
               7
100
AcDbLine
 10
61.839999999999989
 20
58.349999999999952
 30
0.0
 11
65.499999999999986
 21
58.349999999999959
 31
0.0
  0
LINE
  5
2F6
100
AcDbEntity
  8
0
  6
CONTINUOUS
 62
               7
100
AcDbLine
 10
62.189999999999991
 20
57.049999999999955
 30
0.0
 11
65.499999999999986
 21
57.049999999999962
 31
0.0
  0
LINE
  5
2F7
100
AcDbEntity
  8
0
  6
CONTINUOUS
 62
               7
100
AcDbLine
 10
56.299999999999997
 20
53.499999999999972
 30
0.0
 11
56.29999999999999
 21
70.699999999999946
 31
0.0
  0
ENDBLK
  5
2F8
100
AcDbEntity
  8
0
100
AcDbBlockEnd
  0
BLOCK
  5
2F9
100
AcDbEntity
  8
0
100
AcDbBlockBegin
  2
MV090-01-5
 70
               0
 10
0.0
 20
0.0
 30
0.0
  3
MV090-01-5
  1

  0
LINE
  5
2FA
100
AcDbEntity
  8
0
  6
CENTER
 62
             200
100
AcDbLine
 10
0.0
 20
-1.6999999999999886
 30
0.0
 11
0.0
 21
3.3000000000000114
 31
0.0
  0
LINE
  5
2FB
100
AcDbEntity
  8
0
  6
CENTER
 62
             200
100
AcDbLine
 10
7.7000000000000171
 20
18.0
 30
0.0
 11
0.4512971541956006
 21
18.0
 31
0.0
  0
LINE
  5
2FC
100
AcDbEntity
  8
0
  6
CENTER
 62
             200
100
AcDbLine
 10
7.7000000000000171
 20
6.0
 30
0.0
 11
0.4512971541956006
 21
6.0
 31
0.0
  0
ARC
  5
2FD
100
AcDbEntity
  8
0
  6
CONTINUOUS
 62
               4
100
AcDbCircle
 10
5.5
 20
0.5
 30
0.0
 40
0.5
100
AcDbArc
 50
269.99999999999937
 51
0.0
  0
ARC
  5
2FE
100
AcDbEntity
  8
0
  6
CONTINUOUS
 62
               4
100
AcDbCircle
 10
4.0
 20
2.0
 30
0.0
 40
0.4
100
AcDbArc
 50
269.99999999999937
 51
0.0
  0
ARC
  5
2FF
100
AcDbEntity
  8
0
  6
CONTINUOUS
 62
               4
100
AcDbCircle
 10
-3.5
 20
0.5
 30
0.0
 40
0.5
100
AcDbArc
 50
179.99999999999963
 51
269.99999999999937
  0
ARC
  5
300
100
AcDbEntity
  8
0
  6
CONTINUOUS
 62
               4
100
AcDbCircle
 10
-3.5
 20
1.0999999999999943
 30
0.0
 40
0.5
100
AcDbArc
 50
89.999999999999815
 51
179.99999999999963
  0
ARC
  5
301
100
AcDbEntity
  8
0
  6
CONTINUOUS
 62
               4
100
AcDbCircle
 10
4.9000000000000057
 20
22.5
 30
0.0
 40
0.5
100
AcDbArc
 50
89.999999999999815
 51
179.99999999999963
  0
ARC
  5
302
100
AcDbEntity
  8
0
  6
CONTINUOUS
 62
               4
100
AcDbCircle
 10
5.5
 20
22.5
 30
0.0
 40
0.5
100
AcDbArc
 50
0.0
 51
89.999999999999815
  0
LINE
  5
303
100
AcDbEntity
  8
0
  6
CONTINUOUS
 62
               4
100
AcDbLine
 10
5.5
 20
23.0
 30
0.0
 11
4.9000000000000057
 21
23.0
 31
0.0
  0
LINE
  5
304
100
AcDbEntity
  8
0
  6
CONTINUOUS
 62
               4
100
AcDbLine
 10
-3.5
 20
1.5999999999999943
 30
0.0
 11
4.0
 21
1.5999999999999943
 31
0.0
  0
LINE
  5
305
100
AcDbEntity
  8
0
  6
CONTINUOUS
 62
               4
100
AcDbLine
 10
-3.5
 20
0.0
 30
0.0
 11
5.5
 21
0.0
 31
0.0
  0
LINE
  5
306
100
AcDbEntity
  8
0
  6
CONTINUOUS
 62
               4
100
AcDbLine
 10
4.4000000000000057
 20
22.5
 30
0.0
 11
4.4000000000000057
 21
2.0
 31
0.0
  0
LINE
  5
307
100
AcDbEntity
  8
0
  6
CONTINUOUS
 62
               4
100
AcDbLine
 10
6.0
 20
0.5
 30
0.0
 11
6.0
 21
4.0
 31
0.0
  0
LINE
  5
308
100
AcDbEntity
  8
0
  6
CONTINUOUS
 62
               4
100
AcDbLine
 10
-4.0
 20
1.0999999999999943
 30
0.0
 11
-4.0
 21
0.5
 31
0.0
  0
LINE
  5
309
100
AcDbEntity
  8
0
  6
CONTINUOUS
 62
               4
100
AcDbLine
 10
2.0500000000000114
 20
20.25
 30
0.0
 11
1.8000000000000114
 21
20.0
 31
0.0
  0
LINE
  5
30A
100
AcDbEntity
  8
0
  6
CONTINUOUS
 62
               4
100
AcDbLine
 10
2.0500000000000114
 20
15.75
 30
0.0
 11
1.8000000000000114
 21
16.0
 31
0.0
  0
LINE
  5
30B
100
AcDbEntity
  8
0
  6
CONTINUOUS
 62
               4
100
AcDbLine
 10
2.0500000000000114
 20
20.25
 30
0.0
 11
2.0500000000000114
 21
15.75
 31
0.0
  0
LINE
  5
30C
100
AcDbEntity
  8
0
  6
CONTINUOUS
 62
               4
100
AcDbLine
 10
1.8000000000000114
 20
20.0
 30
0.0
 11
1.8000000000000114
 21
16.0
 31
0.0
  0
LINE
  5
30D
100
AcDbEntity
  8
0
  6
CONTINUOUS
 62
               4
100
AcDbLine
 10
2.0500000000000114
 20
20.25
 30
0.0
 11
4.4000000000000057
 21
20.25
 31
0.0
  0
LINE
  5
30E
100
AcDbEntity
  8
0
  6
CONTINUOUS
 62
               4
100
AcDbLine
 10
2.0500000000000114
 20
15.75
 30
0.0
 11
4.4000000000000057
 21
15.75
 31
0.0
  0
LINE
  5
30F
100
AcDbEntity
  8
0
  6
CONTINUOUS
 62
               4
100
AcDbLine
 10
2.0500000000000114
 20
3.75
 30
0.0
 11
4.4000000000000057
 21
3.75
 31
0.0
  0
LINE
  5
310
100
AcDbEntity
  8
0
  6
CONTINUOUS
 62
               4
100
AcDbLine
 10
2.0500000000000114
 20
8.25
 30
0.0
 11
4.4000000000000057
 21
8.25
 31
0.0
  0
LINE
  5
311
100
AcDbEntity
  8
0
  6
CONTINUOUS
 62
               4
100
AcDbLine
 10
1.8000000000000114
 20
8.0
 30
0.0
 11
1.8000000000000114
 21
4.0
 31
0.0
  0
LINE
  5
312
100
AcDbEntity
  8
0
  6
CONTINUOUS
 62
               4
100
AcDbLine
 10
2.0500000000000114
 20
8.25
 30
0.0
 11
2.0500000000000114
 21
3.75
 31
0.0
  0
LINE
  5
313
100
AcDbEntity
  8
0
  6
CONTINUOUS
 62
               4
100
AcDbLine
 10
2.0500000000000114
 20
3.75
 30
0.0
 11
1.8000000000000114
 21
4.0
 31
0.0
  0
LINE
  5
314
100
AcDbEntity
  8
0
  6
CONTINUOUS
 62
               4
100
AcDbLine
 10
2.0500000000000114
 20
8.25
 30
0.0
 11
1.8000000000000114
 21
8.0
 31
0.0
  0
LINE
  5
315
100
AcDbEntity
  8
0
  6
CENTER
 62
               2
100
AcDbLine
 10
11.000000000000004
 20
73.136052925234992
 30
0.0
 11
10.999999999999996
 21
1.8639470747648943
 31
0.0
  0
LINE
  5
316
100
AcDbEntity
  8
0
  6
CONTINUOUS
 62
               7
100
AcDbLine
 10
13.394370406123901
 20
30.040817451771176
 30
0.0
 11
13.650000000000009
 21
29.599999999999994
 31
0.0
  0
LINE
  5
317
100
AcDbEntity
  8
0
  6
CONTINUOUS
 62
               7
100
AcDbLine
 10
8.3499999999999979
 20
29.599999999999994
 30
0.0
 11
8.605629593876106
 21
30.040817451771147
 31
0.0
  0
LINE
  5
318
100
AcDbEntity
  8
0
  6
CONTINUOUS
 62
               7
100
AcDbLine
 10
12.144370406123901
 20
28.790817451771147
 30
0.0
 11
12.400000000000009
 21
28.350000000000023
 31
0.0
  0
LINE
  5
319
100
AcDbEntity
  8
0
  6
CONTINUOUS
 62
               7
100
AcDbLine
 10
13.650000000000009
 20
29.599999999999994
 30
0.0
 11
12.400000000000009
 21
28.350000000000023
 31
0.0
  0
LINE
  5
31A
100
AcDbEntity
  8
0
  6
CONTINUOUS
 62
               7
100
AcDbLine
 10
12.144370406123901
 20
28.790817451771147
 30
0.0
 11
13.394370406123901
 21
30.040817451771176
 31
0.0
  0
LINE
  5
31B
100
AcDbEntity
  8
0
  6
CONTINUOUS
 62
               7
100
AcDbLine
 10
9.855629593876106
 20
28.790817451771147
 30
0.0
 11
9.5999999999999979
 21
28.350000000000023
 31
0.0
  0
LINE
  5
31C
100
AcDbEntity
  8
0
  6
CONTINUOUS
 62
               7
100
AcDbLine
 10
6.0000000000000036
 20
22.909182548228841
 30
0.0
 11
16.000000000000004
 21
22.909182548228841
 31
0.0
  0
LINE
  5
31D
100
AcDbEntity
  8
0
  6
CONTINUOUS
 62
               7
100
AcDbLine
 10
9.855629593876106
 20
28.790817451771147
 30
0.0
 11
8.605629593876106
 21
30.040817451771147
 31
0.0
  0
LINE
  5
31E
100
AcDbEntity
  8
0
  6
CONTINUOUS
 62
               7
100
AcDbLine
 10
6.0000000000000036
 20
30.040817451771147
 30
0.0
 11
8.605629593876106
 21
30.040817451771147
 31
0.0
  0
LINE
  5
31F
100
AcDbEntity
  8
0
  6
CONTINUOUS
 62
               7
100
AcDbLine
 10
13.394370406123901
 20
30.040817451771176
 30
0.0
 11
16.000000000000004
 21
30.040817451771176
 31
0.0
  0
LINE
  5
320
100
AcDbEntity
  8
0
  6
CONTINUOUS
 62
               7
100
AcDbLine
 10
12.144370406123901
 20
28.790817451771147
 30
0.0
 11
9.855629593876106
 21
28.790817451771147
 31
0.0
  0
LINE
  5
321
100
AcDbEntity
  8
0
  6
CONTINUOUS
 62
               7
100
AcDbLine
 10
5.9999999999999751
 20
29.599999999999994
 30
0.0
 11
8.3499999999999979
 21
29.599999999999994
 31
0.0
  0
LINE
  5
322
100
AcDbEntity
  8
0
  6
CONTINUOUS
 62
               7
100
AcDbLine
 10
8.3499999999999979
 20
29.599999999999994
 30
0.0
 11
9.5999999999999979
 21
28.350000000000023
 31
0.0
  0
LINE
  5
323
100
AcDbEntity
  8
0
  6
CONTINUOUS
 62
               7
100
AcDbLine
 10
12.400000000000009
 20
28.350000000000023
 30
0.0
 11
9.5999999999999979
 21
28.350000000000023
 31
0.0
  0
LINE
  5
324
100
AcDbEntity
  8
0
  6
CONTINUOUS
 62
               7
100
AcDbLine
 10
13.650000000000009
 20
29.599999999999994
 30
0.0
 11
16.000000000000004
 21
29.599999999999994
 31
0.0
  0
CIRCLE
  5
325
100
AcDbEntity
  8
0
  6
CONTINUOUS
 62
               7
100
AcDbCircle
 10
11.000000000000004
 20
25.75
 30
0.0
 40
2.0500000000000003
  0
LINE
  5
326
100
AcDbEntity
  8
0
  6
CONTINUOUS
 62
               7
100
AcDbLine
 10
16.000000000000004
 20
22.098078436969899
 30
0.0
 11
6.0000000000000036
 21
22.098078436969899
 31
0.0
  0
LINE
  5
327
100
AcDbEntity
  8
0
  6
CONTINUOUS
 62
               7
100
AcDbLine
 10
6.0000000000000036
 20
21.600000000000023
 30
0.0
 11
16.000000000000004
 21
21.600000000000023
 31
0.0
  0
LINE
  5
328
100
AcDbEntity
  8
0
  6
CONTINUOUS
 62
               7
100
AcDbLine
 10
7.5000000000000036
 20
25.899999999999977
 30
0.0
 11
6.0000000000000036
 21
25.899999999999977
 31
0.0
  0
LINE
  5
329
100
AcDbEntity
  8
0
  6
CONTINUOUS
 62
               7
100
AcDbLine
 10
6.0000000000000036
 20
29.100000000000023
 30
0.0
 11
7.5000000000000036
 21
29.100000000000023
 31
0.0
  0
LINE
  5
32A
100
AcDbEntity
  8
0
  6
CONTINUOUS
 62
               7
100
AcDbLine
 10
14.500000000000004
 20
29.100000000000023
 30
0.0
 11
16.000000000000004
 21
29.100000000000023
 31
0.0
  0
LINE
  5
32B
100
AcDbEntity
  8
0
  6
CONTINUOUS
 62
               7
100
AcDbLine
 10
16.000000000000004
 20
25.899999999999977
 30
0.0
 11
14.500000000000004
 21
25.899999999999977
 31
0.0
  0
ARC
  5
32C
100
AcDbEntity
  8
0
  6
CONTINUOUS
 62
               7
100
AcDbCircle
 10
14.500000000000004
 20
27.5
 30
0.0
 40
1.6000000000000001
100
AcDbArc
 50
89.999999999999815
 51
269.99999999999937
  0
ARC
  5
32D
100
AcDbEntity
  8
0
  6
CONTINUOUS
 62
               7
100
AcDbCircle
 10
7.5000000000000036
 20
27.5
 30
0.0
 40
1.6000000000000001
100
AcDbArc
 50
270.00000000000023
 51
89.999999999999801
  0
LINE
  5
32E
100
AcDbEntity
  8
0
  6
CONTINUOUS
 62
               7
100
AcDbLine
 10
16.000000000000004
 20
4.0
 30
0.0
 11
16.000000000000004
 21
21.5
 31
0.0
  0
LINE
  5
32F
100
AcDbEntity
  8
0
  6
CENTER
 62
               2
100
AcDbLine
 10
8.5000000000000036
 20
25.75
 30
0.0
 11
13.500000000000004
 21
25.75
 31
0.0
  0
LINE
  5
330
100
AcDbEntity
  8
0
  6
CONTINUOUS
 62
               7
100
AcDbLine
 10
6.0
 20
4.0
 30
0.0
 11
6.0000000000000036
 21
21.5
 31
0.0
  0
CIRCLE
  5
331
100
AcDbEntity
  8
0
  6
CONTINUOUS
 62
               7
100
AcDbCircle
 10
11.000000000000004
 20
25.75
 30
0.0
 40
1.9000000000000001
  0
LINE
  5
332
100
AcDbEntity
  8
0
  6
CONTINUOUS
 62
               7
100
AcDbLine
 10
16.000000000000004
 20
4.0
 30
0.0
 11
6.0
 21
4.0
 31
0.0
  0
LINE
  5
333
100
AcDbEntity
  8
0
  6
CONTINUOUS
 62
               7
100
AcDbLine
 10
5.9999999966761983
 20
21.5
 30
0.0
 11
15.999999996676198
 21
21.5
 31
0.0
  0
CIRCLE
  5
334
100
AcDbEntity
  8
0
  6
CONTINUOUS
 62
               7
100
AcDbCircle
 10
13.900000000000009
 20
17.300000167936048
 30
0.0
 40
0.875
  0
CIRCLE
  5
335
100
AcDbEntity
  8
0
  6
CONTINUOUS
 62
               7
100
AcDbCircle
 10
8.1000000000000085
 20
17.300000000000011
 30
0.0
 40
0.875
  0
LINE
  5
336
100
AcDbEntity
  8
0
  6
CONTINUOUS
 62
               7
100
AcDbLine
 10
9.5
 20
9.0
 30
0.0
 11
9.5
 21
4.0
 31
0.0
  0
LINE
  5
337
100
AcDbEntity
  8
0
  6
CONTINUOUS
 62
               7
100
AcDbLine
 10
12.500000000000004
 20
9.0
 30
0.0
 11
12.499999999999996
 21
4.0
 31
0.0
  0
LINE
  5
338
100
AcDbEntity
  8
0
  6
CONTINUOUS
 62
               7
100
AcDbLine
 10
12.500000000000004
 20
9.0
 30
0.0
 11
9.5
 21
9.0
 31
0.0
  0
ARC
  5
339
100
AcDbEntity
  8
0
  6
CONTINUOUS
 62
               7
100
AcDbCircle
 10
8.1000000000000085
 20
17.300000000000011
 30
0.0
 40
2.0000000881710069
100
AcDbArc
 50
89.999999999999815
 51
269.99999999999937
  0
ARC
  5
33A
100
AcDbEntity
  8
0
  6
CONTINUOUS
 62
               7
100
AcDbCircle
 10
13.900000000000009
 20
17.300000000000011
 30
0.0
 40
2.0000000881710069
100
AcDbArc
 50
270.00000000000023
 51
89.999999999999801
  0
LINE
  5
33B
100
AcDbEntity
  8
0
  6
CONTINUOUS
 62
               7
100
AcDbLine
 10
8.1000000000000085
 20
19.300000000000011
 30
0.0
 11
13.900000000000009
 21
19.300000000000011
 31
0.0
  0
LINE
  5
33C
100
AcDbEntity
  8
0
  6
CONTINUOUS
 62
               7
100
AcDbLine
 10
8.1000000000000085
 20
15.300000000000011
 30
0.0
 11
13.900000000000009
 21
15.300000000000011
 31
0.0
  0
LINE
  5
33D
100
AcDbEntity
  8
0
  6
CONTINUOUS
 62
               7
100
AcDbLine
 10
9.1744863736471309
 20
26.050000000000011
 30
0.0
 11
12.825513626352876
 21
26.050000000000011
 31
0.0
  0
LINE
  5
33E
100
AcDbEntity
  8
0
  6
CONTINUOUS
 62
               7
100
AcDbLine
 10
9.174486373647138
 20
25.449999999999989
 30
0.0
 11
12.825513626352876
 21
25.449999999999989
 31
0.0
  0
CIRCLE
  5
33F
100
AcDbEntity
  8
0
  6
CONTINUOUS
 62
               7
100
AcDbCircle
 10
11.000000000000004
 20
25.75
 30
0.0
 40
1.8500000000000001
  0
ARC
  5
340
100
AcDbEntity
  8
0
  6
CONTINUOUS
 62
               7
100
AcDbCircle
 10
11.000000000000004
 20
25.75
 30
0.0
 40
0.8
100
AcDbArc
 50
202.02431283704175
 51
337.97568716295712
  0
ARC
  5
341
100
AcDbEntity
  8
0
  6
CONTINUOUS
 62
               7
100
AcDbCircle
 10
11.000000000000004
 20
25.75
 30
0.0
 40
0.8
100
AcDbArc
 50
22.024312837042157
 51
157.97568716295754
  0
CIRCLE
  5
342
100
AcDbEntity
  8
0
  6
CONTINUOUS
 62
               7
100
AcDbCircle
 10
14.500000000000004
 20
27.5
 30
0.0
 40
1.5
  0
LINE
  5
343
100
AcDbEntity
  8
0
  6
CONTINUOUS
 62
               7
100
AcDbLine
 10
15.207106781186557
 20
28.207106781186553
 30
0.0
 11
13.79289321881345
 21
26.792893218813447
 31
0.0
  0
LINE
  5
344
100
AcDbEntity
  8
0
  6
CONTINUOUS
 62
               7
100
AcDbLine
 10
15.207106781186557
 20
26.792893218813447
 30
0.0
 11
13.79289321881345
 21
28.207106781186553
 31
0.0
  0
LINE
  5
345
100
AcDbEntity
  8
0
  6
CONTINUOUS
 62
               7
100
AcDbLine
 10
6.7928932188134503
 20
26.792893218813447
 30
0.0
 11
8.2071067811865568
 21
28.207106781186553
 31
0.0
  0
LINE
  5
346
100
AcDbEntity
  8
0
  6
CONTINUOUS
 62
               7
100
AcDbLine
 10
6.7928932188134503
 20
28.207106781186553
 30
0.0
 11
8.2071067811865568
 21
26.792893218813447
 31
0.0
  0
CIRCLE
  5
347
100
AcDbEntity
  8
0
  6
CONTINUOUS
 62
               7
100
AcDbCircle
 10
7.5000000000000036
 20
27.5
 30
0.0
 40
1.5
  0
LINE
  5
348
100
AcDbEntity
  8
0
  6
CONTINUOUS
 62
               7
100
AcDbLine
 10
6.0000000000000036
 20
36.0
 30
0.0
 11
16.000000000000004
 21
36.0
 31
0.0
  0
LINE
  5
349
100
AcDbEntity
  8
0
  6
CONTINUOUS
 62
               7
100
AcDbLine
 10
8.605629593876106
 20
44.959182548228711
 30
0.0
 11
8.3499999999999979
 21
45.399999999999892
 31
0.0
  0
LINE
  5
34A
100
AcDbEntity
  8
0
  6
CONTINUOUS
 62
               7
100
AcDbLine
 10
13.650000000000009
 20
45.399999999999892
 30
0.0
 11
13.394370406123901
 21
44.959182548228739
 31
0.0
  0
LINE
  5
34B
100
AcDbEntity
  8
0
  6
CONTINUOUS
 62
               7
100
AcDbLine
 10
9.855629593876106
 20
46.209182548228739
 30
0.0
 11
9.5999999999999979
 21
46.649999999999864
 31
0.0
  0
LINE
  5
34C
100
AcDbEntity
  8
0
  6
CONTINUOUS
 62
               7
100
AcDbLine
 10
8.3499999999999979
 20
45.399999999999892
 30
0.0
 11
9.5999999999999979
 21
46.649999999999864
 31
0.0
  0
LINE
  5
34D
100
AcDbEntity
  8
0
  6
CONTINUOUS
 62
               7
100
AcDbLine
 10
9.855629593876106
 20
46.209182548228739
 30
0.0
 11
8.605629593876106
 21
44.959182548228711
 31
0.0
  0
LINE
  5
34E
100
AcDbEntity
  8
0
  6
CONTINUOUS
 62
               7
100
AcDbLine
 10
12.144370406123901
 20
46.209182548228739
 30
0.0
 11
12.400000000000009
 21
46.649999999999864
 31
0.0
  0
LINE
  5
34F
100
AcDbEntity
  8
0
  6
CONTINUOUS
 62
               7
100
AcDbLine
 10
16.000000000000004
 20
52.090817451771045
 30
0.0
 11
6.0000000000000036
 21
52.090817451771045
 31
0.0
  0
LINE
  5
350
100
AcDbEntity
  8
0
  6
CONTINUOUS
 62
               7
100
AcDbLine
 10
12.144370406123901
 20
46.209182548228739
 30
0.0
 11
13.394370406123901
 21
44.959182548228739
 31
0.0
  0
LINE
  5
351
100
AcDbEntity
  8
0
  6
CONTINUOUS
 62
               7
100
AcDbLine
 10
16.000000000000004
 20
44.959182548228739
 30
0.0
 11
13.394370406123901
 21
44.959182548228739
 31
0.0
  0
LINE
  5
352
100
AcDbEntity
  8
0
  6
CONTINUOUS
 62
               7
100
AcDbLine
 10
8.605629593876106
 20
44.959182548228711
 30
0.0
 11
6.0000000000000036
 21
44.959182548228711
 31
0.0
  0
LINE
  5
353
100
AcDbEntity
  8
0
  6
CONTINUOUS
 62
               7
100
AcDbLine
 10
9.855629593876106
 20
46.209182548228739
 30
0.0
 11
12.144370406123901
 21
46.209182548228739
 31
0.0
  0
LINE
  5
354
100
AcDbEntity
  8
0
  6
CONTINUOUS
 62
               7
100
AcDbLine
 10
16.000000000000032
 20
45.399999999999892
 30
0.0
 11
13.650000000000009
 21
45.399999999999892
 31
0.0
  0
LINE
  5
355
100
AcDbEntity
  8
0
  6
CONTINUOUS
 62
               7
100
AcDbLine
 10
13.650000000000009
 20
45.399999999999892
 30
0.0
 11
12.400000000000009
 21
46.649999999999864
 31
0.0
  0
LINE
  5
356
100
AcDbEntity
  8
0
  6
CONTINUOUS
 62
               7
100
AcDbLine
 10
9.5999999999999979
 20
46.649999999999864
 30
0.0
 11
12.400000000000009
 21
46.649999999999864
 31
0.0
  0
LINE
  5
357
100
AcDbEntity
  8
0
  6
CONTINUOUS
 62
               7
100
AcDbLine
 10
8.3499999999999979
 20
45.399999999999892
 30
0.0
 11
6.0000000000000036
 21
45.399999999999892
 31
0.0
  0
CIRCLE
  5
358
100
AcDbEntity
  8
0
  6
CONTINUOUS
 62
               7
100
AcDbCircle
 10
11.000000000000004
 20
49.249999999999886
 30
0.0
 40
2.0500000000000003
  0
LINE
  5
359
100
AcDbEntity
  8
0
  6
CONTINUOUS
 62
               7
100
AcDbLine
 10
6.0000000000000036
 20
52.901921563029987
 30
0.0
 11
16.000000000000004
 21
52.901921563029987
 31
0.0
  0
LINE
  5
35A
100
AcDbEntity
  8
0
  6
CONTINUOUS
 62
               7
100
AcDbLine
 10
16.000000000000004
 20
53.399999999999864
 30
0.0
 11
6.0000000000000036
 21
53.399999999999864
 31
0.0
  0
LINE
  5
35B
100
AcDbEntity
  8
0
  6
CONTINUOUS
 62
               7
100
AcDbLine
 10
14.500000000000004
 20
49.099999999999909
 30
0.0
 11
16.000000000000004
 21
49.099999999999909
 31
0.0
  0
LINE
  5
35C
100
AcDbEntity
  8
0
  6
CONTINUOUS
 62
               7
100
AcDbLine
 10
16.000000000000004
 20
45.899999999999864
 30
0.0
 11
14.500000000000004
 21
45.899999999999864
 31
0.0
  0
LINE
  5
35D
100
AcDbEntity
  8
0
  6
CONTINUOUS
 62
               7
100
AcDbLine
 10
7.5000000000000036
 20
45.899999999999864
 30
0.0
 11
6.0000000000000036
 21
45.899999999999864
 31
0.0
  0
LINE
  5
35E
100
AcDbEntity
  8
0
  6
CONTINUOUS
 62
               7
100
AcDbLine
 10
6.0000000000000036
 20
49.099999999999909
 30
0.0
 11
7.5000000000000036
 21
49.099999999999909
 31
0.0
  0
ARC
  5
35F
100
AcDbEntity
  8
0
  6
CONTINUOUS
 62
               7
100
AcDbCircle
 10
7.5000000000000036
 20
47.499999999999886
 30
0.0
 40
1.6000000000000001
100
AcDbArc
 50
270.00000000000023
 51
89.999999999999844
  0
ARC
  5
360
100
AcDbEntity
  8
0
  6
CONTINUOUS
 62
               7
100
AcDbCircle
 10
14.500000000000004
 20
47.499999999999886
 30
0.0
 40
1.6000000000000001
100
AcDbArc
 50
89.999999999999815
 51
269.99999999999937
  0
LINE
  5
361
100
AcDbEntity
  8
0
  6
CONTINUOUS
 62
               7
100
AcDbLine
 10
6.0000000000000036
 20
70.999999999999886
 30
0.0
 11
6.0000000000000036
 21
53.499999999999886
 31
0.0
  0
LINE
  5
362
100
AcDbEntity
  8
0
  6
CENTER
 62
               2
100
AcDbLine
 10
13.500000000000004
 20
49.249999999999886
 30
0.0
 11
8.5000000000000036
 21
49.249999999999886
 31
0.0
  0
LINE
  5
363
100
AcDbEntity
  8
0
  6
CONTINUOUS
 62
               7
100
AcDbLine
 10
16.000000000000004
 20
70.999999999999886
 30
0.0
 11
16.000000000000004
 21
53.499999999999886
 31
0.0
  0
CIRCLE
  5
364
100
AcDbEntity
  8
0
  6
CONTINUOUS
 62
               7
100
AcDbCircle
 10
11.000000000000004
 20
49.249999999999886
 30
0.0
 40
1.9000000000000001
  0
LINE
  5
365
100
AcDbEntity
  8
0
  6
CONTINUOUS
 62
               7
100
AcDbLine
 10
6.0000000000000036
 20
70.999999999999886
 30
0.0
 11
16.000000000000004
 21
70.999999999999886
 31
0.0
  0
LINE
  5
366
100
AcDbEntity
  8
0
  6
CONTINUOUS
 62
               7
100
AcDbLine
 10
16.000000003323809
 20
53.499999999999886
 30
0.0
 11
6.0000000033238088
 21
53.499999999999886
 31
0.0
  0
CIRCLE
  5
367
100
AcDbEntity
  8
0
  6
CONTINUOUS
 62
               7
100
AcDbCircle
 10
8.0999999999999979
 20
57.699999832063838
 30
0.0
 40
0.875
  0
CIRCLE
  5
368
100
AcDbEntity
  8
0
  6
CONTINUOUS
 62
               7
100
AcDbCircle
 10
13.899999999999995
 20
57.699999999999875
 30
0.0
 40
0.875
  0
LINE
  5
369
100
AcDbEntity
  8
0
  6
CONTINUOUS
 62
               7
100
AcDbLine
 10
12.500000000000004
 20
65.999999999999886
 30
0.0
 11
12.500000000000004
 21
70.999999999999886
 31
0.0
  0
LINE
  5
36A
100
AcDbEntity
  8
0
  6
CONTINUOUS
 62
               7
100
AcDbLine
 10
9.5000000000000036
 20
65.999999999999886
 30
0.0
 11
9.5000000000000036
 21
70.999999999999886
 31
0.0
  0
LINE
  5
36B
100
AcDbEntity
  8
0
  6
CONTINUOUS
 62
               7
100
AcDbLine
 10
9.5000000000000036
 20
65.999999999999886
 30
0.0
 11
12.500000000000004
 21
65.999999999999886
 31
0.0
  0
ARC
  5
36C
100
AcDbEntity
  8
0
  6
CONTINUOUS
 62
               7
100
AcDbCircle
 10
13.899999999999995
 20
57.699999999999875
 30
0.0
 40
2.0000000881710069
100
AcDbArc
 50
270.00000000000023
 51
89.999999999999844
  0
ARC
  5
36D
100
AcDbEntity
  8
0
  6
CONTINUOUS
 62
               7
100
AcDbCircle
 10
8.0999999999999979
 20
57.699999999999875
 30
0.0
 40
2.0000000881710069
100
AcDbArc
 50
89.999999999999815
 51
269.99999999999937
  0
LINE
  5
36E
100
AcDbEntity
  8
0
  6
CONTINUOUS
 62
               7
100
AcDbLine
 10
13.899999999999995
 20
55.699999999999875
 30
0.0
 11
8.0999999999999979
 21
55.699999999999875
 31
0.0
  0
LINE
  5
36F
100
AcDbEntity
  8
0
  6
CONTINUOUS
 62
               7
100
AcDbLine
 10
13.899999999999995
 20
59.699999999999875
 30
0.0
 11
8.0999999999999979
 21
59.699999999999875
 31
0.0
  0
LINE
  5
370
100
AcDbEntity
  8
0
  6
CONTINUOUS
 62
               7
100
AcDbLine
 10
12.825513626352876
 20
48.949999999999875
 30
0.0
 11
9.1744863736471309
 21
48.949999999999875
 31
0.0
  0
LINE
  5
371
100
AcDbEntity
  8
0
  6
CONTINUOUS
 62
               7
100
AcDbLine
 10
12.825513626352869
 20
49.549999999999898
 30
0.0
 11
9.1744863736471309
 21
49.549999999999898
 31
0.0
  0
CIRCLE
  5
372
100
AcDbEntity
  8
0
  6
CONTINUOUS
 62
               7
100
AcDbCircle
 10
11.000000000000004
 20
49.249999999999886
 30
0.0
 40
1.8500000000000001
  0
ARC
  5
373
100
AcDbEntity
  8
0
  6
CONTINUOUS
 62
               7
100
AcDbCircle
 10
11.000000000000004
 20
49.249999999999886
 30
0.0
 40
0.8
100
AcDbArc
 50
22.024312837042132
 51
157.97568716295751
  0
ARC
  5
374
100
AcDbEntity
  8
0
  6
CONTINUOUS
 62
               7
100
AcDbCircle
 10
11.000000000000004
 20
49.249999999999886
 30
0.0
 40
0.8
100
AcDbArc
 50
202.02431283704175
 51
337.97568716295712
  0
CIRCLE
  5
375
100
AcDbEntity
  8
0
  6
CONTINUOUS
 62
               7
100
AcDbCircle
 10
7.5000000000000036
 20
47.499999999999886
 30
0.0
 40
1.5
  0
LINE
  5
376
100
AcDbEntity
  8
0
  6
CONTINUOUS
 62
               7
100
AcDbLine
 10
6.7928932188134503
 20
46.792893218813333
 30
0.0
 11
8.2071067811865568
 21
48.20710678118644
 31
0.0
  0
LINE
  5
377
100
AcDbEntity
  8
0
  6
CONTINUOUS
 62
               7
100
AcDbLine
 10
6.7928932188134503
 20
48.20710678118644
 30
0.0
 11
8.2071067811865568
 21
46.792893218813333
 31
0.0
  0
LINE
  5
378
100
AcDbEntity
  8
0
  6
CONTINUOUS
 62
               7
100
AcDbLine
 10
15.207106781186557
 20
48.20710678118644
 30
0.0
 11
13.79289321881345
 21
46.792893218813333
 31
0.0
  0
LINE
  5
379
100
AcDbEntity
  8
0
  6
CONTINUOUS
 62
               7
100
AcDbLine
 10
15.207106781186557
 20
46.792893218813333
 30
0.0
 11
13.79289321881345
 21
48.20710678118644
 31
0.0
  0
CIRCLE
  5
37A
100
AcDbEntity
  8
0
  6
CONTINUOUS
 62
               7
100
AcDbCircle
 10
14.500000000000004
 20
47.499999999999886
 30
0.0
 40
1.5
  0
LINE
  5
37B
100
AcDbEntity
  8
0
  6
CONTINUOUS
 62
               7
100
AcDbLine
 10
16.000000000000004
 20
38.999999999999886
 30
0.0
 11
6.0000000000000036
 21
38.999999999999886
 31
0.0
  0
LINE
  5
37C
100
AcDbEntity
  8
0
  6
CONTINUOUS
 62
               7
100
AcDbLine
 10
6.0000000000000036
 20
21.5
 30
0.0
 11
6.0000000000000036
 21
53.499999999999886
 31
0.0
  0
LINE
  5
37D
100
AcDbEntity
  8
0
  6
CONTINUOUS
 62
               7
100
AcDbLine
 10
16.000000000000004
 20
21.5
 30
0.0
 11
16.000000000000004
 21
53.499999999999886
 31
0.0
  0
ENDBLK
  5
37E
100
AcDbEntity
  8
0
100
AcDbBlockEnd
  0
BLOCK
  5
390
100
AcDbEntity
  8
0
  6
ByBlock
 62
               0
100
AcDbBlockBegin
  2
_OPEN30
 70
               2
 10
0.0
 20
0.0
 30
0.0
  3
_OPEN30
  1

  0
LINE
  5
391
100
AcDbEntity
  8
0
  6
ByBlock
 62
               0
100
AcDbLine
 10
-1.0
 20
0.267949
 30
0.0
 11
0.0
 21
0.0
 31
0.0
  0
LINE
  5
392
100
AcDbEntity
  8
0
  6
ByBlock
 62
               0
100
AcDbLine
 10
0.0
 20
0.0
 30
0.0
 11
-1.0
 21
-0.267949
 31
0.0
  0
LINE
  5
393
100
AcDbEntity
  8
0
  6
ByBlock
 62
               0
100
AcDbLine
 10
0.0
 20
0.0
 30
0.0
 11
-1.0
 21
0.0
 31
0.0
  0
ENDBLK
  5
394
100
AcDbEntity
  8
0
  6
ByBlock
 62
               0
100
AcDbBlockEnd
  0
ENDSEC
  0
SECTION
  2
ENTITIES
  0
INSERT
  5
37F
100
AcDbEntity
  8
0
  6
ByBlock
100
AcDbBlockReference
  2
MV090-01-1
 10
-158.36835826768566
 20
-24.256673711046062
 30
0.0
  0
INSERT
  5
380
100
AcDbEntity
  8
0
  6
ByBlock
100
AcDbBlockReference
  2
MV090-01-2
 10
-120.70925377909649
 20
-24.256673711046062
 30
0.0
  0
INSERT
  5
381
100
AcDbEntity
  8
0
  6
ByBlock
100
AcDbBlockReference
  2
MV090-01-3
 10
-20.970087965973875
 20
-24.256673711046062
 30
0.0
  0
INSERT
  5
382
100
AcDbEntity
  8
0
  6
ByBlock
100
AcDbBlockReference
  2
MV090-01-4
 10
53.290746220903515
 20
-24.256673711046062
 30
0.0
  0
INSERT
  5
383
100
AcDbEntity
  8
0
  6
ByBlock
100
AcDbBlockReference
  2
MV090-01-5
 10
154.80000305175781
 20
-24.256673711046062
 30
0.0
  0
LINE
  5
384
100
AcDbEntity
  8
0
  6
CONTINUOUS
 62
               7
100
AcDbLine
 10
-109.25
 20
132.60000610351562
 30
0.0
 11
-109.25
 21
117.60000610351562
 31
0.0
  0
LINE
  5
385
100
AcDbEntity
  8
0
  6
CONTINUOUS
 62
               7
100
AcDbLine
 10
-194.25
 20
117.60000610351562
 30
0.0
 11
-109.25
 21
117.60000610351562
 31
0.0
  0
LINE
  5
386
100
AcDbEntity
  8
0
  6
CONTINUOUS
 62
               7
100
AcDbLine
 10
109.80000305175781
 20
117.60000610351562
 30
0.0
 11
194.80000305175781
 21
117.60000610351562
 31
0.0
  0
LINE
  5
387
100
AcDbEntity
  8
0
  6
CONTINUOUS
 62
               7
100
AcDbLine
 10
109.80000305175781
 20
132.60000610351562
 30
0.0
 11
109.80000305175781
 21
117.60000610351562
 31
0.0
  0
LINE
  5
388
100
AcDbEntity
  8
0
  6
CONTINUOUS
 62
               7
100
AcDbLine
 10
109.80000305175781
 20
-118.5
 30
0.0
 11
194.80000305175781
 21
-118.5
 31
0.0
  0
LINE
  5
389
100
AcDbEntity
  8
0
  6
CONTINUOUS
 62
               7
100
AcDbLine
 10
109.80000305175781
 20
-118.5
 30
0.0
 11
109.80000305175781
 21
-133.5
 31
0.0
  0
LINE
  5
38A
100
AcDbEntity
  8
0
  6
CONTINUOUS
 62
               7
100
AcDbLine
 10
-194.25
 20
-133.5
 30
0.0
 11
194.80000305175781
 21
-133.5
 31
0.0
  0
LINE
  5
38B
100
AcDbEntity
  8
0
  6
CONTINUOUS
 62
               7
100
AcDbLine
 10
-194.25
 20
132.60000610351562
 30
0.0
 11
-194.25
 21
-133.5
 31
0.0
  0
LINE
  5
38C
100
AcDbEntity
  8
0
  6
CONTINUOUS
 62
               7
100
AcDbLine
 10
194.80000305175781
 20
132.60000610351562
 30
0.0
 11
194.80000305175781
 21
-133.5
 31
0.0
  0
LINE
  5
38D
100
AcDbEntity
  8
0
  6
CONTINUOUS
 62
               7
100
AcDbLine
 10
-194.25
 20
132.60000610351562
 30
0.0
 11
194.80000305175781
 21
132.60000610351562
 31
0.0
  0
MTEXT
  5
38E
100
AcDbEntity
  8
0
  6
CONTINUOUS
 62
               2
100
AcDbMText
 10
-154.57079336776425
 20
15.88995686888336
 30
0.0
 40
4.5
 41
0.0
 71
               4
 72
               1
  1
\A1;MV-21
  0
LEADER
  5
395
100
AcDbEntity
  8
0
  6
CONTINUOUS
 62
               2
100
AcDbLeader
  3
MXDIMSTYLE
 73
               3
 74
               0
 75
               0
 40
0.0
 76
               3
 10
-162.76835826768567
 20
-1.7566737110460622
 30
0.0
 10
-155.26835826768567
 20
11.233707345720518
 30
0.0
 10
-132.07079336776425
 20
11.233707345720518
 30
0.0
 77
               2
1001
ACAD
1000
DSTYLE
1002
{
1070
               6
1000
_OPEN30
1070
               7
1000
_OPEN30
1070
              41
1040
2.77
1070
             173
1070
               1
1070
             341
1005
38F
1002
}
  0
MTEXT
  5
396
100
AcDbEntity
  8
0
  6
CONTINUOUS
 62
               7
100
AcDbMText
 10
54.695959253214056
 20
99.600006103515625
 30
0.0
 40
4.5
 41
0.0
 71
               4
 72
               1
  1
\W1.021;\A1;MV090-02
  0
MTEXT
  5
397
100
AcDbEntity
  8
0
  6
CONTINUOUS
 62
               7
100
AcDbMText
 10
54.695959253214056
 20
91.600006103515625
 30
0.0
 40
4.5
 41
0.0
 71
               4
 72
               1
  1
\W1.021;\A1;MV090-03
  0
MTEXT
  5
398
100
AcDbEntity
  8
0
  6
CONTINUOUS
 62
               7
100
AcDbMText
 10
54.695959253214056
 20
83.600006103515625
 30
0.0
 40
4.5
 41
0.0
 71
               4
 72
               1
  1
\W1.021;\A1;MV090-04
  0
MTEXT
  5
399
100
AcDbEntity
  8
0
  6
CONTINUOUS
 62
               7
100
AcDbMText
 10
27.748183639841884
 20
107.60000610351562
 30
0.0
 40
4.5
 41
0.0
 71
               4
 72
               1
  1
\W1.091;\A1;MODEL:MV090-01
  0
MTEXT
  5
39A
100
AcDbEntity
  8
0
  6
CONTINUOUS
 62
               7
100
AcDbMText
 10
-158.7058823551688
 20
83.600006103515625
 30
0.0
 40
4.5
 41
0.0
 71
               4
 72
               1
  1
\W1.059;\A1;MV090-04-PL(ML)
  0
MTEXT
  5
39B
100
AcDbEntity
  8
0
  6
CONTINUOUS
 62
               7
100
AcDbMText
 10
-158.7058823551688
 20
91.600006103515625
 30
0.0
 40
4.5
 41
0.0
 71
               4
 72
               1
  1
\W1.059;\A1;MV090-03-PL(ML)
  0
MTEXT
  5
39C
100
AcDbEntity
  8
0
  6
CONTINUOUS
 62
               7
100
AcDbMText
 10
-158.7058823551688
 20
99.600006103515625
 30
0.0
 40
4.5
 41
0.0
 71
               4
 72
               1
  1
\W1.059;\A1;MV090-02-PL(ML)
  0
MTEXT
  5
39D
100
AcDbEntity
  8
0
  6
CONTINUOUS
 62
               1
100
AcDbMText
 10
-189.24406324130686
 20
125.10000610351562
 30
0.0
 40
4.5
 41
0.0
 71
               4
 72
               1
  1
\W1.008;\A1;VACUUM VALVE UNIT
  0
MTEXT
  5
39E
100
AcDbEntity
  8
0
  6
CONTINUOUS
 62
               7
100
AcDbMText
 10
-185.6782603125047
 20
107.60000610351562
 30
0.0
 40
4.5
 41
0.0
 71
               4
 72
               1
  1
\W1.096;\A1;MODEL:MV090-01-PL(ML)
  0
MTEXT
  5
39F
100
AcDbEntity
  8
0
  6
CONTINUOUS
 62
               7
100
AcDbMText
 10
135.31124253717977
 20
125.10000610351562
 30
0.0
 40
4.5
 41
0.0
 71
               4
 72
               1
  1
\W1.348;\A1;Ver. 1.1
  0
MTEXT
  5
3A0
100
AcDbEntity
  8
0
  6
CONTINUOUS
 62
               7
100
AcDbMText
 10
115.52672595002113
 20
-126.0
 30
0.0
 40
6.3000001907348633
 41
0.0
 71
               4
 72
               1
  1
\W1.121;\A1;KOGANEI CORP.
  0
LINE
  5
3A1
100
AcDbEntity
  8
0
  6
DASHED
 62
               2
100
AcDbLine
 10
19.18000183105471
 20
-133.5
 30
0.0
 11
19.18000183105471
 21
132.60000610351562
 31
0.0
  0
ENDSEC
  0
SECTION
  2
OBJECTS
  0
DICTIONARY
  5
19
100
AcDbDictionary
  3
ACAD_GROUP
350
1A
  3
ACAD_MLINESTYLE
350
1B
  0
DICTIONARY
  5
1A
102
{ACAD_REACTORS
330
19
102
}
100
AcDbDictionary
  0
DICTIONARY
  5
1B
102
{ACAD_REACTORS
330
19
102
}
100
AcDbDictionary
  3
STANDARD
350
1C
  0
MLINESTYLE
  5
1C
102
{ACAD_REACTORS
330
1B
102
}
100
AcDbMlineStyle
  2
Standard
 70
               0
  3

 62
               0
 51
90.0
 52
90.0
 71
               2
 49
0.5
 62
             256
  6
ByLayer
 49
-0.5
 62
             256
  6
ByLayer
  0
ENDSEC
  0
EOF
