  0
SECTION
  2
HEADER
  9
$ACADVER
  1
AC1003
  9
$EXTMIN
 10
-3.99250000E+02
 20
-2.76750000E+02
  9
$EXTMAX
 10
3.99799805E+02
 20
2.76250000E+02
  9
$LIMMIN
 10
-3.99251000E+02
 20
-2.76751000E+02
  9
$LIMMAX
 10
3.99800805E+02
 20
2.76251000E+02
  9
$SNAPUNIT
 10
1
 20
1
  9
$SNAPBASE
 10
0
 20
0
  9
$GRIDMODE
 70
0
  9
$GRIDUNIT
 10
0
 20
0
  9
$LTSCALE
 40
1.33174967E+01
  9
$TEXTSIZE
 40
3.2
  9
$DIMTAD
 70
0
  9
$LUNITS
 70
2
  9
$LUPREC
 70
4
  9
$FILLETRAD
 40
0
  9
$AUNITS
 70
0
  9
$AUPREC
 70
0
  0
ENDSEC
  0
SECTION
  2
TABLES
  0
TABLE
  2
LTYPE
 70
2
  0
LTYPE
  2
CONTINUOUS
 70
64
  3
Solid-Line
 72
65
 73
0
 40
0
  0
LTYPE
  2
DASHED
 70
64
  3
DASHED
 72
65
 73
2
 40
.75
 49
.5
 49
-.25
  0
LTYPE
  2
HIDDEN
 70
64
  3
HIDDEN
 72
65
 73
2
 40
.375
 49
.25
 49
-.125
  0
LTYPE
  2
CENTER
 70
64
  3
CENTER
 72
65
 73
4
 40
2
 49
1.25
 49
-.25
 49
.25
 49
-.25
  0
LTYPE
  2
PHANTOM
 70
64
  3
PHANTOM
 72
65
 73
6
 40
2.5
 49
1.25
 49
-.25
 49
.25
 49
-.25
 49
.25
 49
-.25
  0
ENDTAB
  0
TABLE
  2
LAYER
 70
1
  0
LAYER
  2
0
 70
0
 62
3
  6
CONTINUOUS
 0
ENDTAB
  0
TABLE
  2
STYLE
 70
2
  0
STYLE
  2
MONOTXT
 70
0
 40
0
 41
1
 50
0
 71
0
 42
.2
  3
monotxt
  0
STYLE
  2
BIGFONT
 70
0
 40
0
 41
1
 50
0
 71
0
 42
.2
  3
txt
  4
bigfont
  0
ENDTAB
  0
ENDSEC
  0
SECTION
  2
ENTITIES
  0
LINE
  8
0
  6
PHANTOM
 10
-8.76713280E-01
 20
1.75243159E+02
 11
-8.76713280E-01
 21
-6.39102767E+01
  0
LINE
  8
0
  6
CENTER
 62
6
 10
-1.04876713E+02
 20
-1.02963046E+01
 11
-1.04876713E+02
 21
-5.64630462E+00
  0
LINE
  8
0
 62
4
 10
-1.06126713E+02
 20
-9.99630462E+00
 11
-1.06126713E+02
 21
-9.49630462E+00
  0
LINE
  8
0
 62
6
 10
-1.05906713E+02
 20
-9.99630462E+00
 11
-1.05906713E+02
 21
-9.49630462E+00
  0
LINE
  8
0
 62
6
 10
-1.03856713E+02
 20
-9.99630462E+00
 11
-1.03856713E+02
 21
-9.49630462E+00
  0
LINE
  8
0
 62
4
 10
-1.03626713E+02
 20
-9.99630462E+00
 11
-1.03626713E+02
 21
-9.49630462E+00
  0
LINE
  8
0
 62
4
 10
-1.06126713E+02
 20
-9.99630462E+00
 11
-1.03626713E+02
 21
-9.99630462E+00
  0
LINE
  8
0
  6
CENTER
 62
6
 10
9.51232867E+01
 20
-1.02963046E+01
 11
9.51232867E+01
 21
-5.64630462E+00
  0
LINE
  8
0
 62
4
 10
9.38732867E+01
 20
-9.99630462E+00
 11
9.38732867E+01
 21
-9.49630462E+00
  0
LINE
  8
0
 62
6
 10
9.40932867E+01
 20
-9.99630462E+00
 11
9.40932867E+01
 21
-9.49630462E+00
  0
LINE
  8
0
 62
6
 10
9.61432867E+01
 20
-9.99630462E+00
 11
9.61432867E+01
 21
-9.49630462E+00
  0
LINE
  8
0
 62
4
 10
9.63732867E+01
 20
-9.99630462E+00
 11
9.63732867E+01
 21
-9.49630462E+00
  0
LINE
  8
0
 62
4
 10
9.38732867E+01
 20
-9.99630462E+00
 11
9.63732867E+01
 21
-9.99630462E+00
  0
LINE
  8
0
  6
CENTER
 62
2
 10
-1.00876713E+02
 20
1.59948020E+02
 11
-1.00876713E+02
 21
-1.44963046E+01
  0
LINE
  8
0
 62
7
 10
-1.75876713E+02
 20
1.49503695E+02
 11
-1.75876713E+02
 21
-8.49630462E+00
  0
LINE
  8
0
 62
7
 10
-2.58767133E+01
 20
1.49503695E+02
 11
-2.58767133E+01
 21
-8.49630462E+00
  0
LINE
  8
0
 62
7
 10
-2.06876713E+02
 20
1.50503695E+02
 11
-2.06876713E+02
 21
-9.49630462E+00
  0
LINE
  8
0
  6
CENTER
 62
2
 10
-2.75215892E+01
 20
1.26503695E+02
 11
-1.74370582E+02
 21
1.26503695E+02
  0
LINE
  8
0
 62
7
 10
-2.05876713E+02
 20
1.28036984E+01
 11
-2.06876713E+02
 21
1.28036984E+01
  0
LINE
  8
0
 62
7
 10
-2.05876713E+02
 20
1.62036923E+01
 11
-2.06876713E+02
 21
1.62036923E+01
  0
LINE
  8
0
  6
CENTER
 62
2
 10
9.91232867E+01
 20
1.59948020E+02
 11
9.91232867E+01
 21
-1.44963046E+01
  0
LINE
  8
0
 62
7
 10
1.79123287E+02
 20
8.85036954E+01
 11
-2.58767133E+01
 21
8.85036954E+01
  0
LINE
  8
0
 62
7
 10
2.04123287E+02
 20
1.28036984E+01
 11
2.05123287E+02
 21
1.28036984E+01
  0
LINE
  8
0
 62
7
 10
2.04123287E+02
 20
1.62036923E+01
 11
2.05123287E+02
 21
1.62036923E+01
  0
LINE
  8
0
 62
7
 10
2.04123287E+02
 20
2.20036954E+01
 11
2.04123287E+02
 21
7.00369538E+00
  0
LINE
  8
0
 62
2
 10
1.49623287E+02
 20
9.13036832E+01
 11
1.79123287E+02
 21
9.13036832E+01
  0
LINE
  8
0
 62
2
 10
1.49623287E+02
 20
1.03703708E+02
 11
1.79123287E+02
 21
1.03703708E+02
  0
LINE
  8
0
 62
7
 10
1.33623298E+02
 20
9.92536922E+01
 11
1.33123287E+02
 21
9.87536808E+01
  0
LINE
  8
0
 62
7
 10
1.33623299E+02
 20
9.57537176E+01
 11
1.33123309E+02
 21
9.62537074E+01
  0
LINE
  8
0
 62
7
 10
1.33123287E+02
 20
9.62536954E+01
 11
1.33123287E+02
 21
9.87536954E+01
  0
LINE
  8
0
 62
7
 10
1.33623287E+02
 20
9.57536954E+01
 11
1.45123287E+02
 21
9.57536954E+01
  0
LINE
  8
0
 62
7
 10
1.33623287E+02
 20
9.92536954E+01
 11
1.45123287E+02
 21
9.92536954E+01
  0
LINE
  8
0
 62
7
 10
1.45123287E+02
 20
9.13036832E+01
 11
1.49623287E+02
 21
9.13036832E+01
  0
LINE
  8
0
 62
7
 10
1.49623306E+02
 20
1.03703716E+02
 11
1.50423290E+02
 21
1.04503700E+02
  0
LINE
  8
0
 62
7
 10
1.50423298E+02
 20
9.05037178E+01
 11
1.49623304E+02
 21
9.13037123E+01
  0
LINE
  8
0
 62
7
 10
1.49623287E+02
 20
9.13036832E+01
 11
1.49623287E+02
 21
1.03703708E+02
  0
LINE
  8
0
 62
7
 10
1.45123287E+02
 20
1.03703708E+02
 11
1.49623287E+02
 21
1.03703708E+02
  0
LINE
  8
0
 62
7
 10
1.50423275E+02
 20
1.04503695E+02
 11
1.79123287E+02
 21
1.04503695E+02
  0
LINE
  8
0
 62
7
 10
1.50423275E+02
 20
9.05036954E+01
 11
1.79123287E+02
 21
9.05036954E+01
  0
LINE
  8
0
  6
CENTER
 62
2
 10
1.28123287E+02
 20
9.75036954E+01
 11
2.29123287E+02
 21
9.75036954E+01
  0
LINE
  8
0
 62
7
 10
1.45123287E+02
 20
9.13036832E+01
 11
1.45123287E+02
 21
1.03703708E+02
  0
LINE
  8
0
 62
7
 10
-1.98876713E+02
 20
8.85036954E+01
 11
-1.98876713E+02
 21
8.25036954E+01
  0
LINE
  8
0
 62
7
 10
-1.88876713E+02
 20
8.85036954E+01
 11
-1.88876713E+02
 21
8.25036954E+01
  0
LINE
  8
0
 62
7
 10
-1.88876713E+02
 20
8.25036954E+01
 11
-1.98876713E+02
 21
8.25036954E+01
  0
LINE
  8
0
 62
7
 10
-1.80876713E+02
 20
8.85036954E+01
 11
-2.06876713E+02
 21
8.85036954E+01
  0
LINE
  8
0
 62
7
 10
-1.80876713E+02
 20
9.80036954E+01
 11
-2.06876713E+02
 21
9.80036954E+01
  0
LINE
  8
0
 62
7
 10
-1.80876713E+02
 20
9.70036954E+01
 11
-2.06876713E+02
 21
9.70036954E+01
  0
LINE
  8
0
 62
7
 10
-1.80876713E+02
 20
1.39003695E+02
 11
-1.80876713E+02
 21
8.75036954E+01
  0
LINE
  8
0
 62
7
 10
-1.90376703E+02
 20
1.10060322E+02
 11
-1.87876705E+02
 21
1.08616947E+02
  0
LINE
  8
0
 62
7
 10
-1.87876703E+02
 20
1.14390449E+02
 11
-1.85376705E+02
 21
1.12947074E+02
  0
LINE
  8
0
 62
7
 10
-1.90376696E+02
 20
1.12947070E+02
 11
-1.87876698E+02
 21
1.14390444E+02
  0
LINE
  8
0
 62
7
 10
-1.87876696E+02
 20
1.08616943E+02
 11
-1.85376698E+02
 21
1.10060317E+02
  0
LINE
  8
0
 62
7
 10
-1.85376713E+02
 20
1.12947055E+02
 11
-1.85376713E+02
 21
1.10060336E+02
  0
LINE
  8
0
 62
7
 10
-1.90376713E+02
 20
1.12947055E+02
 11
-1.90376713E+02
 21
1.10060336E+02
  0
LINE
  8
0
 62
7
 10
-1.99876708E+02
 20
1.08616936E+02
 11
-1.97376696E+02
 21
1.10060318E+02
  0
LINE
  8
0
 62
7
 10
-2.02376702E+02
 20
1.10060321E+02
 11
-1.99876704E+02
 21
1.08616947E+02
  0
LINE
  8
0
 62
7
 10
-1.97376713E+02
 20
1.12947055E+02
 11
-1.97376713E+02
 21
1.10060336E+02
  0
LINE
  8
0
 62
7
 10
-2.02376708E+02
 20
1.12947062E+02
 11
-1.99876696E+02
 21
1.14390445E+02
  0
LINE
  8
0
 62
7
 10
-1.99876702E+02
 20
1.14390448E+02
 11
-1.97376704E+02
 21
1.12947073E+02
  0
LINE
  8
0
 62
7
 10
-2.02376713E+02
 20
1.12947055E+02
 11
-2.02376713E+02
 21
1.10060336E+02
  0
LINE
  8
0
 62
7
 10
1.86123283E+02
 20
1.08616950E+02
 11
1.83623284E+02
 21
1.10060324E+02
  0
LINE
  8
0
 62
7
 10
1.95123287E+02
 20
9.80036954E+01
 11
1.95123287E+02
 21
9.70036954E+01
  0
LINE
  8
0
 62
7
 10
1.88623267E+02
 20
1.10060301E+02
 11
1.86123295E+02
 21
1.08616942E+02
  0
LINE
  8
0
 62
7
 10
1.98123281E+02
 20
1.08616950E+02
 11
1.95623283E+02
 21
1.10060325E+02
  0
LINE
  8
0
 62
7
 10
1.83623287E+02
 20
1.12947055E+02
 11
1.83623287E+02
 21
1.10060336E+02
  0
LINE
  8
0
 62
7
 10
1.88623283E+02
 20
1.12947076E+02
 11
1.86123284E+02
 21
1.14390451E+02
  0
LINE
  8
0
 62
7
 10
1.86123265E+02
 20
1.14390432E+02
 11
1.83623293E+02
 21
1.12947072E+02
  0
LINE
  8
0
 62
7
 10
1.89123287E+02
 20
9.80036954E+01
 11
1.89123287E+02
 21
9.70036954E+01
  0
LINE
  8
0
 62
7
 10
1.79123287E+02
 20
9.80036954E+01
 11
2.05123287E+02
 21
9.80036954E+01
  0
LINE
  8
0
 62
7
 10
1.79123287E+02
 20
9.70036954E+01
 11
2.05123287E+02
 21
9.70036954E+01
  0
LINE
  8
0
 62
7
 10
1.79123287E+02
 20
1.39003695E+02
 11
1.79123287E+02
 21
8.75036954E+01
  0
LINE
  8
0
 62
7
 10
2.00623237E+02
 20
1.10060289E+02
 11
1.98123265E+02
 21
1.08616930E+02
  0
LINE
  8
0
 62
7
 10
1.88623287E+02
 20
1.12947055E+02
 11
1.88623287E+02
 21
1.10060336E+02
  0
LINE
  8
0
 62
7
 10
1.95623287E+02
 20
1.12947055E+02
 11
1.95623287E+02
 21
1.10060336E+02
  0
LINE
  8
0
 62
7
 10
2.00623281E+02
 20
1.12947077E+02
 11
1.98123283E+02
 21
1.14390452E+02
  0
LINE
  8
0
 62
7
 10
1.98123239E+02
 20
1.14390413E+02
 11
1.95623267E+02
 21
1.12947053E+02
  0
LINE
  8
0
 62
7
 10
2.00623287E+02
 20
1.12947055E+02
 11
2.00623287E+02
 21
1.10060336E+02
  0
LINE
  8
0
 62
7
 10
-1.75876713E+02
 20
1.04503695E+02
 11
-1.80876713E+02
 21
1.04503695E+02
  0
LINE
  8
0
 62
2
 10
-1.75876713E+02
 20
1.03703708E+02
 11
-1.80876713E+02
 21
1.03703708E+02
  0
LINE
  8
0
 62
7
 10
-1.75876713E+02
 20
9.05036954E+01
 11
-1.80876713E+02
 21
9.05036954E+01
  0
LINE
  8
0
 62
2
 10
-1.75876713E+02
 20
9.13036832E+01
 11
-1.80876713E+02
 21
9.13036832E+01
  0
LINE
  8
0
  6
CENTER
 62
2
 10
-2.03876713E+02
 20
1.28503695E+02
 11
-2.27876713E+02
 21
1.28503695E+02
  0
LINE
  8
0
  6
CENTER
 62
2
 10
-2.15876713E+02
 20
1.40503695E+02
 11
-2.15876713E+02
 21
1.16503695E+02
  0
LINE
  8
0
  6
CENTER
 62
2
 10
-2.03876713E+02
 20
1.25036954E+01
 11
-2.27876713E+02
 21
1.25036954E+01
  0
LINE
  8
0
  6
CENTER
 62
2
 10
-2.15876713E+02
 20
2.45036954E+01
 11
-2.15876713E+02
 21
5.03695383E-01
  0
LINE
  8
0
 62
7
 10
-2.25876713E+02
 20
1.44503695E+02
 11
-2.25876713E+02
 21
-3.49630462E+00
  0
LINE
  8
0
 62
7
 10
2.24123287E+02
 20
1.44503695E+02
 11
2.24123287E+02
 21
-3.49630462E+00
  0
LINE
  8
0
  6
CENTER
 62
2
 10
2.14123287E+02
 20
1.40503695E+02
 11
2.14123287E+02
 21
1.16503695E+02
  0
LINE
  8
0
  6
CENTER
 62
2
 10
2.14123287E+02
 20
2.45036954E+01
 11
2.14123287E+02
 21
5.03695383E-01
  0
LINE
  8
0
  6
CENTER
 62
2
 10
2.02123287E+02
 20
1.25036954E+01
 11
2.26123287E+02
 21
1.25036954E+01
  0
LINE
  8
0
  6
CENTER
 62
2
 10
2.02123287E+02
 20
1.28503695E+02
 11
2.26123287E+02
 21
1.28503695E+02
  0
LINE
  8
0
 62
7
 10
-2.58767133E+01
 20
1.19003695E+02
 11
1.79123287E+02
 21
1.19003695E+02
  0
LINE
  8
0
 62
7
 10
-2.58767133E+01
 20
1.34003695E+02
 11
1.79123287E+02
 21
1.34003695E+02
  0
LINE
  8
0
 62
7
 10
-1.80876713E+02
 20
1.39003695E+02
 11
-2.06876713E+02
 21
1.39003695E+02
  0
LINE
  8
0
 62
7
 10
-1.80876713E+02
 20
1.34003695E+02
 11
-1.75876713E+02
 21
1.34003695E+02
  0
LINE
  8
0
 62
7
 10
-1.80876713E+02
 20
1.19003695E+02
 11
-1.75876713E+02
 21
1.19003695E+02
  0
LINE
  8
0
 62
7
 10
-2.58767133E+01
 20
2.20036954E+01
 11
2.04123287E+02
 21
2.20036954E+01
  0
LINE
  8
0
 62
7
 10
-2.58767133E+01
 20
7.00369538E+00
 11
2.04123287E+02
 21
7.00369538E+00
  0
LINE
  8
0
 62
7
 10
-2.05876713E+02
 20
7.00369538E+00
 11
-1.75876713E+02
 21
7.00369538E+00
  0
LINE
  8
0
 62
7
 10
-2.05876713E+02
 20
2.20036954E+01
 11
-1.75876713E+02
 21
2.20036954E+01
  0
LINE
  8
0
 62
7
 10
-2.05876713E+02
 20
2.20036954E+01
 11
-2.05876713E+02
 21
7.00369538E+00
  0
LINE
  8
0
 62
7
 10
-1.75876713E+02
 20
-8.49630462E+00
 11
-2.58767133E+01
 21
-8.49630462E+00
  0
LINE
  8
0
 62
7
 10
-1.75876713E+02
 20
1.49503695E+02
 11
-2.58767133E+01
 21
1.49503695E+02
  0
LINE
  8
0
 62
7
 10
-2.06876713E+02
 20
2.30036954E+01
 11
-1.75876713E+02
 21
2.30036954E+01
  0
LINE
  8
0
 62
7
 10
-2.06876713E+02
 20
3.15036954E+01
 11
-1.75876713E+02
 21
3.15036954E+01
  0
LINE
  8
0
 62
7
 10
-1.80876713E+02
 20
1.18003695E+02
 11
-1.75876713E+02
 21
1.18003695E+02
  0
LINE
  8
0
 62
7
 10
-2.58767133E+01
 20
1.18003695E+02
 11
1.79123287E+02
 21
1.18003695E+02
  0
LINE
  8
0
 62
7
 10
-2.58767133E+01
 20
3.15036954E+01
 11
2.05123287E+02
 21
3.15036954E+01
  0
LINE
  8
0
 62
7
 10
-1.80876713E+02
 20
8.85036954E+01
 11
-1.75876713E+02
 21
8.85036954E+01
  0
LINE
  8
0
 62
7
 10
-2.58767133E+01
 20
2.30036954E+01
 11
2.05123287E+02
 21
2.30036954E+01
  0
LINE
  8
0
 62
7
 10
-2.06876713E+02
 20
-9.49630462E+00
 11
2.05123287E+02
 21
-9.49630462E+00
  0
LINE
  8
0
 62
7
 10
-2.06876713E+02
 20
1.50503695E+02
 11
2.05123287E+02
 21
1.50503695E+02
  0
LINE
  8
0
 62
7
 10
1.97123287E+02
 20
8.85036954E+01
 11
1.97123287E+02
 21
8.25036954E+01
  0
LINE
  8
0
 62
7
 10
1.87123287E+02
 20
8.85036954E+01
 11
1.87123287E+02
 21
8.25036954E+01
  0
LINE
  8
0
 62
7
 10
1.87123287E+02
 20
8.25036954E+01
 11
1.97123287E+02
 21
8.25036954E+01
  0
LINE
  8
0
 62
7
 10
1.79123287E+02
 20
8.85036954E+01
 11
2.05123287E+02
 21
8.85036954E+01
  0
LINE
  8
0
 62
7
 10
1.79123287E+02
 20
1.39003695E+02
 11
2.05123287E+02
 21
1.39003695E+02
  0
LINE
  8
0
 62
7
 10
-2.25876713E+02
 20
1.44503695E+02
 11
-2.06876713E+02
 21
1.44503695E+02
  0
LINE
  8
0
 62
7
 10
-2.25876713E+02
 20
-3.49630462E+00
 11
-2.06876713E+02
 21
-3.49630462E+00
  0
LINE
  8
0
 62
7
 10
2.05123287E+02
 20
1.44503695E+02
 11
2.24123287E+02
 21
1.44503695E+02
  0
LINE
  8
0
 62
7
 10
2.05123287E+02
 20
-3.49630462E+00
 11
2.24123287E+02
 21
-3.49630462E+00
  0
LINE
  8
0
  6
DASHED
 62
2
 10
2.17123287E+02
 20
1.60036954E+01
 11
2.17123287E+02
 21
1.58577908E+01
  0
LINE
  8
0
 62
7
 10
-1.80876713E+02
 20
8.75036954E+01
 11
-1.88876713E+02
 21
8.75036954E+01
  0
LINE
  8
0
 62
7
 10
-1.98876713E+02
 20
8.75036954E+01
 11
-2.06876713E+02
 21
8.75036954E+01
  0
LINE
  8
0
 62
7
 10
2.05123287E+02
 20
1.50503695E+02
 11
2.05123287E+02
 21
-9.49630462E+00
  0
LINE
  8
0
 62
7
 10
-2.06876713E+02
 20
1.44503695E+02
 11
-1.75876713E+02
 21
1.44503695E+02
  0
LINE
  8
0
 62
7
 10
-2.06876713E+02
 20
1.40003695E+02
 11
-1.75876713E+02
 21
1.40003695E+02
  0
LINE
  8
0
 62
7
 10
-2.58767133E+01
 20
1.44503695E+02
 11
2.05123287E+02
 21
1.44503695E+02
  0
LINE
  8
0
 62
7
 10
-2.58767133E+01
 20
1.40003695E+02
 11
2.05123287E+02
 21
1.40003695E+02
  0
LINE
  8
0
 62
7
 10
-2.06876713E+02
 20
1.00369538E+00
 11
-1.75876713E+02
 21
1.00369538E+00
  0
LINE
  8
0
 62
7
 10
-2.06876713E+02
 20
-3.49630462E+00
 11
-1.75876713E+02
 21
-3.49630462E+00
  0
LINE
  8
0
 62
7
 10
-2.58767133E+01
 20
1.00369538E+00
 11
2.05123287E+02
 21
1.00369538E+00
  0
LINE
  8
0
 62
7
 10
-2.58767133E+01
 20
-3.49630462E+00
 11
2.05123287E+02
 21
-3.49630462E+00
  0
LINE
  8
0
 62
7
 10
-2.06876713E+02
 20
5.00369538E+00
 11
-1.75876713E+02
 21
5.00369538E+00
  0
LINE
  8
0
 62
7
 10
-2.58767133E+01
 20
5.00369538E+00
 11
2.05123287E+02
 21
5.00369538E+00
  0
LINE
  8
0
 62
7
 10
-1.96876713E+02
 20
9.80036954E+01
 11
-1.96876713E+02
 21
9.70036954E+01
  0
LINE
  8
0
 62
7
 10
-1.90876713E+02
 20
9.80036954E+01
 11
-1.90876713E+02
 21
9.70036954E+01
  0
LINE
  8
0
 62
2
 10
-1.91376713E+02
 20
9.80036954E+01
 11
-1.91376713E+02
 21
9.70036954E+01
  0
LINE
  8
0
 62
2
 10
-1.96376713E+02
 20
9.80036954E+01
 11
-1.96376713E+02
 21
9.70036954E+01
  0
LINE
  8
0
 62
2
 10
1.94623287E+02
 20
9.80036954E+01
 11
1.94623287E+02
 21
9.70036954E+01
  0
LINE
  8
0
 62
2
 10
1.89623287E+02
 20
9.80036954E+01
 11
1.89623287E+02
 21
9.70036954E+01
  0
LINE
  8
0
  6
CENTER
 62
2
 10
-3.58767133E+01
 20
2.35036954E+01
 11
-3.58767133E+01
 21
5.50369538E+00
  0
LINE
  8
0
  6
CENTER
 62
2
 10
-1.65876713E+02
 20
2.35036954E+01
 11
-1.65876713E+02
 21
5.50369538E+00
  0
LINE
  8
0
  6
CENTER
 62
2
 10
-3.58767133E+01
 20
1.35503695E+02
 11
-3.58767133E+01
 21
1.17503695E+02
  0
LINE
  8
0
  6
CENTER
 62
2
 10
-1.65876713E+02
 20
1.35503695E+02
 11
-1.65876713E+02
 21
1.17503695E+02
  0
LINE
  8
0
 62
7
 10
-1.75876713E+02
 20
2.15037259E+01
 11
-2.58767133E+01
 21
2.15037259E+01
  0
LINE
  8
0
 62
7
 10
-1.75876713E+02
 20
1.19503695E+02
 11
-2.58767133E+01
 21
1.19503695E+02
  0
LINE
  8
0
 62
7
 10
2.05123287E+02
 20
7.37036923E+01
 11
-2.58767133E+01
 21
7.37036923E+01
  0
LINE
  8
0
 62
7
 10
2.05123287E+02
 20
4.73036984E+01
 11
-2.58767133E+01
 21
4.73036984E+01
  0
LINE
  8
0
 62
7
 10
-1.75876713E+02
 20
7.37036923E+01
 11
-2.06876713E+02
 21
7.37036923E+01
  0
LINE
  8
0
 62
7
 10
-1.75876713E+02
 20
4.73036984E+01
 11
-2.06876713E+02
 21
4.73036984E+01
  0
LINE
  8
0
 62
7
 10
1.97123287E+02
 20
8.75036954E+01
 11
2.05123287E+02
 21
8.75036954E+01
  0
LINE
  8
0
 62
7
 10
1.79123287E+02
 20
8.75036954E+01
 11
1.87123287E+02
 21
8.75036954E+01
  0
ARC
  8
0
 62
7
 10
-2.05376713E+02
 20
8.70036954E+01
 40
1.50000000E+00
 50
1.60528775E+02
 51
1.80000005E+02
  0
CIRCLE
  8
0
 62
7
 10
-1.99876713E+02
 20
1.11503695E+02
 40
5.50000000E+00
  0
CIRCLE
  8
0
 62
7
 10
-1.87876713E+02
 20
1.11503695E+02
 40
5.50000000E+00
  0
CIRCLE
  8
0
 62
7
 10
-1.87876713E+02
 20
1.11503695E+02
 40
5.00000000E+00
  0
CIRCLE
  8
0
 62
7
 10
-1.99876713E+02
 20
1.11503695E+02
 40
5.00000000E+00
  0
CIRCLE
  8
0
 62
7
 10
1.98123287E+02
 20
1.11503695E+02
 40
5.50000000E+00
  0
CIRCLE
  8
0
 62
7
 10
1.86123287E+02
 20
1.11503695E+02
 40
5.50000000E+00
  0
CIRCLE
  8
0
 62
7
 10
1.86123287E+02
 20
1.11503695E+02
 40
5.00000000E+00
  0
CIRCLE
  8
0
 62
7
 10
1.98123287E+02
 20
1.11503695E+02
 40
5.00000000E+00
  0
CIRCLE
  8
0
 62
4
 10
-1.65876713E+02
 20
1.45036954E+01
 40
3.40000010E+00
  0
CIRCLE
  8
0
 62
6
 10
-1.65876713E+02
 20
1.45036954E+01
 40
4.00000000E+00
  0
CIRCLE
  8
0
 62
4
 10
-3.58767133E+01
 20
1.45036954E+01
 40
3.40000010E+00
  0
CIRCLE
  8
0
 62
6
 10
-3.58767133E+01
 20
1.45036954E+01
 40
4.00000000E+00
  0
CIRCLE
  8
0
 62
6
 10
-3.58767133E+01
 20
1.26503695E+02
 40
4.00000000E+00
  0
CIRCLE
  8
0
 62
4
 10
-3.58767133E+01
 20
1.26503695E+02
 40
3.40000010E+00
  0
CIRCLE
  8
0
 62
6
 10
-1.65876713E+02
 20
1.26503695E+02
 40
4.00000000E+00
  0
CIRCLE
  8
0
 62
4
 10
-1.65876713E+02
 20
1.26503695E+02
 40
3.40000010E+00
  0
CIRCLE
  8
0
 62
7
 10
-2.15876713E+02
 20
1.28503695E+02
 40
7.00000000E+00
  0
CIRCLE
  8
0
 62
7
 10
-2.15876713E+02
 20
1.25036954E+01
 40
7.00000000E+00
  0
CIRCLE
  8
0
 62
7
 10
-2.15876713E+02
 20
1.28503695E+02
 40
4.50000000E+00
  0
CIRCLE
  8
0
 62
7
 10
-2.15876713E+02
 20
1.25036954E+01
 40
4.50000000E+00
  0
CIRCLE
  8
0
 62
7
 10
2.14123287E+02
 20
1.25036954E+01
 40
4.50000000E+00
  0
CIRCLE
  8
0
 62
7
 10
2.14123287E+02
 20
1.28503695E+02
 40
7.00000000E+00
  0
CIRCLE
  8
0
 62
7
 10
2.14123287E+02
 20
1.28503695E+02
 40
4.50000000E+00
  0
CIRCLE
  8
0
 62
7
 10
2.14123287E+02
 20
1.25036954E+01
 40
7.00000000E+00
  0
LINE
  8
0
  6
CENTER
 62
2
 10
-2.75215892E+01
 20
1.45036954E+01
 11
-1.74370582E+02
 21
1.45036954E+01
  0
LINE
  8
0
  6
CENTER
 62
2
 10
-9.31672947E+01
 20
1.25503695E+02
 11
-1.08728304E+02
 21
1.25503695E+02
  0
LINE
  8
0
  6
CENTER
 62
2
 10
-9.31672947E+01
 20
1.27503695E+02
 11
-1.08728304E+02
 21
1.27503695E+02
  0
ARC
  8
0
 62
4
 10
-1.00876713E+02
 20
1.27503695E+02
 40
4.00000000E+00
 50
0.00000000E+00
 51
1.80000000E+02
  0
ARC
  8
0
 62
4
 10
-1.00876713E+02
 20
1.25503695E+02
 40
4.00000000E+00
 50
1.80000000E+02
 51
0.00000000E+00
  0
LINE
  8
0
 62
4
 10
-9.68767133E+01
 20
1.27503695E+02
 11
-9.68767133E+01
 21
1.25503695E+02
  0
LINE
  8
0
 62
4
 10
-1.04876713E+02
 20
1.27503695E+02
 11
-1.04876713E+02
 21
1.25503695E+02
  0
CIRCLE
  8
0
 62
4
 10
-1.00876713E+02
 20
1.45036954E+01
 40
4.00000000E+00
  0
LINE
  8
0
 62
7
 10
1.33623302E+02
 20
9.92536954E+01
 11
1.33623302E+02
 21
9.57536954E+01
  0
ARC
  8
0
 62
4
 10
-3.03001598E+02
 20
-7.09630309E+00
 40
1.30000000E+00
 50
2.40000000E+02
 51
2.70000000E+02
  0
ARC
  8
0
 62
4
 10
-3.05083925E+02
 20
-8.89629241E+00
 40
1.30000000E+00
 50
5.99999994E+01
 51
9.00000002E+01
  0
ARC
  8
0
 62
4
 10
-3.02304930E+02
 20
-4.49630309E+00
 40
1.30000000E+00
 50
2.40000000E+02
 51
2.70000000E+02
  0
ARC
  8
0
 62
4
 10
-3.04387257E+02
 20
-6.29629241E+00
 40
1.30000000E+00
 50
5.99999994E+01
 51
9.00000002E+01
  0
LINE
  8
0
 62
4
 10
-3.05083925E+02
 20
-7.59629241E+00
 11
-3.06376713E+02
 21
-7.59629241E+00
  0
LINE
  8
0
 62
4
 10
-3.04387257E+02
 20
-4.99629241E+00
 11
-3.06376713E+02
 21
-4.99629241E+00
  0
LINE
  8
0
 62
4
 10
-3.02954930E+02
 20
-5.62213611E+00
 11
-3.03737257E+02
 21
-5.17045939E+00
  0
LINE
  8
0
 62
4
 10
-3.03651598E+02
 20
-8.22213611E+00
 11
-3.04433925E+02
 21
-7.77045939E+00
  0
LINE
  8
0
 62
4
 10
-3.01826707E+02
 20
-8.39630309E+00
 11
-3.03001598E+02
 21
-8.39630309E+00
  0
LINE
  8
0
 62
4
 10
-3.01473761E+02
 20
-5.79630309E+00
 11
-3.02304930E+02
 21
-5.79630309E+00
  0
LINE
  8
0
  6
CENTER
 62
2
 10
-3.54376713E+02
 20
1.25036954E+01
 11
-3.38376713E+02
 21
1.25036954E+01
  0
LINE
  8
0
  6
CENTER
 62
2
 10
-3.54376713E+02
 20
1.28503695E+02
 11
-3.38376713E+02
 21
1.28503695E+02
  0
CIRCLE
  8
0
 62
4
 10
-3.06376713E+02
 20
-6.29629241E+00
 40
1.30000000E+00
  0
LINE
  8
0
  6
CENTER
 62
6
 10
-2.99776707E+02
 20
-1.15463046E+01
 11
-2.99776707E+02
 21
-4.57630462E+00
  0
LINE
  8
0
 62
4
 10
-2.97726707E+02
 20
-8.49630462E+00
 11
-2.97726707E+02
 21
-6.94630462E+00
  0
LINE
  8
0
 62
4
 10
-2.97726707E+02
 20
-8.49630462E+00
 11
-2.98276707E+02
 21
-9.04630462E+00
  0
LINE
  8
0
 62
4
 10
-2.98276707E+02
 20
-9.49630462E+00
 11
-2.98276707E+02
 21
-9.04630462E+00
  0
LINE
  8
0
 62
4
 10
-2.98276707E+02
 20
-9.49630462E+00
 11
-3.01276707E+02
 21
-9.49630462E+00
  0
LINE
  8
0
 62
4
 10
-3.01276707E+02
 20
-9.49630462E+00
 11
-3.01276707E+02
 21
-9.04630462E+00
  0
LINE
  8
0
 62
4
 10
-3.01826707E+02
 20
-8.49630462E+00
 11
-3.01276707E+02
 21
-9.04630462E+00
  0
LINE
  8
0
 62
4
 10
-3.01826707E+02
 20
-8.49630462E+00
 11
-3.01826707E+02
 21
-6.94630462E+00
  0
LINE
  8
0
 62
4
 10
-2.97726707E+02
 20
-7.69630462E+00
 11
-3.01826707E+02
 21
-7.69630462E+00
  0
LINE
  8
0
 62
4
 10
-2.97726707E+02
 20
-6.90630462E+00
 11
-3.01826707E+02
 21
-6.90630462E+00
  0
LINE
  8
0
 62
4
 10
-2.98756707E+02
 20
-5.49630462E+00
 11
-3.00796707E+02
 21
-5.49630462E+00
  0
LINE
  8
0
 62
4
 10
-3.00796707E+02
 20
-5.49630462E+00
 11
-3.01026707E+02
 21
-5.72630462E+00
  0
LINE
  8
0
 62
4
 10
-2.98756707E+02
 20
-5.49630462E+00
 11
-2.98526707E+02
 21
-5.72630462E+00
  0
LINE
  8
0
 62
4
 10
-2.98526707E+02
 20
-6.90630462E+00
 11
-2.98526707E+02
 21
-5.72630462E+00
  0
LINE
  8
0
 62
6
 10
-2.98756707E+02
 20
-6.90630462E+00
 11
-2.98756707E+02
 21
-5.49630462E+00
  0
LINE
  8
0
 62
6
 10
-3.00796707E+02
 20
-6.90630462E+00
 11
-3.00796707E+02
 21
-5.49630462E+00
  0
LINE
  8
0
 62
4
 10
-3.01026707E+02
 20
-6.90630462E+00
 11
-3.01026707E+02
 21
-5.72630462E+00
  0
LINE
  8
0
 62
4
 10
-2.98526707E+02
 20
-5.72630462E+00
 11
-3.01026707E+02
 21
-5.72630462E+00
  0
LINE
  8
0
 62
4
 10
-2.98526707E+02
 20
-9.99630462E+00
 11
-2.98526707E+02
 21
-9.49630462E+00
  0
LINE
  8
0
 62
6
 10
-2.98756707E+02
 20
-9.99630462E+00
 11
-2.98756707E+02
 21
-9.49630462E+00
  0
LINE
  8
0
 62
6
 10
-3.00796707E+02
 20
-9.99630462E+00
 11
-3.00796707E+02
 21
-9.49630462E+00
  0
LINE
  8
0
 62
4
 10
-3.01026707E+02
 20
-9.99630462E+00
 11
-3.01026707E+02
 21
-9.49630462E+00
  0
LINE
  8
0
 62
4
 10
-2.98526707E+02
 20
-9.99630462E+00
 11
-3.01026707E+02
 21
-9.99630462E+00
  0
ARC
  8
0
 62
4
 10
-2.99776709E+02
 20
-6.94630691E+00
 40
2.05000229E+00
 50
6.39705167E-05
 51
9.00000002E+01
  0
ARC
  8
0
 62
4
 10
-2.99776705E+02
 20
-6.94630691E+00
 40
2.05000229E+00
 50
9.00000002E+01
 51
1.79999936E+02
  0
LINE
  8
0
 62
7
 10
-2.93876713E+02
 20
1.44503695E+02
 11
-2.93876713E+02
 21
1.49503695E+02
  0
LINE
  8
0
 62
7
 10
-2.77376718E+02
 20
2.25037262E+01
 11
-2.76376706E+02
 21
2.15037143E+01
  0
LINE
  8
0
 62
7
 10
-2.76376713E+02
 20
-8.49630462E+00
 11
-2.76376713E+02
 21
2.15036954E+01
  0
LINE
  8
0
 62
7
 10
-3.46376713E+02
 20
-3.49630462E+00
 11
-3.46376713E+02
 21
1.44503695E+02
  0
LINE
  8
0
 62
7
 10
-2.76376713E+02
 20
-8.49630462E+00
 11
-2.93876713E+02
 21
-8.49630462E+00
  0
LINE
  8
0
 62
7
 10
-2.76376713E+02
 20
1.49503695E+02
 11
-2.93876713E+02
 21
1.49503695E+02
  0
LINE
  8
0
 62
7
 10
-2.76376713E+02
 20
1.49503695E+02
 11
-2.76376713E+02
 21
1.19503695E+02
  0
LINE
  8
0
 62
7
 10
-2.76376705E+02
 20
1.19503690E+02
 11
-2.77376706E+02
 21
1.18503689E+02
  0
LINE
  8
0
 62
7
 10
-2.77376713E+02
 20
1.18503695E+02
 11
-2.77376713E+02
 21
2.25037259E+01
  0
LINE
  8
0
 62
7
 10
-2.93876713E+02
 20
-8.49630462E+00
 11
-2.93876713E+02
 21
-3.49630462E+00
  0
LINE
  8
0
 62
7
 10
-2.78376713E+02
 20
-3.49630462E+00
 11
-2.78376713E+02
 21
1.44503695E+02
  0
LINE
  8
0
  6
CENTER
 62
2
 10
-3.11376713E+02
 20
2.45036954E+01
 11
-3.31376713E+02
 21
2.45036954E+01
  0
LINE
  8
0
  6
CENTER
 62
2
 10
-3.21376713E+02
 20
3.45036954E+01
 11
-3.21376713E+02
 21
1.45036954E+01
  0
LINE
  8
0
 62
7
 10
-2.78376713E+02
 20
1.44503695E+02
 11
-3.46376713E+02
 21
1.44503695E+02
  0
LINE
  8
0
 62
7
 10
-2.96376713E+02
 20
-9.49630462E+00
 11
-2.98176701E+02
 21
-9.49630462E+00
  0
LINE
  8
0
 62
7
 10
-2.96376713E+02
 20
-6.99630462E+00
 11
-2.96376713E+02
 21
-9.49630462E+00
  0
LINE
  8
0
 62
7
 10
-3.02626451E+02
 20
-5.69631162E+00
 11
-3.04012097E+02
 21
-4.89630857E+00
  0
LINE
  8
0
 62
7
 10
-3.04510685E+02
 20
-8.99630462E+00
 11
-3.06576710E+02
 21
-8.99630462E+00
  0
LINE
  8
0
 62
7
 10
-3.01376713E+02
 20
-9.49630462E+00
 11
-3.03644658E+02
 21
-9.49630462E+00
  0
LINE
  8
0
 62
7
 10
-3.01876713E+02
 20
-8.49630462E+00
 11
-3.03376713E+02
 21
-8.49630462E+00
  0
LINE
  8
0
 62
7
 10
-3.01500065E+02
 20
-5.69630157E+00
 11
-3.02626454E+02
 21
-5.69630157E+00
  0
LINE
  8
0
 62
7
 10
-3.09076710E+02
 20
-4.99630462E+00
 11
-3.09076710E+02
 21
-6.49630462E+00
  0
LINE
  8
0
 62
7
 10
-2.97676701E+02
 20
-8.49630462E+00
 11
-2.97676701E+02
 21
-6.89629851E+00
  0
LINE
  8
0
 62
7
 10
-3.01876701E+02
 20
-8.49629593E+00
 11
-3.01376700E+02
 21
-8.99629646E+00
  0
LINE
  8
0
 62
7
 10
-3.03376709E+02
 20
-8.49631505E+00
 11
-3.04762341E+02
 21
-7.69631963E+00
  0
LINE
  8
0
 62
7
 10
-3.01376713E+02
 20
-8.99630462E+00
 11
-3.01376713E+02
 21
-9.49630462E+00
  0
LINE
  8
0
 62
7
 10
-3.03644662E+02
 20
-9.49631260E+00
 11
-3.04510688E+02
 21
-8.99631260E+00
  0
LINE
  8
0
 62
7
 10
-3.04012089E+02
 20
-4.89629851E+00
 11
-3.06376713E+02
 21
-4.89629851E+00
  0
LINE
  8
0
 62
7
 10
-2.98176701E+02
 20
-8.99630462E+00
 11
-2.98176701E+02
 21
-9.49630462E+00
  0
LINE
  8
0
 62
7
 10
-2.97676701E+02
 20
-8.49629593E+00
 11
-2.98176701E+02
 21
-8.99629646E+00
  0
LINE
  8
0
 62
7
 10
-3.04762349E+02
 20
-7.69630157E+00
 11
-3.06376713E+02
 21
-7.69630157E+00
  0
LINE
  8
0
 62
7
 10
-2.98176701E+02
 20
1.50003695E+02
 11
-2.98176701E+02
 21
1.50503695E+02
  0
LINE
  8
0
 62
7
 10
-2.96376713E+02
 20
1.48003695E+02
 11
-2.96376713E+02
 21
1.50503695E+02
  0
LINE
  8
0
 62
7
 10
-3.03376690E+02
 20
1.49503713E+02
 11
-3.04762336E+02
 21
1.48703709E+02
  0
LINE
  8
0
 62
7
 10
-3.01376713E+02
 20
1.50003695E+02
 11
-3.01376713E+02
 21
1.50503695E+02
  0
LINE
  8
0
 62
7
 10
-3.03644644E+02
 20
1.50503710E+02
 11
-3.04510669E+02
 21
1.50003710E+02
  0
LINE
  8
0
 62
7
 10
-3.01876713E+02
 20
1.49503695E+02
 11
-3.03376713E+02
 21
1.49503695E+02
  0
LINE
  8
0
 62
7
 10
-3.09076710E+02
 20
1.46003695E+02
 11
-3.09076710E+02
 21
1.47503695E+02
  0
LINE
  8
0
 62
7
 10
-3.01376713E+02
 20
1.50503695E+02
 11
-3.03644658E+02
 21
1.50503695E+02
  0
LINE
  8
0
 62
7
 10
-3.04012089E+02
 20
1.45903689E+02
 11
-3.06376713E+02
 21
1.45903689E+02
  0
LINE
  8
0
 62
7
 10
-3.04510685E+02
 20
1.50003695E+02
 11
-3.06576710E+02
 21
1.50003695E+02
  0
LINE
  8
0
 62
7
 10
-3.02626453E+02
 20
1.46703715E+02
 11
-3.04012099E+02
 21
1.45903712E+02
  0
LINE
  8
0
 62
7
 10
-3.01876700E+02
 20
1.49503679E+02
 11
-3.01376699E+02
 21
1.50003679E+02
  0
LINE
  8
0
 62
7
 10
-3.01500065E+02
 20
1.46703708E+02
 11
-3.02626454E+02
 21
1.46703708E+02
  0
LINE
  8
0
 62
7
 10
-2.96376713E+02
 20
1.50503695E+02
 11
-2.98176701E+02
 21
1.50503695E+02
  0
LINE
  8
0
 62
7
 10
-2.97676701E+02
 20
1.49503695E+02
 11
-2.97676701E+02
 21
1.47903689E+02
  0
LINE
  8
0
 62
7
 10
-2.97676700E+02
 20
1.49503679E+02
 11
-2.98176711E+02
 21
1.50003690E+02
  0
LINE
  8
0
 62
7
 10
-3.04762349E+02
 20
1.48703708E+02
 11
-3.06376713E+02
 21
1.48703708E+02
  0
LINE
  8
0
  6
CENTER
 62
2
 10
-2.98376713E+02
 20
6.05036954E+01
 11
-3.18376713E+02
 21
6.05036954E+01
  0
LINE
  8
0
  6
CENTER
 62
2
 10
-3.08376713E+02
 20
7.05036954E+01
 11
-3.08376713E+02
 21
5.05036954E+01
  0
LINE
  8
0
 62
7
 10
-3.33626713E+02
 20
1.45503695E+02
 11
-3.33626713E+02
 21
1.44503695E+02
  0
LINE
  8
0
 62
7
 10
-3.25126713E+02
 20
1.45503695E+02
 11
-3.25126713E+02
 21
1.44503695E+02
  0
LINE
  8
0
 62
7
 10
-3.33626713E+02
 20
1.45503695E+02
 11
-3.45876713E+02
 21
1.45503695E+02
  0
LINE
  8
0
 62
7
 10
-3.12876713E+02
 20
1.45503695E+02
 11
-3.25126713E+02
 21
1.45503695E+02
  0
LINE
  8
0
 62
7
 10
-3.12876713E+02
 20
-4.49630462E+00
 11
-3.25126713E+02
 21
-4.49630462E+00
  0
LINE
  8
0
 62
7
 10
-3.33626713E+02
 20
-4.49630462E+00
 11
-3.33626713E+02
 21
-3.49630462E+00
  0
LINE
  8
0
 62
7
 10
-3.25126713E+02
 20
-4.49630462E+00
 11
-3.25126713E+02
 21
-3.49630462E+00
  0
LINE
  8
0
 62
7
 10
-3.33626713E+02
 20
-4.49630462E+00
 11
-3.45876713E+02
 21
-4.49630462E+00
  0
LINE
  8
0
 62
7
 10
-3.10076710E+02
 20
-3.99630462E+00
 11
-3.11876713E+02
 21
-3.99630462E+00
  0
LINE
  8
0
 62
7
 10
-3.10076710E+02
 20
1.45003695E+02
 11
-3.11876713E+02
 21
1.45003695E+02
  0
LINE
  8
0
 62
7
 10
-3.12876713E+02
 20
-4.49630462E+00
 11
-3.12876713E+02
 21
-3.49630462E+00
  0
LINE
  8
0
 62
7
 10
-3.12876713E+02
 20
1.45503695E+02
 11
-3.12876713E+02
 21
1.44503695E+02
  0
LINE
  8
0
 62
7
 10
-3.45876713E+02
 20
-4.49630462E+00
 11
-3.45876713E+02
 21
-3.49630462E+00
  0
LINE
  8
0
 62
7
 10
-3.45876713E+02
 20
1.45503695E+02
 11
-3.45876713E+02
 21
1.44503695E+02
  0
LINE
  8
0
 62
7
 10
-2.78376713E+02
 20
-3.49630462E+00
 11
-3.46376713E+02
 21
-3.49630462E+00
  0
LINE
  8
0
 62
7
 10
-2.97026707E+02
 20
1.04473452E+02
 11
-2.97026707E+02
 21
9.05339383E+01
  0
LINE
  8
0
 62
7
 10
-2.95726719E+02
 20
1.04473452E+02
 11
-2.95726719E+02
 21
9.05339383E+01
  0
CIRCLE
  8
0
 62
2
 10
-3.08376713E+02
 20
6.05036954E+01
 40
5.00000000E+00
  0
CIRCLE
  8
0
 62
7
 10
-3.08376713E+02
 20
6.05036954E+01
 40
4.15000010E+00
  0
CIRCLE
  8
0
 62
7
 10
-3.21376713E+02
 20
2.45036954E+01
 40
4.15000010E+00
  0
CIRCLE
  8
0
 62
2
 10
-3.21376713E+02
 20
2.45036954E+01
 40
5.00000000E+00
  0
ARC
  8
0
 62
7
 10
-2.99776707E+02
 20
-6.89629851E+00
 40
2.09999990E+00
 50
2.50447806E-06
 51
1.45150057E+02
  0
ARC
  8
0
 62
7
 10
-3.06576710E+02
 20
-6.49630462E+00
 40
2.50000000E+00
 50
1.79999991E+02
 51
2.70000000E+02
  0
ARC
  8
0
 62
7
 10
-2.99876713E+02
 20
-6.99630462E+00
 40
3.50000000E+00
 50
2.50447807E-06
 51
9.00000002E+01
  0
ARC
  8
0
 62
7
 10
-3.06376713E+02
 20
-6.29629241E+00
 40
1.39999998E+00
 50
9.00000002E+01
 51
2.70000000E+02
  0
ARC
  8
0
 62
7
 10
-3.06576710E+02
 20
1.47503695E+02
 40
2.50000000E+00
 50
9.00000002E+01
 51
1.80000005E+02
  0
ARC
  8
0
 62
7
 10
-2.99876713E+02
 20
1.48003695E+02
 40
3.50000000E+00
 50
2.70000000E+02
 51
3.59999996E+02
  0
ARC
  8
0
 62
7
 10
-2.99776707E+02
 20
1.47903689E+02
 40
2.09999990E+00
 50
2.14849942E+02
 51
3.59999996E+02
  0
ARC
  8
0
 62
7
 10
-3.06376713E+02
 20
1.47303683E+02
 40
1.39999998E+00
 50
9.00000002E+01
 51
2.70000000E+02
  0
ARC
  8
0
 62
7
 10
-3.11876713E+02
 20
1.44003695E+02
 40
1.00000000E+00
 50
9.00000002E+01
 51
1.49999997E+02
  0
ARC
  8
0
 62
7
 10
-3.11876713E+02
 20
-2.99630462E+00
 40
1.00000000E+00
 50
2.10000003E+02
 51
2.70000000E+02
  0
ARC
  8
0
 62
7
 10
-3.10076710E+02
 20
-4.99630462E+00
 40
1.00000000E+00
 50
0.00000000E+00
 51
9.00000002E+01
  0
ARC
  8
0
 62
7
 10
-3.10076710E+02
 20
1.46003695E+02
 40
1.00000000E+00
 50
2.70000000E+02
 51
0.00000000E+00
  0
CIRCLE
  8
0
 62
7
 10
-2.96376713E+02
 20
9.75036954E+01
 40
8.50000000E+00
  0
CIRCLE
  8
0
 62
7
 10
-2.96376713E+02
 20
9.75036954E+01
 40
7.00000000E+00
  0
CIRCLE
  8
0
 62
2
 10
-2.96376713E+02
 20
9.75036954E+01
 40
6.19999981E+00
  0
LINE
  8
0
  6
CENTER
 62
2
 10
-3.08876713E+02
 20
9.75036954E+01
 11
-2.83876713E+02
 21
9.75036954E+01
  0
LINE
  8
0
  6
CENTER
 62
2
 10
-2.96376713E+02
 20
8.50036954E+01
 11
-2.96376713E+02
 21
1.10003695E+02
  0
ARC
  8
0
 62
4
 10
2.87330510E+02
 20
-8.89629241E+00
 40
1.30000000E+00
 50
9.00000002E+01
 51
1.20000000E+02
  0
ARC
  8
0
 62
4
 10
2.85248183E+02
 20
-7.09630309E+00
 40
1.30000000E+00
 50
2.70000000E+02
 51
3.00000000E+02
  0
ARC
  8
0
 62
4
 10
2.84551515E+02
 20
-4.49630309E+00
 40
1.30000000E+00
 50
2.70000000E+02
 51
3.00000000E+02
  0
ARC
  8
0
 62
4
 10
2.86633842E+02
 20
-6.29629241E+00
 40
1.30000000E+00
 50
9.00000002E+01
 51
1.20000000E+02
  0
LINE
  8
0
 62
4
 10
2.85201515E+02
 20
-5.62213611E+00
 11
2.85983842E+02
 21
-5.17045939E+00
  0
LINE
  8
0
 62
4
 10
2.85898183E+02
 20
-8.22213611E+00
 11
2.86680510E+02
 21
-7.77045939E+00
  0
LINE
  8
0
 62
4
 10
2.84073281E+02
 20
-8.39630309E+00
 11
2.85248183E+02
 21
-8.39630309E+00
  0
LINE
  8
0
 62
4
 10
2.83720335E+02
 20
-5.79630309E+00
 11
2.84551515E+02
 21
-5.79630309E+00
  0
LINE
  8
0
 62
4
 10
2.87330510E+02
 20
-7.59629241E+00
 11
2.88623287E+02
 21
-7.59629241E+00
  0
LINE
  8
0
 62
4
 10
2.86633842E+02
 20
-4.99629241E+00
 11
2.88623287E+02
 21
-4.99629241E+00
  0
LINE
  8
0
  6
CENTER
 62
2
 10
3.20623287E+02
 20
1.25036954E+01
 11
3.36623287E+02
 21
1.25036954E+01
  0
LINE
  8
0
  6
CENTER
 62
2
 10
3.20623287E+02
 20
1.28503695E+02
 11
3.36623287E+02
 21
1.28503695E+02
  0
CIRCLE
  8
0
 62
4
 10
2.88623287E+02
 20
-6.29629241E+00
 40
1.30000000E+00
  0
LINE
  8
0
  6
CENTER
 62
6
 10
2.82023281E+02
 20
-1.15463046E+01
 11
2.82023281E+02
 21
-4.57630462E+00
  0
LINE
  8
0
 62
4
 10
2.84073281E+02
 20
-8.49630462E+00
 11
2.84073281E+02
 21
-6.94630462E+00
  0
LINE
  8
0
 62
4
 10
2.84073281E+02
 20
-8.49630462E+00
 11
2.83523281E+02
 21
-9.04630462E+00
  0
LINE
  8
0
 62
4
 10
2.83523281E+02
 20
-9.49630462E+00
 11
2.83523281E+02
 21
-9.04630462E+00
  0
LINE
  8
0
 62
4
 10
2.83523281E+02
 20
-9.49630462E+00
 11
2.80523281E+02
 21
-9.49630462E+00
  0
LINE
  8
0
 62
4
 10
2.80523281E+02
 20
-9.49630462E+00
 11
2.80523281E+02
 21
-9.04630462E+00
  0
LINE
  8
0
 62
4
 10
2.79973281E+02
 20
-8.49630462E+00
 11
2.80523281E+02
 21
-9.04630462E+00
  0
LINE
  8
0
 62
4
 10
2.79973281E+02
 20
-8.49630462E+00
 11
2.79973281E+02
 21
-6.94630462E+00
  0
LINE
  8
0
 62
4
 10
2.83273281E+02
 20
-9.99630462E+00
 11
2.83273281E+02
 21
-9.49630462E+00
  0
LINE
  8
0
 62
6
 10
2.83043281E+02
 20
-9.99630462E+00
 11
2.83043281E+02
 21
-9.49630462E+00
  0
LINE
  8
0
 62
6
 10
2.81003281E+02
 20
-9.99630462E+00
 11
2.81003281E+02
 21
-9.49630462E+00
  0
LINE
  8
0
 62
4
 10
2.80773281E+02
 20
-9.99630462E+00
 11
2.80773281E+02
 21
-9.49630462E+00
  0
LINE
  8
0
 62
4
 10
2.83273281E+02
 20
-9.99630462E+00
 11
2.80773281E+02
 21
-9.99630462E+00
  0
ARC
  8
0
 62
4
 10
2.82023278E+02
 20
-6.94630691E+00
 40
2.05000229E+00
 50
6.39705167E-05
 51
9.00000002E+01
  0
ARC
  8
0
 62
4
 10
2.82023283E+02
 20
-6.94630691E+00
 40
2.05000229E+00
 50
9.00000002E+01
 51
1.79999936E+02
  0
CIRCLE
  8
0
 62
4
 10
2.82023281E+02
 20
-7.19582915E+00
 40
1.30000000E+00
  0
LINE
  8
0
 62
7
 10
2.86757259E+02
 20
1.50003695E+02
 11
2.88823299E+02
 21
1.50003695E+02
  0
LINE
  8
0
 62
7
 10
2.79923275E+02
 20
1.49503695E+02
 11
2.79923275E+02
 21
1.47903689E+02
  0
LINE
  8
0
 62
7
 10
2.58623287E+02
 20
1.49503695E+02
 11
2.58623287E+02
 21
1.19503695E+02
  0
LINE
  8
0
 62
7
 10
2.86258663E+02
 20
1.45903689E+02
 11
2.88623287E+02
 21
1.45903689E+02
  0
LINE
  8
0
 62
7
 10
2.83623287E+02
 20
1.50503695E+02
 11
2.85891231E+02
 21
1.50503695E+02
  0
LINE
  8
0
 62
7
 10
2.83746639E+02
 20
1.46703708E+02
 11
2.84873043E+02
 21
1.46703708E+02
  0
LINE
  8
0
 62
7
 10
2.78623287E+02
 20
1.50503695E+02
 11
2.80423275E+02
 21
1.50503695E+02
  0
LINE
  8
0
 62
7
 10
2.58623287E+02
 20
1.49503695E+02
 11
2.76123287E+02
 21
1.49503695E+02
  0
LINE
  8
0
 62
7
 10
2.60623287E+02
 20
-3.49630462E+00
 11
3.28623287E+02
 21
-3.49630462E+00
  0
LINE
  8
0
 62
7
 10
2.80423275E+02
 20
-8.99630462E+00
 11
2.80423275E+02
 21
-9.49630462E+00
  0
LINE
  8
0
 62
7
 10
2.78623287E+02
 20
-6.99630462E+00
 11
2.78623287E+02
 21
-9.49630462E+00
  0
LINE
  8
0
 62
7
 10
2.85623309E+02
 20
-8.49630687E+00
 11
2.87008981E+02
 21
-7.69628856E+00
  0
LINE
  8
0
 62
7
 10
2.83623287E+02
 20
-8.99630462E+00
 11
2.83623287E+02
 21
-9.49630462E+00
  0
LINE
  8
0
 62
7
 10
2.85891262E+02
 20
-9.49630443E+00
 11
2.86757287E+02
 21
-8.99630443E+00
  0
LINE
  8
0
 62
7
 10
2.58623287E+02
 20
-8.49630462E+00
 11
2.76123287E+02
 21
-8.49630462E+00
  0
LINE
  8
0
 62
7
 10
2.58623287E+02
 20
-8.49630462E+00
 11
2.58623287E+02
 21
2.15036954E+01
  0
LINE
  8
0
 62
7
 10
2.59623324E+02
 20
2.25037478E+01
 11
2.58623301E+02
 21
2.15037251E+01
  0
LINE
  8
0
 62
7
 10
2.76123287E+02
 20
1.44503695E+02
 11
2.76123287E+02
 21
1.49503695E+02
  0
LINE
  8
0
 62
7
 10
2.84873030E+02
 20
1.46703711E+02
 11
2.86258676E+02
 21
1.45903708E+02
  0
LINE
  8
0
 62
7
 10
2.91323299E+02
 20
1.46003695E+02
 11
2.91323299E+02
 21
1.47503695E+02
  0
LINE
  8
0
 62
7
 10
2.84123287E+02
 20
1.49503695E+02
 11
2.85623287E+02
 21
1.49503695E+02
  0
LINE
  8
0
 62
7
 10
2.79923264E+02
 20
1.49503678E+02
 11
2.80423253E+02
 21
1.50003667E+02
  0
LINE
  8
0
 62
7
 10
2.84123264E+02
 20
1.49503678E+02
 11
2.83623263E+02
 21
1.50003678E+02
  0
LINE
  8
0
 62
7
 10
2.60623287E+02
 20
-3.49630462E+00
 11
2.60623287E+02
 21
1.44503695E+02
  0
LINE
  8
0
 62
7
 10
2.85891220E+02
 20
1.50503707E+02
 11
2.86757245E+02
 21
1.50003707E+02
  0
LINE
  8
0
 62
7
 10
2.84123287E+02
 20
-8.49630462E+00
 11
2.85623287E+02
 21
-8.49630462E+00
  0
LINE
  8
0
 62
7
 10
2.91323299E+02
 20
-4.99630462E+00
 11
2.91323299E+02
 21
-6.49630462E+00
  0
LINE
  8
0
 62
7
 10
2.83623287E+02
 20
-9.49630462E+00
 11
2.85891231E+02
 21
-9.49630462E+00
  0
LINE
  8
0
 62
7
 10
2.86258663E+02
 20
-4.89629851E+00
 11
2.88623287E+02
 21
-4.89629851E+00
  0
LINE
  8
0
 62
7
 10
2.86757259E+02
 20
-8.99630462E+00
 11
2.88823299E+02
 21
-8.99630462E+00
  0
LINE
  8
0
 62
7
 10
2.84873090E+02
 20
-5.69628056E+00
 11
2.86258710E+02
 21
-4.89629276E+00
  0
LINE
  8
0
 62
7
 10
2.84123296E+02
 20
-8.49630672E+00
 11
2.83623306E+02
 21
-8.99629646E+00
  0
LINE
  8
0
 62
7
 10
2.83746639E+02
 20
-5.69630157E+00
 11
2.84873043E+02
 21
-5.69630157E+00
  0
LINE
  8
0
 62
7
 10
2.78623287E+02
 20
-9.49630462E+00
 11
2.80423275E+02
 21
-9.49630462E+00
  0
LINE
  8
0
 62
7
 10
2.58623301E+02
 20
1.19503700E+02
 11
2.59623302E+02
 21
1.18503699E+02
  0
LINE
  8
0
 62
7
 10
2.83623287E+02
 20
1.50003695E+02
 11
2.83623287E+02
 21
1.50503695E+02
  0
LINE
  8
0
 62
7
 10
2.85623267E+02
 20
1.49503709E+02
 11
2.87008913E+02
 21
1.48703706E+02
  0
LINE
  8
0
 62
7
 10
2.78623287E+02
 20
1.48003695E+02
 11
2.78623287E+02
 21
1.50503695E+02
  0
LINE
  8
0
 62
7
 10
2.80423275E+02
 20
1.50003695E+02
 11
2.80423275E+02
 21
1.50503695E+02
  0
LINE
  8
0
 62
7
 10
2.59623287E+02
 20
1.18503695E+02
 11
2.59623287E+02
 21
2.25037259E+01
  0
LINE
  8
0
 62
7
 10
2.76123287E+02
 20
-8.49630462E+00
 11
2.76123287E+02
 21
-3.49630462E+00
  0
LINE
  8
0
 62
7
 10
2.79923275E+02
 20
-8.49630462E+00
 11
2.79923275E+02
 21
-6.89629851E+00
  0
LINE
  8
0
 62
7
 10
2.60623287E+02
 20
1.44503695E+02
 11
3.28623287E+02
 21
1.44503695E+02
  0
LINE
  8
0
 62
7
 10
2.79923296E+02
 20
-8.49630672E+00
 11
2.80423286E+02
 21
-8.99629646E+00
  0
LINE
  8
0
 62
7
 10
2.87008907E+02
 20
-7.69630157E+00
 11
2.88623287E+02
 21
-7.69630157E+00
  0
LINE
  8
0
 62
7
 10
2.87008907E+02
 20
1.48703708E+02
 11
2.88623287E+02
 21
1.48703708E+02
  0
LINE
  8
0
 62
7
 10
2.92323299E+02
 20
-3.99630462E+00
 11
2.94123287E+02
 21
-3.99630462E+00
  0
LINE
  8
0
 62
7
 10
2.92323299E+02
 20
1.45003695E+02
 11
2.94123287E+02
 21
1.45003695E+02
  0
LINE
  8
0
 62
7
 10
2.95123287E+02
 20
-4.49630462E+00
 11
2.95123287E+02
 21
-3.49630462E+00
  0
LINE
  8
0
 62
7
 10
2.95123287E+02
 20
1.45503695E+02
 11
2.95123287E+02
 21
1.44503695E+02
  0
LINE
  8
0
 62
7
 10
2.79273311E+02
 20
1.04473452E+02
 11
2.79273311E+02
 21
9.05339383E+01
  0
LINE
  8
0
 62
7
 10
2.77973262E+02
 20
1.04473452E+02
 11
2.77973262E+02
 21
9.05339383E+01
  0
ARC
  8
0
 62
7
 10
2.82023311E+02
 20
1.47903689E+02
 40
2.09999990E+00
 50
1.80000008E+02
 51
3.25150053E+02
  0
ARC
  8
0
 62
7
 10
2.88823299E+02
 20
-6.49630462E+00
 40
2.50000000E+00
 50
2.70000000E+02
 51
2.50447804E-06
  0
ARC
  8
0
 62
7
 10
2.82123287E+02
 20
-6.99630462E+00
 40
3.50000000E+00
 50
9.00000002E+01
 51
1.79999991E+02
  0
ARC
  8
0
 62
7
 10
2.82123287E+02
 20
1.48003695E+02
 40
3.50000000E+00
 50
1.80000008E+02
 51
2.70000000E+02
  0
ARC
  8
0
 62
7
 10
2.88823299E+02
 20
1.47503695E+02
 40
2.50000000E+00
 50
3.59999996E+02
 51
9.00000002E+01
  0
ARC
  8
0
 62
7
 10
2.82023311E+02
 20
-6.89629851E+00
 40
2.09999990E+00
 50
3.48499474E+01
 51
1.79999991E+02
  0
ARC
  8
0
 62
7
 10
2.88623287E+02
 20
-6.29629241E+00
 40
1.39999998E+00
 50
2.70000000E+02
 51
9.00000002E+01
  0
ARC
  8
0
 62
7
 10
2.88623287E+02
 20
1.47303683E+02
 40
1.39999998E+00
 50
2.70000000E+02
 51
9.00000002E+01
  0
ARC
  8
0
 62
7
 10
2.92323299E+02
 20
1.46003695E+02
 40
1.00000000E+00
 50
1.80000008E+02
 51
2.70000000E+02
  0
ARC
  8
0
 62
7
 10
2.92323299E+02
 20
-4.99630462E+00
 40
1.00000000E+00
 50
9.00000002E+01
 51
1.80000005E+02
  0
ARC
  8
0
 62
7
 10
2.94123287E+02
 20
1.44003695E+02
 40
1.00000000E+00
 50
3.00000008E+01
 51
9.00000002E+01
  0
ARC
  8
0
 62
7
 10
2.94123287E+02
 20
-2.99630462E+00
 40
1.00000000E+00
 50
2.70000000E+02
 51
3.29999999E+02
  0
CIRCLE
  8
0
 62
7
 10
2.78623287E+02
 20
9.75036954E+01
 40
8.50000000E+00
  0
CIRCLE
  8
0
 62
2
 10
2.78623287E+02
 20
9.75036954E+01
 40
6.19999981E+00
  0
CIRCLE
  8
0
 62
7
 10
2.78623287E+02
 20
9.75036954E+01
 40
7.00000000E+00
  0
LINE
  8
0
  6
CENTER
 62
2
 10
3.11623287E+02
 20
1.50503695E+02
 11
3.11623287E+02
 21
1.28003695E+02
  0
LINE
  8
0
 62
7
 10
2.95123287E+02
 20
1.45503695E+02
 11
3.07373287E+02
 21
1.45503695E+02
  0
LINE
  8
0
 62
7
 10
3.15873287E+02
 20
1.45503695E+02
 11
3.28123287E+02
 21
1.45503695E+02
  0
LINE
  8
0
  6
DASHED
 62
2
 10
3.15873287E+02
 20
1.34003695E+02
 11
3.15873287E+02
 21
1.33003695E+02
  0
LINE
  8
0
  6
DASHED
 62
2
 10
3.07373287E+02
 20
1.34003695E+02
 11
3.07373287E+02
 21
1.33003695E+02
  0
LINE
  8
0
  6
DASHED
 62
2
 10
3.15873287E+02
 20
1.34003695E+02
 11
3.18873287E+02
 21
1.34003695E+02
  0
LINE
  8
0
  6
DASHED
 62
2
 10
3.07373287E+02
 20
1.33003695E+02
 11
3.15873287E+02
 21
1.33003695E+02
  0
LINE
  8
0
  6
DASHED
 62
2
 10
3.04373287E+02
 20
1.40503695E+02
 11
3.18873287E+02
 21
1.40503695E+02
  0
LINE
  8
0
  6
DASHED
 62
2
 10
3.18873287E+02
 20
1.40503695E+02
 11
3.18873287E+02
 21
1.34003695E+02
  0
LINE
  8
0
 62
7
 10
3.07373287E+02
 20
1.45503695E+02
 11
3.07373287E+02
 21
1.44503695E+02
  0
LINE
  8
0
  6
DASHED
 62
2
 10
3.04373287E+02
 20
1.40503695E+02
 11
3.04373287E+02
 21
1.34003695E+02
  0
LINE
  8
0
  6
DASHED
 62
2
 10
3.04373287E+02
 20
1.34003695E+02
 11
3.07373287E+02
 21
1.34003695E+02
  0
LINE
  8
0
 62
7
 10
3.15873287E+02
 20
1.45503695E+02
 11
3.15873287E+02
 21
1.44503695E+02
  0
LINE
  8
0
  6
DASHED
 62
2
 10
3.04623287E+02
 20
1.40503695E+02
 11
3.04623287E+02
 21
1.35003695E+02
  0
LINE
  8
0
  6
DASHED
 62
2
 10
3.04623287E+02
 20
1.35003695E+02
 11
3.18623287E+02
 21
1.35003695E+02
  0
LINE
  8
0
  6
DASHED
 62
2
 10
3.18623287E+02
 20
1.40503695E+02
 11
3.18623287E+02
 21
1.35003695E+02
  0
LINE
  8
0
  6
DASHED
 62
2
 10
3.07623287E+02
 20
1.40503695E+02
 11
3.07623287E+02
 21
1.35003695E+02
  0
LINE
  8
0
  6
DASHED
 62
2
 10
3.15623287E+02
 20
1.40503695E+02
 11
3.15623287E+02
 21
1.35003695E+02
  0
LINE
  8
0
  6
DASHED
 62
2
 10
3.08223285E+02
 20
1.40503695E+02
 11
3.08223285E+02
 21
1.35003695E+02
  0
LINE
  8
0
  6
DASHED
 62
2
 10
3.15023288E+02
 20
1.40503695E+02
 11
3.15023288E+02
 21
1.35003695E+02
  0
LINE
  8
0
 62
7
 10
3.28123287E+02
 20
1.45503695E+02
 11
3.28123287E+02
 21
1.44503695E+02
  0
LINE
  8
0
  6
DASHED
 62
2
 10
3.18123287E+02
 20
1.29503695E+02
 11
3.18123287E+02
 21
1.15503695E+02
  0
LINE
  8
0
  6
DASHED
 62
2
 10
3.16123287E+02
 20
1.26753695E+02
 11
3.16123287E+02
 21
1.18253695E+02
  0
LINE
  8
0
  6
DASHED
 62
2
 10
3.23623287E+02
 20
1.29753695E+02
 11
3.23623287E+02
 21
1.15253695E+02
  0
LINE
  8
0
  6
DASHED
 62
2
 10
3.28623287E+02
 20
1.26753695E+02
 11
3.23623287E+02
 21
1.26753695E+02
  0
LINE
  8
0
  6
DASHED
 62
2
 10
3.17123287E+02
 20
1.29753695E+02
 11
3.17123287E+02
 21
1.26753695E+02
  0
LINE
  8
0
  6
DASHED
 62
2
 10
3.23623287E+02
 20
1.29753695E+02
 11
3.17123287E+02
 21
1.29753695E+02
  0
LINE
  8
0
  6
DASHED
 62
2
 10
3.17123287E+02
 20
1.26753695E+02
 11
3.16123287E+02
 21
1.26753695E+02
  0
LINE
  8
0
  6
DASHED
 62
2
 10
3.23623287E+02
 20
1.29503695E+02
 11
3.18123287E+02
 21
1.29503695E+02
  0
LINE
  8
0
  6
DASHED
 62
2
 10
3.23623287E+02
 20
1.26503695E+02
 11
3.18123287E+02
 21
1.26503695E+02
  0
LINE
  8
0
  6
DASHED
 62
2
 10
3.23623287E+02
 20
1.25903689E+02
 11
3.18123287E+02
 21
1.25903689E+02
  0
LINE
  8
0
  6
CENTER
 62
2
 10
3.33623287E+02
 20
1.22503695E+02
 11
3.11123287E+02
 21
1.22503695E+02
  0
LINE
  8
0
  6
DASHED
 62
2
 10
3.28623287E+02
 20
1.18253695E+02
 11
3.23623287E+02
 21
1.18253695E+02
  0
LINE
  8
0
  6
DASHED
 62
2
 10
3.23623287E+02
 20
1.15253695E+02
 11
3.17123287E+02
 21
1.15253695E+02
  0
LINE
  8
0
  6
DASHED
 62
2
 10
3.17123287E+02
 20
1.18253695E+02
 11
3.17123287E+02
 21
1.15253695E+02
  0
LINE
  8
0
  6
DASHED
 62
2
 10
3.17123287E+02
 20
1.18253695E+02
 11
3.16123287E+02
 21
1.18253695E+02
  0
LINE
  8
0
  6
DASHED
 62
2
 10
3.23623287E+02
 20
1.15503695E+02
 11
3.18123287E+02
 21
1.15503695E+02
  0
LINE
  8
0
  6
DASHED
 62
2
 10
3.23623287E+02
 20
1.18503695E+02
 11
3.18123287E+02
 21
1.18503695E+02
  0
LINE
  8
0
  6
DASHED
 62
2
 10
3.23623287E+02
 20
1.19103701E+02
 11
3.18123287E+02
 21
1.19103701E+02
  0
LINE
  8
0
  6
DASHED
 62
2
 10
3.28623287E+02
 20
2.27536954E+01
 11
3.23623287E+02
 21
2.27536954E+01
  0
LINE
  8
0
  6
DASHED
 62
2
 10
3.23623287E+02
 20
2.19036893E+01
 11
3.18123287E+02
 21
2.19036893E+01
  0
LINE
  8
0
  6
DASHED
 62
2
 10
3.23623287E+02
 20
2.25036954E+01
 11
3.18123287E+02
 21
2.25036954E+01
  0
LINE
  8
0
  6
DASHED
 62
2
 10
3.18123287E+02
 20
1.15036954E+01
 11
3.18123287E+02
 21
2.55036954E+01
  0
LINE
  8
0
  6
DASHED
 62
2
 10
3.23623287E+02
 20
2.55036954E+01
 11
3.18123287E+02
 21
2.55036954E+01
  0
LINE
  8
0
  6
DASHED
 62
2
 10
3.23623287E+02
 20
2.57536954E+01
 11
3.17123287E+02
 21
2.57536954E+01
  0
LINE
  8
0
  6
DASHED
 62
2
 10
3.16123287E+02
 20
1.42536954E+01
 11
3.16123287E+02
 21
2.27536954E+01
  0
LINE
  8
0
  6
DASHED
 62
2
 10
3.17123287E+02
 20
2.27536954E+01
 11
3.17123287E+02
 21
2.57536954E+01
  0
LINE
  8
0
  6
DASHED
 62
2
 10
3.17123287E+02
 20
2.27536954E+01
 11
3.16123287E+02
 21
2.27536954E+01
  0
LINE
  8
0
  6
DASHED
 62
2
 10
3.23623287E+02
 20
1.12536954E+01
 11
3.23623287E+02
 21
2.57536954E+01
  0
LINE
  8
0
  6
DASHED
 62
2
 10
3.23623287E+02
 20
1.51037015E+01
 11
3.18123287E+02
 21
1.51037015E+01
  0
LINE
  8
0
  6
DASHED
 62
2
 10
3.23623287E+02
 20
1.45036954E+01
 11
3.18123287E+02
 21
1.45036954E+01
  0
LINE
  8
0
  6
CENTER
 62
2
 10
3.33623287E+02
 20
1.85036954E+01
 11
3.11123287E+02
 21
1.85036954E+01
  0
LINE
  8
0
  6
DASHED
 62
2
 10
3.17123287E+02
 20
1.12536954E+01
 11
3.17123287E+02
 21
1.42536954E+01
  0
LINE
  8
0
  6
DASHED
 62
2
 10
3.17123287E+02
 20
1.42536954E+01
 11
3.16123287E+02
 21
1.42536954E+01
  0
LINE
  8
0
  6
DASHED
 62
2
 10
3.23623287E+02
 20
1.15036954E+01
 11
3.18123287E+02
 21
1.15036954E+01
  0
LINE
  8
0
  6
DASHED
 62
2
 10
3.23623287E+02
 20
1.12536954E+01
 11
3.17123287E+02
 21
1.12536954E+01
  0
LINE
  8
0
  6
DASHED
 62
2
 10
3.28623287E+02
 20
1.42536954E+01
 11
3.23623287E+02
 21
1.42536954E+01
  0
LINE
  8
0
 62
7
 10
2.95123287E+02
 20
-4.49630462E+00
 11
3.28123287E+02
 21
-4.49630462E+00
  0
LINE
  8
0
 62
7
 10
3.28123287E+02
 20
-4.49630462E+00
 11
3.28123287E+02
 21
-3.49630462E+00
  0
LINE
  8
0
  6
DASHED
 62
2
 10
3.04623287E+02
 20
6.00369538E+00
 11
3.18623287E+02
 21
6.00369538E+00
  0
LINE
  8
0
 62
7
 10
3.15873287E+02
 20
-4.49630462E+00
 11
3.15873287E+02
 21
-3.49630462E+00
  0
LINE
  8
0
  6
DASHED
 62
2
 10
3.04373287E+02
 20
7.00369538E+00
 11
3.07373287E+02
 21
7.00369538E+00
  0
LINE
  8
0
 62
7
 10
3.07373287E+02
 20
-4.49630462E+00
 11
3.07373287E+02
 21
-3.49630462E+00
  0
LINE
  8
0
  6
CENTER
 62
2
 10
3.11623287E+02
 20
-9.49630462E+00
 11
3.11623287E+02
 21
1.30036954E+01
  0
LINE
  8
0
  6
DASHED
 62
2
 10
3.04373287E+02
 20
5.03695383E-01
 11
3.18873287E+02
 21
5.03695383E-01
  0
LINE
  8
0
  6
DASHED
 62
2
 10
3.15873287E+02
 20
7.00369538E+00
 11
3.15873287E+02
 21
8.00369538E+00
  0
LINE
  8
0
  6
DASHED
 62
2
 10
3.07373287E+02
 20
7.00369538E+00
 11
3.07373287E+02
 21
8.00369538E+00
  0
LINE
  8
0
  6
DASHED
 62
2
 10
3.15873287E+02
 20
7.00369538E+00
 11
3.18873287E+02
 21
7.00369538E+00
  0
LINE
  8
0
  6
DASHED
 62
2
 10
3.07373287E+02
 20
8.00369538E+00
 11
3.15873287E+02
 21
8.00369538E+00
  0
LINE
  8
0
  6
DASHED
 62
2
 10
3.18873287E+02
 20
5.03695383E-01
 11
3.18873287E+02
 21
7.00369538E+00
  0
LINE
  8
0
  6
DASHED
 62
2
 10
3.18623287E+02
 20
5.03695383E-01
 11
3.18623287E+02
 21
6.00369538E+00
  0
LINE
  8
0
  6
DASHED
 62
2
 10
3.15623287E+02
 20
5.03695383E-01
 11
3.15623287E+02
 21
6.00369538E+00
  0
LINE
  8
0
  6
DASHED
 62
2
 10
3.07623287E+02
 20
5.03695383E-01
 11
3.07623287E+02
 21
6.00369538E+00
  0
LINE
  8
0
  6
DASHED
 62
2
 10
3.08223285E+02
 20
5.03695383E-01
 11
3.08223285E+02
 21
6.00369538E+00
  0
LINE
  8
0
  6
DASHED
 62
2
 10
3.15023288E+02
 20
5.03695383E-01
 11
3.15023288E+02
 21
6.00369538E+00
  0
LINE
  8
0
  6
DASHED
 62
2
 10
3.04623287E+02
 20
5.03695383E-01
 11
3.04623287E+02
 21
6.00369538E+00
  0
LINE
  8
0
  6
DASHED
 62
2
 10
3.04373287E+02
 20
5.03695383E-01
 11
3.04373287E+02
 21
7.00369538E+00
  0
LINE
  8
0
 62
7
 10
3.28623287E+02
 20
-3.49630462E+00
 11
3.28623287E+02
 21
1.44503695E+02
  0
LINE
  8
0
  6
DASHED
 62
2
 10
3.15873287E+02
 20
-3.49630462E+00
 11
3.15873287E+02
 21
5.03695383E-01
  0
LINE
  8
0
  6
DASHED
 62
2
 10
3.07373287E+02
 20
-3.49630462E+00
 11
3.07373287E+02
 21
5.03695383E-01
  0
LINE
  8
0
  6
DASHED
 62
2
 10
3.07373287E+02
 20
1.44503695E+02
 11
3.07373287E+02
 21
1.40503695E+02
  0
LINE
  8
0
  6
DASHED
 62
2
 10
3.15873287E+02
 20
1.44503695E+02
 11
3.15873287E+02
 21
1.40503695E+02
  0
LINE
  8
0
  6
CENTER
 62
2
 10
2.91123287E+02
 20
9.75036954E+01
 11
2.66123287E+02
 21
9.75036954E+01
  0
LINE
  8
0
  6
CENTER
 62
2
 10
2.78623287E+02
 20
1.10003695E+02
 11
2.78623287E+02
 21
8.50036954E+01
  0
LINE
  8
0
  6
PHANTOM
 10
-8.76713280E-01
 20
-6.39102767E+01
 11
-8.76713280E-01
 21
-1.90255488E+02
  0
LINE
  8
0
  6
CENTER
 62
2
 10
2.14123287E+02
 20
-1.81996305E+02
 11
2.14123287E+02
 21
-1.65996305E+02
  0
LINE
  8
0
  6
CENTER
 62
2
 10
-2.15876713E+02
 20
-1.81996305E+02
 11
-2.15876713E+02
 21
-1.65996305E+02
  0
LINE
  8
0
  6
CENTER
 62
6
 10
-1.09676713E+02
 20
-1.27396305E+02
 11
-7.94767133E+01
 21
-1.27396305E+02
  0
LINE
  8
0
  6
CENTER
 62
2
 10
-1.04876713E+02
 20
-1.24566305E+02
 11
-1.04876713E+02
 21
-1.30146305E+02
  0
LINE
  8
0
 62
4
 10
-1.06876713E+02
 20
-1.28896305E+02
 11
-8.48767133E+01
 21
-1.28896305E+02
  0
LINE
  8
0
 62
4
 10
-1.06876713E+02
 20
-1.25896305E+02
 11
-8.48767133E+01
 21
-1.25896305E+02
  0
LINE
  8
0
 62
6
 10
-8.37967133E+01
 20
-1.25236305E+02
 11
-8.12967133E+01
 21
-1.29556305E+02
  0
LINE
  8
0
 62
4
 10
-8.48767133E+01
 20
-1.26096305E+02
 11
-8.32967133E+01
 21
-1.26096305E+02
  0
LINE
  8
0
 62
4
 10
-8.48767133E+01
 20
-1.28696305E+02
 11
-8.17867133E+01
 21
-1.28696305E+02
  0
LINE
  8
0
 62
4
 10
-1.05886713E+02
 20
-1.28116305E+02
 11
-1.04146713E+02
 21
-1.26386305E+02
  0
LINE
  8
0
 62
4
 10
-1.05606713E+02
 20
-1.28396305E+02
 11
-1.03866713E+02
 21
-1.26666305E+02
  0
LINE
  8
0
 62
4
 10
-1.06876713E+02
 20
-1.25796305E+02
 11
-1.06876713E+02
 21
-1.28996305E+02
  0
LINE
  8
0
 62
4
 10
-8.48767133E+01
 20
-1.25796305E+02
 11
-8.48767133E+01
 21
-1.28996305E+02
  0
CIRCLE
  8
0
 62
6
 10
-1.04876698E+02
 20
-1.27402591E+02
 40
1.00000000E+00
  0
CIRCLE
  8
0
 62
4
 10
-1.04876698E+02
 20
-1.27402591E+02
 40
1.25000000E+00
  0
LINE
  8
0
  6
CENTER
 62
6
 10
9.03232867E+01
 20
-1.27396305E+02
 11
1.20523287E+02
 21
-1.27396305E+02
  0
LINE
  8
0
  6
CENTER
 62
6
 10
9.51232867E+01
 20
-1.24566305E+02
 11
9.51232867E+01
 21
-1.30146305E+02
  0
LINE
  8
0
 62
4
 10
9.31232867E+01
 20
-1.28896305E+02
 11
1.15123287E+02
 21
-1.28896305E+02
  0
LINE
  8
0
 62
4
 10
9.31232867E+01
 20
-1.25896305E+02
 11
1.15123287E+02
 21
-1.25896305E+02
  0
LINE
  8
0
 62
6
 10
1.16203287E+02
 20
-1.25236305E+02
 11
1.18703287E+02
 21
-1.29556305E+02
  0
LINE
  8
0
 62
4
 10
1.15123287E+02
 20
-1.26096305E+02
 11
1.16703287E+02
 21
-1.26096305E+02
  0
LINE
  8
0
 62
4
 10
1.15123287E+02
 20
-1.28696305E+02
 11
1.18213287E+02
 21
-1.28696305E+02
  0
LINE
  8
0
 62
4
 10
9.41132867E+01
 20
-1.28116305E+02
 11
9.58532867E+01
 21
-1.26386305E+02
  0
LINE
  8
0
 62
4
 10
9.43932867E+01
 20
-1.28396305E+02
 11
9.61332867E+01
 21
-1.26666305E+02
  0
LINE
  8
0
 62
4
 10
9.31232867E+01
 20
-1.25796305E+02
 11
9.31232867E+01
 21
-1.28996305E+02
  0
LINE
  8
0
 62
4
 10
1.15123287E+02
 20
-1.25796305E+02
 11
1.15123287E+02
 21
-1.28996305E+02
  0
CIRCLE
  8
0
 62
6
 10
9.51233020E+01
 20
-1.27402591E+02
 40
1.00000000E+00
  0
CIRCLE
  8
0
 62
4
 10
9.51233020E+01
 20
-1.27402591E+02
 40
1.25000000E+00
  0
LINE
  8
0
 62
7
 10
2.05123287E+02
 20
-1.05996305E+02
 11
2.05123287E+02
 21
-1.73996305E+02
  0
LINE
  8
0
 62
7
 10
-1.75876713E+02
 20
-1.03996305E+02
 11
-1.75876713E+02
 21
-1.21496305E+02
  0
LINE
  8
0
 62
7
 10
-2.58767133E+01
 20
-1.03996305E+02
 11
-2.58767133E+01
 21
-1.21496305E+02
  0
LINE
  8
0
  6
CENTER
 62
2
 10
-1.00876713E+02
 20
-9.89963046E+01
 11
-1.00876713E+02
 21
-1.78996305E+02
  0
LINE
  8
0
 62
7
 10
-2.25876713E+02
 20
-1.05996305E+02
 11
-2.25876713E+02
 21
-1.73996305E+02
  0
LINE
  8
0
 62
7
 10
-2.06876713E+02
 20
-1.05996305E+02
 11
-2.06876713E+02
 21
-1.73996305E+02
  0
LINE
  8
0
 62
7
 10
-2.25876713E+02
 20
-1.05996305E+02
 11
-1.80876713E+02
 21
-1.05996305E+02
  0
LINE
  8
0
 62
7
 10
-2.06876713E+02
 20
-1.17996305E+02
 11
-1.80876713E+02
 21
-1.17996305E+02
  0
LINE
  8
0
 62
7
 10
-1.80876713E+02
 20
-1.05996305E+02
 11
-1.80876713E+02
 21
-1.23996305E+02
  0
LINE
  8
0
 62
7
 10
-1.96376709E+02
 20
-1.12439677E+02
 11
-1.93876711E+02
 21
-1.13883052E+02
  0
LINE
  8
0
 62
7
 10
-1.93876709E+02
 20
-1.08109551E+02
 11
-1.91376711E+02
 21
-1.09552925E+02
  0
LINE
  8
0
 62
7
 10
-1.96376711E+02
 20
-1.09552929E+02
 11
-1.93876713E+02
 21
-1.08109554E+02
  0
LINE
  8
0
 62
7
 10
-1.93876710E+02
 20
-1.13883057E+02
 11
-1.91376712E+02
 21
-1.12439683E+02
  0
LINE
  8
0
 62
7
 10
-1.91376713E+02
 20
-1.09552930E+02
 11
-1.91376713E+02
 21
-1.12439679E+02
  0
LINE
  8
0
 62
7
 10
-1.96376713E+02
 20
-1.09552930E+02
 11
-1.96376713E+02
 21
-1.12439679E+02
  0
LINE
  8
0
 62
7
 10
2.24123287E+02
 20
-1.05996305E+02
 11
2.24123287E+02
 21
-1.73996305E+02
  0
LINE
  8
0
 62
7
 10
1.79123287E+02
 20
-1.05996305E+02
 11
1.79123287E+02
 21
-1.23996305E+02
  0
LINE
  8
0
 62
7
 10
2.05123287E+02
 20
-1.17996305E+02
 11
1.79123287E+02
 21
-1.17996305E+02
  0
LINE
  8
0
 62
7
 10
2.24123287E+02
 20
-1.05996305E+02
 11
1.79123287E+02
 21
-1.05996305E+02
  0
LINE
  8
0
 62
7
 10
1.94623288E+02
 20
-1.12439671E+02
 11
1.92123290E+02
 21
-1.13883046E+02
  0
LINE
  8
0
 62
7
 10
1.89623287E+02
 20
-1.09552930E+02
 11
1.89623287E+02
 21
-1.12439679E+02
  0
LINE
  8
0
 62
7
 10
1.94623287E+02
 20
-1.09552930E+02
 11
1.94623287E+02
 21
-1.12439679E+02
  0
LINE
  8
0
 62
7
 10
1.92123288E+02
 20
-1.08109544E+02
 11
1.89623290E+02
 21
-1.09552919E+02
  0
LINE
  8
0
 62
7
 10
1.94623284E+02
 20
-1.09552945E+02
 11
1.92123286E+02
 21
-1.08109570E+02
  0
LINE
  8
0
 62
7
 10
1.92123284E+02
 20
-1.13883072E+02
 11
1.89623286E+02
 21
-1.12439697E+02
  0
LINE
  8
0
  6
CENTER
 62
2
 10
9.91232867E+01
 20
-1.17996305E+02
 11
9.91232867E+01
 21
-1.78996305E+02
  0
LINE
  8
0
 62
2
 10
1.49623287E+02
 20
-1.17796308E+02
 11
1.79123287E+02
 21
-1.17796308E+02
  0
LINE
  8
0
 62
7
 10
1.33623277E+02
 20
-1.22246291E+02
 11
1.33123266E+02
 21
-1.22746302E+02
  0
LINE
  8
0
 62
7
 10
1.33623287E+02
 20
-1.22246305E+02
 11
1.45123287E+02
 21
-1.22246305E+02
  0
LINE
  8
0
 62
7
 10
1.49623284E+02
 20
-1.17796281E+02
 11
1.50423267E+02
 21
-1.16996297E+02
  0
LINE
  8
0
 62
7
 10
1.49623287E+02
 20
-1.23996305E+02
 11
1.49623287E+02
 21
-1.17796308E+02
  0
LINE
  8
0
 62
7
 10
1.45123287E+02
 20
-1.17796308E+02
 11
1.49623287E+02
 21
-1.17796308E+02
  0
LINE
  8
0
 62
7
 10
1.50423275E+02
 20
-1.16996305E+02
 11
1.79123287E+02
 21
-1.16996305E+02
  0
LINE
  8
0
 62
7
 10
1.45123287E+02
 20
-1.23996305E+02
 11
1.45123287E+02
 21
-1.17796308E+02
  0
LINE
  8
0
 62
7
 10
-1.75876713E+02
 20
-1.16996305E+02
 11
-1.80876713E+02
 21
-1.16996305E+02
  0
LINE
  8
0
 62
2
 10
-1.75876713E+02
 20
-1.17796308E+02
 11
-1.80876713E+02
 21
-1.17796308E+02
  0
LINE
  8
0
 62
7
 10
-2.25876713E+02
 20
-1.73996305E+02
 11
2.24123287E+02
 21
-1.73996305E+02
  0
LINE
  8
0
 62
7
 10
1.33123287E+02
 20
-1.23996305E+02
 11
1.33123287E+02
 21
-1.22746293E+02
  0
LINE
  8
0
 62
7
 10
-1.75876713E+02
 20
-1.03996305E+02
 11
-2.58767133E+01
 21
-1.03996305E+02
  0
LINE
  8
0
 62
7
 10
-2.06876713E+02
 20
-1.61246305E+02
 11
2.05123287E+02
 21
-1.61246305E+02
  0
LINE
  8
0
 62
7
 10
-2.06876713E+02
 20
-1.52746305E+02
 11
2.05123287E+02
 21
-1.52746305E+02
  0
LINE
  8
0
 62
7
 10
-2.06876713E+02
 20
-1.23996305E+02
 11
2.05123287E+02
 21
-1.23996305E+02
  0
LINE
  8
0
 62
7
 10
-2.06876713E+02
 20
-1.25796306E+02
 11
2.05123287E+02
 21
-1.25796306E+02
  0
LINE
  8
0
 62
7
 10
-2.06876713E+02
 20
-1.28996303E+02
 11
2.05123287E+02
 21
-1.28996303E+02
  0
LINE
  8
0
 62
7
 10
-2.06876713E+02
 20
-1.36696305E+02
 11
2.05123287E+02
 21
-1.36696305E+02
  0
LINE
  8
0
 62
7
 10
-1.75876713E+02
 20
-1.21496305E+02
 11
-2.58767133E+01
 21
-1.21496305E+02
  0
LINE
  8
0
 62
7
 10
-2.06876713E+02
 20
-1.40496305E+02
 11
2.05123287E+02
 21
-1.40496305E+02
  0
LINE
  8
0
 62
7
 10
-3.02767072E+01
 20
-1.21496305E+02
 11
-3.02767072E+01
 21
-1.23996305E+02
  0
LINE
  8
0
 62
7
 10
-7.14767194E+01
 20
-1.21496305E+02
 11
-7.14767194E+01
 21
-1.23996305E+02
  0
LINE
  8
0
 62
7
 10
-1.30276707E+02
 20
-1.21496305E+02
 11
-1.30276707E+02
 21
-1.23996305E+02
  0
LINE
  8
0
 62
7
 10
-1.71476719E+02
 20
-1.21496305E+02
 11
-1.71476719E+02
 21
-1.23996305E+02
  0
CIRCLE
  8
0
 62
7
 10
-1.93876713E+02
 20
-1.10996305E+02
 40
5.00000000E+00
  0
CIRCLE
  8
0
 62
7
 10
1.92123287E+02
 20
-1.10996305E+02
 40
5.00000000E+00
  0
TEXT
  8
0
 62
1
 10
-5.38923383E+01
 20
1.83838042E+02
 40
9.00000000E+00
  1
STRETCH LINE
 41
1.05263158E+00
  7
MONOTXT
  0
LINE
  8
0
 62
7
 10
-1.05250000E+02
 20
-2.56750000E+02
 11
-1.05250000E+02
 21
-2.36750000E+02
  0
TEXT
  8
0
 62
7
 10
-1.30010937E+02
 20
-2.54900000E+02
 40
6.30000019E+00
  1
600
 41
1.00000000E+00
  7
MONOTXT
  0
TEXT
  8
0
 62
7
 10
-1.30010937E+02
 20
-2.44900000E+02
 40
6.30000019E+00
  1
800
 41
1.00000000E+00
  7
MONOTXT
  0
LINE
  8
0
 62
7
 10
-1.37250000E+02
 20
-2.56750000E+02
 11
-1.37250000E+02
 21
-2.36750000E+02
  0
TEXT
  8
0
 62
7
 10
-1.62010937E+02
 20
-2.54900000E+02
 40
6.30000019E+00
  1
500
 41
1.00000000E+00
  7
MONOTXT
  0
TEXT
  8
0
 62
7
 10
-1.62010937E+02
 20
-2.44900000E+02
 40
6.30000019E+00
  1
700
 41
1.00000000E+00
  7
MONOTXT
  0
LINE
  8
0
 62
7
 10
-1.69250000E+02
 20
-2.56750000E+02
 11
-1.69250000E+02
 21
-2.36750000E+02
  0
TEXT
  8
0
 62
7
 10
-1.94010937E+02
 20
-2.54900000E+02
 40
6.30000019E+00
  1
400
 41
1.00000000E+00
  7
MONOTXT
  0
TEXT
  8
0
 62
7
 10
-1.94010937E+02
 20
-2.44900000E+02
 40
6.30000019E+00
  1
600
 41
1.00000000E+00
  7
MONOTXT
  0
LINE
  8
0
 62
7
 10
-2.01250000E+02
 20
-2.56750000E+02
 11
-2.01250000E+02
 21
-2.36750000E+02
  0
TEXT
  8
0
 62
7
 10
-2.26010937E+02
 20
-2.54900000E+02
 40
6.30000019E+00
  1
300
 41
1.00000000E+00
  7
MONOTXT
  0
TEXT
  8
0
 62
7
 10
-2.26010937E+02
 20
-2.44900000E+02
 40
6.30000019E+00
  1
500
 41
1.00000000E+00
  7
MONOTXT
  0
LINE
  8
0
 62
7
 10
-2.33250000E+02
 20
-2.56750000E+02
 11
-2.33250000E+02
 21
-2.36750000E+02
  0
TEXT
  8
0
 62
7
 10
-2.58010937E+02
 20
-2.54900000E+02
 40
6.30000019E+00
  1
200
 41
1.00000000E+00
  7
MONOTXT
  0
TEXT
  8
0
 62
7
 10
-2.58010937E+02
 20
-2.44900000E+02
 40
6.30000019E+00
  1
400
 41
1.00000000E+00
  7
MONOTXT
  0
LINE
  8
0
 62
7
 10
-2.65250000E+02
 20
-2.56750000E+02
 11
-2.65250000E+02
 21
-2.36750000E+02
  0
TEXT
  8
0
 62
7
 10
-2.90010937E+02
 20
-2.54900000E+02
 40
6.30000019E+00
  1
100
 41
1.00000000E+00
  7
MONOTXT
  0
TEXT
  8
0
 62
7
 10
-2.90010937E+02
 20
-2.44900000E+02
 40
6.30000019E+00
  1
300
 41
1.00000000E+00
  7
MONOTXT
  0
TEXT
  8
0
 62
7
 10
-3.15710937E+02
 20
-2.54900000E+02
 40
6.30000019E+00
  1
0
 41
1.00000000E+00
  7
MONOTXT
  0
TEXT
  8
0
 62
7
 10
-3.22010937E+02
 20
-2.44900000E+02
 40
6.30000019E+00
  1
200
 41
1.00000000E+00
  7
MONOTXT
  0
LINE
  8
0
 62
7
 10
-2.97250000E+02
 20
-2.56750000E+02
 11
-2.97250000E+02
 21
-2.36750000E+02
  0
TEXT
  8
0
 62
7
 10
-1.25581892E+02
 20
-2.33238188E+02
 40
6.30000019E+00
  1
(mm)
 41
1.00000000E+00
  7
MONOTXT
  0
TEXT
  8
0
 62
7
 10
-2.78316433E+02
 20
-2.33740693E+02
 40
6.30000019E+00
  1
STRETCH LIST
 41
1.05263158E+00
  7
MONOTXT
  0
TEXT
  8
0
 62
7
 10
-3.75610938E+02
 20
-2.54900000E+02
 40
6.30000019E+00
  1
STRETCH
 41
1.00000000E+00
  7
MONOTXT
  0
TEXT
  8
0
 62
7
 10
-3.72460938E+02
 20
-2.44900000E+02
 40
6.30000019E+00
  1
STROKE
 41
1.00000000E+00
  7
MONOTXT
  0
LINE
  8
0
 62
7
 10
-3.79250000E+02
 20
-2.36750000E+02
 11
-1.05250000E+02
 21
-2.36750000E+02
  0
LINE
  8
0
 62
7
 10
-3.79250000E+02
 20
-2.46750000E+02
 11
-1.05250000E+02
 21
-2.46750000E+02
  0
LINE
  8
0
 62
7
 10
-3.29250000E+02
 20
-2.56750000E+02
 11
-3.29250000E+02
 21
-2.36750000E+02
  0
LINE
  8
0
 62
7
 10
-3.79250000E+02
 20
-2.56750000E+02
 11
-3.79250000E+02
 21
-2.36750000E+02
  0
LINE
  8
0
 62
7
 10
-3.79250000E+02
 20
-2.56750000E+02
 11
-1.05250000E+02
 21
-2.56750000E+02
  0
TEXT
  8
0
 62
7
 10
-3.47800561E+02
 20
2.28100000E+02
 40
6.30000019E+00
  1
(WITH SENSOR SWITCH)
 41
1.06382979E+00
  7
MONOTXT
  0
LINE
  8
0
 62
7
 10
2.79799927E+02
 20
-2.56750000E+02
 11
3.99799805E+02
 21
-2.56750000E+02
  0
LINE
  8
0
 62
7
 10
2.79799927E+02
 20
-2.56750000E+02
 11
2.79799927E+02
 21
-2.76750000E+02
  0
TEXT
  8
0
 62
7
 10
2.87585240E+02
 20
-2.71250000E+02
 40
9.00000000E+00
  1
KOGANEI CORP.
 41
1.04838710E+00
  7
MONOTXT
  0
TEXT
  8
0
 62
7
 10
3.15499645E+02
 20
2.63100000E+02
 40
6.30000019E+00
  1
Ver. 1.0
 41
1.08108108E+00
  7
MONOTXT
  0
LINE
  8
0
 62
7
 10
2.79799927E+02
 20
2.56250000E+02
 11
3.99799805E+02
 21
2.56250000E+02
  0
LINE
  8
0
 62
7
 10
2.79799927E+02
 20
2.76250000E+02
 11
2.79799927E+02
 21
2.56250000E+02
  0
TEXT
  8
0
 62
7
 10
-3.85600562E+02
 20
2.38100000E+02
 40
6.30000019E+00
  1
MODEL:MRW25*ST(200)
 41
1.00000000E+00
  7
MONOTXT
  0
LINE
  8
0
 62
7
 10
-3.99250000E+02
 20
2.56250000E+02
 11
-2.79250000E+02
 21
2.56250000E+02
  0
LINE
  8
0
 62
7
 10
-2.79250000E+02
 20
2.76250000E+02
 11
-2.79250000E+02
 21
2.56250000E+02
  0
TEXT
  8
0
 62
7
 10
-3.88750283E+02
 20
2.63100000E+02
 40
6.30000019E+00
  1
RODLESS CYLINDER
 41
1.03896104E+00
  7
MONOTXT
  0
LINE
  8
0
 62
7
 10
-3.99250000E+02
 20
-2.76750000E+02
 11
3.99799805E+02
 21
-2.76750000E+02
  0
LINE
  8
0
 62
7
 10
-3.99250000E+02
 20
2.76250000E+02
 11
3.99799805E+02
 21
2.76250000E+02
  0
LINE
  8
0
 62
7
 10
-3.99250000E+02
 20
2.76250000E+02
 11
-3.99250000E+02
 21
-2.76750000E+02
  0
LINE
  8
0
 62
7
 10
3.99799805E+02
 20
2.76250000E+02
 11
3.99799805E+02
 21
-2.76750000E+02
  0
ENDSEC
  0
EOF
