  0
SECTION
  2
HEADER
  9
$ACADVER
  1
AC1012
  9
$DWGCODEPAGE
  3
dos932
  9
$INSBASE
 10
0.0
 20
0.0
 30
0.0
  9
$EXTMIN
 10
-399.52490234375
 20
-276.5
 30
0.0
  9
$EXTMAX
 10
405.77491474151611
 20
277.00000047683716
 30
0.0
  9
$LIMMIN
 10
-399.52490234375
 20
-276.5
  9
$LIMMAX
 10
405.77491474151611
 20
277.00000047683716
  9
$ORTHOMODE
 70
               0
  9
$REGENMODE
 70
               1
  9
$FILLMODE
 70
               1
  9
$QTEXTMODE
 70
               0
  9
$MIRRTEXT
 70
               1
  9
$DRAGMODE
 70
               2
  9
$LTSCALE
 40
1.0
  9
$OSMODE
 70
               0
  9
$ATTMODE
 70
               1
  9
$TEXTSIZE
 40
3.2000000476837158
  9
$TRACEWID
 40
0.05
  9
$TEXTSTYLE
  7
MX_NOTE_STANDARD
  9
$CLAYER
  8
0
  9
$CELTYPE
  6
CONTINUOUS
  9
$CECOLOR
 62
             256
  9
$CELTSCALE
 40
1.0
  9
$DELOBJ
 70
               1
  9
$DISPSILH
 70
               0
  9
$DIMSCALE
 40
1.0
  9
$DIMASZ
 40
2.5
  9
$DIMEXO
 40
1.5
  9
$DIMDLI
 40
3.75
  9
$DIMRND
 40
0.0
  9
$DIMDLE
 40
0.0
  9
$DIMEXE
 40
1.5
  9
$DIMTP
 40
0.0
  9
$DIMTM
 40
0.0
  9
$DIMTXT
 40
3.2000000476837158
  9
$DIMCEN
 40
2.5
  9
$DIMTSZ
 40
0.0
  9
$DIMTOL
 70
               0
  9
$DIMLIM
 70
               0
  9
$DIMTIH
 70
               0
  9
$DIMTOH
 70
               0
  9
$DIMSE1
 70
               0
  9
$DIMSE2
 70
               0
  9
$DIMTAD
 70
               1
  9
$DIMZIN
 70
               8
  9
$DIMBLK
  1

  9
$DIMASO
 70
               1
  9
$DIMSHO
 70
               1
  9
$DIMPOST
  1

  9
$DIMAPOST
  1

  9
$DIMALT
 70
               0
  9
$DIMALTD
 70
               4
  9
$DIMALTF
 40
0.03937007874016
  9
$DIMLFAC
 40
1.0
  9
$DIMTOFL
 70
               1
  9
$DIMTVP
 40
0.0
  9
$DIMTIX
 70
               0
  9
$DIMSOXD
 70
               0
  9
$DIMSAH
 70
               0
  9
$DIMBLK1
  1

  9
$DIMBLK2
  1

  9
$DIMSTYLE
  2
MXDIMSTYLE
  9
$DIMCLRD
 70
               0
  9
$DIMCLRE
 70
               0
  9
$DIMCLRT
 70
               0
  9
$DIMTFAC
 40
1.0
  9
$DIMGAP
 40
1.0
  9
$DIMJUST
 70
               0
  9
$DIMSD1
 70
               0
  9
$DIMSD2
 70
               0
  9
$DIMTOLJ
 70
               1
  9
$DIMTZIN
 70
               0
  9
$DIMALTZ
 70
               0
  9
$DIMALTTZ
 70
               0
  9
$DIMFIT
 70
               3
  9
$DIMUPT
 70
               1
  9
$DIMUNIT
 70
               2
  9
$DIMDEC
 70
               4
  9
$DIMTDEC
 70
               4
  9
$DIMALTU
 70
               2
  9
$DIMALTTD
 70
               4
  9
$DIMTXSTY
  7
MX_NOTE_STANDARD
  9
$DIMAUNIT
 70
               0
  9
$LUNITS
 70
               2
  9
$LUPREC
 70
               4
  9
$SKETCHINC
 40
0.1
  9
$FILLETRAD
 40
0.0
  9
$AUNITS
 70
               0
  9
$AUPREC
 70
               0
  9
$MENU
  1
acad
  9
$ELEVATION
 40
0.0
  9
$PELEVATION
 40
0.0
  9
$THICKNESS
 40
0.0
  9
$LIMCHECK
 70
               0
  9
$BLIPMODE
 70
               1
  9
$CHAMFERA
 40
0.0
  9
$CHAMFERB
 40
0.0
  9
$CHAMFERC
 40
0.0
  9
$CHAMFERD
 40
0.0
  9
$SKPOLY
 70
               0
  9
$TDCREATE
 40
2453510.799872685
  9
$TDUPDATE
 40
2453510.799872685
  9
$TDINDWG
 40
0.0000000000
  9
$TDUSRTIMER
 40
0.0000000000
  9
$USRTIMER
 70
               1
  9
$ANGBASE
 50
0.0
  9
$ANGDIR
 70
               0
  9
$PDMODE
 70
               0
  9
$PDSIZE
 40
0.0
  9
$PLINEWID
 40
0.0
  9
$COORDS
 70
               1
  9
$SPLFRAME
 70
               0
  9
$SPLINETYPE
 70
               6
  9
$SPLINESEGS
 70
               8
  9
$ATTDIA
 70
               0
  9
$ATTREQ
 70
               1
  9
$HANDLING
 70
               1
  9
$HANDSEED
  5
346
  9
$SURFTAB1
 70
               6
  9
$SURFTAB2
 70
               6
  9
$SURFTYPE
 70
               6
  9
$SURFU
 70
               6
  9
$SURFV
 70
               6
  9
$UCSNAME
  2

  9
$UCSORG
 10
0.0
 20
0.0
 30
0.0
  9
$UCSXDIR
 10
1.0
 20
0.0
 30
0.0
  9
$UCSYDIR
 10
0.0
 20
1.0
 30
0.0
  9
$PUCSNAME
  2

  9
$PUCSORG
 10
0.0
 20
0.0
 30
0.0
  9
$PUCSXDIR
 10
1.0
 20
0.0
 30
0.0
  9
$PUCSYDIR
 10
0.0
 20
1.0
 30
0.0
  9
$USERI1
 70
               0
  9
$USERI2
 70
               0
  9
$USERI3
 70
               0
  9
$USERI4
 70
               0
  9
$USERI5
 70
               0
  9
$USERR1
 40
0.0
  9
$USERR2
 40
0.0
  9
$USERR3
 40
0.0
  9
$USERR4
 40
0.0
  9
$USERR5
 40
0.0
  9
$WORLDVIEW
 70
               1
  9
$SHADEDGE
 70
               3
  9
$SHADEDIF
 70
              70
  9
$TILEMODE
 70
               1
  9
$MAXACTVP
 70
              16
  9
$PINSBASE
 10
0.0
 20
0.0
 30
0.0
  9
$PLIMCHECK
 70
               0
  9
$PEXTMIN
 10
1.0000000000000000E+20
 20
1.0000000000000000E+20
 30
1.0000000000000000E+20
  9
$PEXTMAX
 10
-1.0000000000000000E+20
 20
-1.0000000000000000E+20
 30
-1.0000000000000000E+20
  9
$PLIMMIN
 10
0.0
 20
0.0
  9
$PLIMMAX
 10
12.0
 20
9.0
  9
$UNITMODE
 70
               0
  9
$VISRETAIN
 70
               0
  9
$PLINEGEN
 70
               1
  9
$PSLTSCALE
 70
               0
  9
$TREEDEPTH
 70
            3020
  9
$PICKSTYLE
 70
               1
  9
$CMLSTYLE
  2
Standard
  9
$CMLJUST
 70
               0
  9
$CMLSCALE
 40
1.0
  9
$SAVEIMAGES
 70
               0
  0
ENDSEC
  0
SECTION
  2
CLASSES
  0
CLASS
  1
LWPOLYLINE
  2
AcDbPolyline
  3
"AutoCAD"
 90
        0
280
               0
281
               1
  0
CLASS
  1
IMAGE
  2
AcDbRasterImage
  3
ISM
 90
      127
280
               0
281
               1
  0
CLASS
  1
OLE2FRAME
  2
AcDbOle2Frame
  3
""
 90
        0
280
               0
281
               1
  0
CLASS
  1
HATCH
  2
AcDbHatch
  3
"ACAD_SEDONA"
 90
        0
280
               0
281
               1
  0
CLASS
  1
DICTIONARYVAR
  2
AcDbDictionaryVar
  3
"AutoCAD"
 90
        0
280
               0
281
               0
  0
CLASS
  1
RASTERVARIABLES
  2
AcDbRasterVariables
  3
ISM
 90
        0
280
               0
281
               0
  0
CLASS
  1
IMAGEDEF
  2
AcDbRasterImageDef
  3
ISM
 90
        0
280
               0
281
               0
  0
CLASS
  1
IMAGEDEF_REACTOR
  2
AcDbRasterImageDefReactor
  3
ISM
 90
        1
280
               0
281
               0
  0
CLASS
  1
IDBUFFER
  2
AcDbIdBuffer
  3
"Acad"
 90
        0
280
               0
281
               0
  0
CLASS
  1
SPATIAL_FILTER
  2
AcDbSpatialFilter
  3
"Acad"
 90
        0
280
               0
281
               0
  0
CLASS
  1
XRECORD
  2
AcDbXrecord
  3
"<Built In>"
 90
        0
280
               0
281
               0
  0
CLASS
  1
SORTENTSTABLE
  2
AcDbSortentsTable
  3
"AutoCAD"
 90
        0
280
               0
281
               0
  0
CLASS
  1
LAYER_INDEX
  2
AcDbLayerIndex
  3
"Acad"
 90
        0
280
               0
281
               0
  0
CLASS
  1
SPATIAL_INDEX
  2
AcDbSpatialIndex
  3
"Acad"
 90
        0
280
               0
281
               0
  0
CLASS
  1
OBJECT_PTR
  2
CAseDLPNTableRecord
  3
"ASE-LPNTableRecord"
 90
        1
280
               0
281
               0
  0
CLASS
  1
LAYOUT
  2
AcDbLayout
  3
"AutoCAD 2000"
 90
        1
280
               0
281
               0
  0
CLASS
  1
PLOTSETTINGS
  2
AcDbPlotSettings
  3
"AutoCAD 2000"
 90
        1
280
               0
281
               0
  0
CLASS
  1
ACDBDICTIONARYWDFLT
  2
AcDbDictionaryWithDefault
  3
"AutoCAD 2000"
 90
        1
280
               0
281
               0
  0
CLASS
  1
ACDBPLACEHOLDER
  2
AcDbPlaceHolder
  3
"AutoCAD 2000"
 90
        1
280
               0
281
               0
  0
ENDSEC
  0
SECTION
  2
TABLES
  0
TABLE
  2
VPORT
  5
7
100
AcDbSymbolTable
 70
               1
  0
VPORT
  5
15
100
AcDbSymbolTableRecord
100
AcDbViewportTableRecord
  2
*ACTIVE
 70
               0
 10
0.0
 20
0.0
 11
1.0
 21
1.0
 12
3.1250061988830566
 22
0.2500002384185791
 13
0.0
 23
0.0
 14
1.0
 24
1.0
 15
0.0
 25
0.0
 16
0.0
 26
0.0
 36
1.0
 17
0.0
 27
0.0
 37
0.0
 40
559.03500048160549
 41
1.7320508075688772
 42
50.0
 43
0.0
 44
0.0
 50
0.0
 51
0.0
 71
               0
 72
             100
 73
               1
 74
               1
 75
               0
 76
               0
 77
               0
 78
               0
  0
ENDTAB
  0
TABLE
  2
LTYPE
  5
4
100
AcDbSymbolTable
 70
               5
  0
LTYPE
  5
11
100
AcDbSymbolTableRecord
100
AcDbLinetypeTableRecord
  2
BYBLOCK
 70
              64
  3

 72
              65
 73
               0
 40
0.0
  0
LTYPE
  5
12
100
AcDbSymbolTableRecord
100
AcDbLinetypeTableRecord
  2
BYLAYER
 70
              64
  3

 72
              65
 73
               0
 40
0.0
  0
LTYPE
  5
13
100
AcDbSymbolTableRecord
100
AcDbLinetypeTableRecord
  2
CONTINUOUS
 70
              64
  3
Solid line
 72
              65
 73
               0
 40
0.0
  0
LTYPE
  5
CB
100
AcDbSymbolTableRecord
100
AcDbLinetypeTableRecord
  2
PHANTOM
 70
              64
  3
Phantom ______  __  __  ______  __  __  ______
 72
              65
 73
               6
 40
30.0
 49
20.0
 74
               0
 49
-2.0
 74
               0
 49
2.0
 74
               0
 49
-2.0
 74
               0
 49
2.0
 74
               0
 49
-2.0
 74
               0
  0
LTYPE
  5
197
100
AcDbSymbolTableRecord
100
AcDbLinetypeTableRecord
  2
CENTER
 70
              64
  3
Center ____ _ ____ _ ____ _ ____ _ ____ _ ____
 72
              65
 73
               4
 40
26.0
 49
20.0
 74
               0
 49
-2.0
 74
               0
 49
2.0
 74
               0
 49
-2.0
 74
               0
  0
ENDTAB
  0
TABLE
  2
LAYER
  5
2
100
AcDbSymbolTable
 70
               2
  0
LAYER
  5
14
100
AcDbSymbolTableRecord
100
AcDbLayerTableRecord
  2
0
 70
               0
 62
               7
  6
CONTINUOUS
  0
LAYER
  5
1D
100
AcDbSymbolTableRecord
100
AcDbLayerTableRecord
  2
DEFPOINTS
 70
               0
 62
               7
  6
CONTINUOUS
  0
ENDTAB
  0
TABLE
  2
STYLE
  5
3
100
AcDbSymbolTable
 70
               1
  0
STYLE
  5
17
100
AcDbSymbolTableRecord
100
AcDbTextStyleTableRecord
  2
MX_NOTE_STANDARD
 70
               0
 40
0.0
 41
1.0
 50
0.0
 71
               0
 42
3.2000000476837158
  3
txt.shx
  4
extfont.shx
  0
ENDTAB
  0
TABLE
  2
VIEW
  5
5
100
AcDbSymbolTable
 70
               0
  0
ENDTAB
  0
TABLE
  2
UCS
  5
6
100
AcDbSymbolTable
 70
               0
  0
ENDTAB
  0
TABLE
  2
APPID
  5
8
100
AcDbSymbolTable
 70
               1
  0
APPID
  5
16
100
AcDbSymbolTableRecord
100
AcDbRegAppTableRecord
  2
ACAD
 70
               0
  0
ENDTAB
  0
TABLE
  2
DIMSTYLE
  5
9
100
AcDbSymbolTable
 70
               1
  0
DIMSTYLE
105
18
100
AcDbSymbolTableRecord
100
AcDbDimStyleTableRecord
  2
MXDIMSTYLE
 70
               0
  3

  4

  5

  6

  7

 40
1.0
 41
2.5
 42
1.5
 43
3.75
 44
1.5
 45
0.0
 46
0.0
 47
0.0
 48
0.0
 71
               0
 72
               0
 73
               0
 74
               0
 75
               0
 76
               0
 77
               1
 78
               8
140
3.2000000476837158
141
2.5
142
0.0
143
0.03937007874016
144
1.0
145
0.0
146
1.0
147
1.0
170
               0
171
               4
172
               1
173
               0
174
               0
175
               0
176
               0
177
               0
178
               0
270
               2
271
               4
272
               4
273
               2
274
               4
275
               0
280
               0
281
               0
282
               0
283
               1
284
               0
285
               0
286
               0
287
               3
288
               1
340
17
  0
ENDTAB
  0
TABLE
  2
BLOCK_RECORD
  5
1
100
AcDbSymbolTable
 70
               6
  0
BLOCK_RECORD
  5
A
100
AcDbSymbolTableRecord
100
AcDbBlockTableRecord
  2
*MODEL_SPACE
  0
BLOCK_RECORD
  5
B
100
AcDbSymbolTableRecord
100
AcDbBlockTableRecord
  2
*PAPER_SPACE
  0
BLOCK_RECORD
  5
1E
100
AcDbSymbolTableRecord
100
AcDbBlockTableRecord
  2
MRVS22-1
  0
BLOCK_RECORD
  5
1F
100
AcDbSymbolTableRecord
100
AcDbBlockTableRecord
  2
MRVS22-2
  0
BLOCK_RECORD
  5
20
100
AcDbSymbolTableRecord
100
AcDbBlockTableRecord
  2
MRVS22-3
  0
BLOCK_RECORD
  5
21
100
AcDbSymbolTableRecord
100
AcDbBlockTableRecord
  2
MRVS22-4
  0
BLOCK_RECORD
  5
22
100
AcDbSymbolTableRecord
100
AcDbBlockTableRecord
  2
MRVS22-5
  0
BLOCK_RECORD
  5
23
100
AcDbSymbolTableRecord
100
AcDbBlockTableRecord
  2
MRVS22-6
  0
ENDTAB
  0
ENDSEC
  0
SECTION
  2
BLOCKS
  0
BLOCK
  5
D
100
AcDbEntity
  8
0
100
AcDbBlockBegin
  2
*MODEL_SPACE
 70
               0
 10
0.0
 20
0.0
 30
0.0
  3
*MODEL_SPACE
  1

  0
ENDBLK
  5
E
100
AcDbEntity
  8
0
100
AcDbBlockEnd
  0
BLOCK
  5
F
100
AcDbEntity
 67
               1
  8
0
100
AcDbBlockBegin
  2
*PAPER_SPACE
 70
               0
 10
0.0
 20
0.0
 30
0.0
  3
*PAPER_SPACE
  1

  0
ENDBLK
  5
10
100
AcDbEntity
 67
               1
  8
0
100
AcDbBlockEnd
  0
BLOCK
  5
24
100
AcDbEntity
  8
0
100
AcDbBlockBegin
  2
MRVS22-1
 70
               0
 10
0.0
 20
0.0
 30
0.0
  3
MRVS22-1
  1

  0
LINE
  5
25
100
AcDbEntity
  8
0
  6
CONTINUOUS
 62
               2
100
AcDbLine
 10
5.5
 20
-53.0
 30
0.0
 11
5.5
 21
-46.0
 31
0.0
  0
LINE
  5
26
100
AcDbEntity
  8
0
  6
CONTINUOUS
 62
               2
100
AcDbLine
 10
186.5
 20
-53.0
 30
0.0
 11
186.5
 21
-46.0
 31
0.0
  0
LINE
  5
27
100
AcDbEntity
  8
0
  6
CONTINUOUS
 62
               7
100
AcDbLine
 10
76.649993896484375
 20
-46.20001220703125
 30
0.0
 11
76.649993896484375
 21
-41.79998779296875
 31
0.0
  0
LINE
  5
28
100
AcDbEntity
  8
0
  6
CONTINUOUS
 62
               7
100
AcDbLine
 10
75.0
 20
8.850006103515625
 30
0.0
 11
75.48114013671875
 21
8.850006103515625
 31
0.0
  0
LINE
  5
29
100
AcDbEntity
  8
0
  6
CONTINUOUS
 62
               7
100
AcDbLine
 10
75.0
 20
-46.850006103515625
 30
0.0
 11
75.48114013671875
 21
-46.850006103515625
 31
0.0
  0
LINE
  5
2A
100
AcDbEntity
  8
0
  6
CONTINUOUS
 62
               7
100
AcDbLine
 10
75.0
 20
-41.149993896484375
 30
0.0
 11
75.48114013671875
 21
-41.149993896484375
 31
0.0
  0
LINE
  5
2B
100
AcDbEntity
  8
0
  6
CONTINUOUS
 62
               7
100
AcDbLine
 10
75.0
 20
3.149993896484375
 30
0.0
 11
75.48114013671875
 21
3.149993896484375
 31
0.0
  0
LINE
  5
2C
100
AcDbEntity
  8
0
  6
CONTINUOUS
 62
               7
100
AcDbLine
 10
76.649993896484375
 20
3.79998779296875
 30
0.0
 11
76.649993896484375
 21
8.20001220703125
 31
0.0
  0
LINE
  5
2D
100
AcDbEntity
  8
0
  6
CONTINUOUS
 62
               7
100
AcDbLine
 10
15.350006103515625
 20
-46.20001220703125
 30
0.0
 11
15.350006103515625
 21
-41.79998779296875
 31
0.0
  0
LINE
  5
2E
100
AcDbEntity
  8
0
  6
CONTINUOUS
 62
               7
100
AcDbLine
 10
17.0
 20
-46.850006103515625
 30
0.0
 11
16.51885986328125
 21
-46.850006103515625
 31
0.0
  0
LINE
  5
2F
100
AcDbEntity
  8
0
  6
CONTINUOUS
 62
               7
100
AcDbLine
 10
17.0
 20
-41.149993896484375
 30
0.0
 11
16.51885986328125
 21
-41.149993896484375
 31
0.0
  0
LINE
  5
30
100
AcDbEntity
  8
0
  6
CONTINUOUS
 62
               7
100
AcDbLine
 10
17.0
 20
8.850006103515625
 30
0.0
 11
16.51885986328125
 21
8.850006103515625
 31
0.0
  0
LINE
  5
31
100
AcDbEntity
  8
0
  6
CONTINUOUS
 62
               7
100
AcDbLine
 10
17.0
 20
3.149993896484375
 30
0.0
 11
16.51885986328125
 21
3.149993896484375
 31
0.0
  0
LINE
  5
32
100
AcDbEntity
  8
0
  6
CONTINUOUS
 62
               7
100
AcDbLine
 10
15.350006103515625
 20
3.79998779296875
 30
0.0
 11
15.350006103515625
 21
8.20001220703125
 31
0.0
  0
LINE
  5
33
100
AcDbEntity
  8
0
  6
CONTINUOUS
 62
               2
100
AcDbLine
 10
71.039993286132812
 20
-42.0
 30
0.0
 11
60.960006713867188
 21
-42.0
 31
0.0
  0
LINE
  5
34
100
AcDbEntity
  8
0
  6
CONTINUOUS
 62
               7
100
AcDbLine
 10
75.0
 20
10.0
 30
0.0
 11
75.0
 21
-48.0
 31
0.0
  0
LINE
  5
35
100
AcDbEntity
  8
0
  6
CONTINUOUS
 62
               7
100
AcDbLine
 10
17.0
 20
-48.0
 30
0.0
 11
75.0
 21
-48.0
 31
0.0
  0
LINE
  5
36
100
AcDbEntity
  8
0
  6
CONTINUOUS
 62
               7
100
AcDbLine
 10
17.0
 20
-48.0
 30
0.0
 11
17.0
 21
10.0
 31
0.0
  0
LINE
  5
37
100
AcDbEntity
  8
0
  6
CONTINUOUS
 62
               7
100
AcDbLine
 10
18.600006103515625
 20
-48.0
 30
0.0
 11
18.600006103515625
 21
10.0
 31
0.0
  0
LINE
  5
38
100
AcDbEntity
  8
0
  6
CONTINUOUS
 62
               2
100
AcDbLine
 10
46.0
 20
21.785388338358132
 30
0.0
 11
46.0
 21
-61.759813729805629
 31
0.0
  0
LINE
  5
39
100
AcDbEntity
  8
0
  6
CONTINUOUS
 62
               2
100
AcDbLine
 10
71.039993286132812
 20
4.0
 30
0.0
 11
60.960006713867188
 21
4.0
 31
0.0
  0
LINE
  5
3A
100
AcDbEntity
  8
0
  6
CONTINUOUS
 62
               7
100
AcDbLine
 10
73.399993896484375
 20
10.0
 30
0.0
 11
73.399993896484375
 21
-48.0
 31
0.0
  0
LINE
  5
3B
100
AcDbEntity
  8
0
  6
CONTINUOUS
 62
               2
100
AcDbLine
 10
20.960006713867188
 20
4.0
 30
0.0
 11
31.039993286132813
 21
4.0
 31
0.0
  0
LINE
  5
3C
100
AcDbEntity
  8
0
  6
CONTINUOUS
 62
               2
100
AcDbLine
 10
26.0
 20
9.0399932861328125
 30
0.0
 11
26.0
 21
-1.0399932861328125
 31
0.0
  0
LINE
  5
3D
100
AcDbEntity
  8
0
  6
CONTINUOUS
 62
               7
100
AcDbLine
 10
75.0
 20
-37.500015258789063
 30
0.0
 11
179.70140838623047
 21
-37.500015258789063
 31
0.0
  0
LINE
  5
3E
100
AcDbEntity
  8
0
  6
CONTINUOUS
 62
               2
100
AcDbLine
 10
-9.0
 20
-19.0
 30
0.0
 11
201.0
 21
-19.0
 31
0.0
  0
LINE
  5
3F
100
AcDbEntity
  8
0
  6
CONTINUOUS
 62
               7
100
AcDbLine
 10
18.600006103515625
 20
-34.0
 30
0.0
 11
73.399993896484375
 21
-34.0
 31
0.0
  0
LINE
  5
40
100
AcDbEntity
  8
0
  6
CONTINUOUS
 62
               2
100
AcDbLine
 10
26.0
 20
-47.039993286132812
 30
0.0
 11
26.0
 21
-36.960006713867188
 31
0.0
  0
LINE
  5
41
100
AcDbEntity
  8
0
  6
CONTINUOUS
 62
               2
100
AcDbLine
 10
20.960006713867188
 20
-42.0
 30
0.0
 11
31.039993286132813
 21
-42.0
 31
0.0
  0
LINE
  5
42
100
AcDbEntity
  8
0
  6
CONTINUOUS
 62
               2
100
AcDbLine
 10
66.0
 20
9.0399932861328125
 30
0.0
 11
66.0
 21
-1.0399932861328125
 31
0.0
  0
LINE
  5
43
100
AcDbEntity
  8
0
  6
CONTINUOUS
 62
               7
100
AcDbLine
 10
18.600006103515625
 20
-4.0
 30
0.0
 11
73.399993896484375
 21
-4.0
 31
0.0
  0
LINE
  5
44
100
AcDbEntity
  8
0
  6
CONTINUOUS
 62
               7
100
AcDbLine
 10
75.0
 20
-0.4999847412109375
 30
0.0
 11
179.70138549804687
 21
-0.4999847412109375
 31
0.0
  0
LINE
  5
45
100
AcDbEntity
  8
0
  6
CONTINUOUS
 62
               7
100
AcDbLine
 10
17.0
 20
10.0
 30
0.0
 11
75.0
 21
10.0
 31
0.0
  0
LINE
  5
46
100
AcDbEntity
  8
0
  6
CONTINUOUS
 62
               7
100
AcDbLine
 10
12.298614501953125
 20
-0.4999847412109375
 30
0.0
 11
17.0
 21
-0.4999847412109375
 31
0.0
  0
LINE
  5
47
100
AcDbEntity
  8
0
  6
CONTINUOUS
 62
               7
100
AcDbLine
 10
12.298599243164063
 20
-37.500015258789063
 30
0.0
 11
17.0
 21
-37.500015258789063
 31
0.0
  0
LINE
  5
48
100
AcDbEntity
  8
0
  6
CONTINUOUS
 62
               2
100
AcDbLine
 10
66.0
 20
-47.039993286132812
 30
0.0
 11
66.0
 21
-36.960006713867188
 31
0.0
  0
LINE
  5
49
100
AcDbEntity
  8
0
  6
CONTINUOUS
 62
               7
100
AcDbLine
 10
198.0
 20
11.5
 30
0.0
 11
198.0
 21
-49.5
 31
0.0
  0
LINE
  5
4A
100
AcDbEntity
  8
0
  6
CONTINUOUS
 62
               2
100
AcDbLine
 10
192.0
 20
-7.28997802734375
 30
0.0
 11
192.0
 21
7.290008544921875
 31
0.0
  0
LINE
  5
4B
100
AcDbEntity
  8
0
  6
CONTINUOUS
 62
               2
100
AcDbLine
 10
192.0
 20
-30.71002197265625
 30
0.0
 11
192.0
 21
-45.28997802734375
 31
0.0
  0
LINE
  5
4C
100
AcDbEntity
  8
0
  6
CONTINUOUS
 62
               7
100
AcDbLine
 10
198.0
 20
11.5
 30
0.0
 11
180.0
 21
11.5
 31
0.0
  0
LINE
  5
4D
100
AcDbEntity
  8
0
  6
CONTINUOUS
 62
               7
100
AcDbLine
 10
198.0
 20
-49.5
 30
0.0
 11
180.0
 21
-49.5
 31
0.0
  0
LINE
  5
4E
100
AcDbEntity
  8
0
  6
CONTINUOUS
 62
               2
100
AcDbLine
 10
199.29000091552734
 20
-38.0
 30
0.0
 11
184.27830505371094
 21
-38.0
 31
0.0
  0
LINE
  5
4F
100
AcDbEntity
  8
0
  6
CONTINUOUS
 62
               2
100
AcDbLine
 10
199.29000091552734
 20
0.0
 30
0.0
 11
183.59585571289062
 21
0.0
 31
0.0
  0
LINE
  5
50
100
AcDbEntity
  8
0
  6
CONTINUOUS
 62
               7
100
AcDbLine
 10
186.5
 20
-49.5
 30
0.0
 11
186.5
 21
11.5
 31
0.0
  0
LINE
  5
51
100
AcDbEntity
  8
0
  6
CONTINUOUS
 62
               7
100
AcDbLine
 10
178.0
 20
4.0517578125
 30
0.0
 11
178.0
 21
5.54827880859375
 31
0.0
  0
LINE
  5
52
100
AcDbEntity
  8
0
  6
CONTINUOUS
 62
               7
100
AcDbLine
 10
178.0
 20
-42.0517578125
 30
0.0
 11
178.0
 21
-43.54827880859375
 31
0.0
  0
LINE
  5
53
100
AcDbEntity
  8
0
  6
CONTINUOUS
 62
               7
100
AcDbLine
 10
178.0
 20
-3.948272705078125
 30
0.0
 11
178.0
 21
-2.45172119140625
 31
0.0
  0
LINE
  5
54
100
AcDbEntity
  8
0
  6
CONTINUOUS
 62
               7
100
AcDbLine
 10
180.0
 20
11.5
 30
0.0
 11
180.0
 21
-49.5
 31
0.0
  0
LINE
  5
55
100
AcDbEntity
  8
0
  6
CONTINUOUS
 62
               7
100
AcDbLine
 10
178.0
 20
8.0
 30
0.0
 11
178.0
 21
10.0
 31
0.0
  0
LINE
  5
56
100
AcDbEntity
  8
0
  6
CONTINUOUS
 62
               7
100
AcDbLine
 10
178.24791248763177
 20
3.7562978791456771
 30
0.0
 11
179.99999747991933
 21
3.4473580135845623
 31
0.0
  0
LINE
  5
57
100
AcDbEntity
  8
0
  6
CONTINUOUS
 62
               7
100
AcDbLine
 10
178.24790333838064
 20
7.7062618237969218
 30
0.0
 11
180.00000335764162
 21
7.397319308574879
 31
0.0
  0
LINE
  5
58
100
AcDbEntity
  8
0
  6
CONTINUOUS
 62
               7
100
AcDbLine
 10
178.24790440488505
 20
10.293712118904295
 30
0.0
 11
180.00001193763273
 21
10.602655958956802
 31
0.0
  0
LINE
  5
59
100
AcDbEntity
  8
0
  6
CONTINUOUS
 62
               7
100
AcDbLine
 10
178.24791357995855
 20
-0.2437108467038343
 30
0.0
 11
179.99999857224611
 21
-0.5526507122649491
 31
0.0
  0
LINE
  5
5A
100
AcDbEntity
  8
0
  6
CONTINUOUS
 62
               7
100
AcDbLine
 10
178.24790914785808
 20
5.8437224423564658
 30
0.0
 11
180.00000165363235
 21
6.1526636327480446
 31
0.0
  0
LINE
  5
5B
100
AcDbEntity
  8
0
  6
CONTINUOUS
 62
               7
100
AcDbLine
 10
178.2479080555313
 20
1.8437137165069544
 30
0.0
 11
180.00000056130557
 21
2.1526549068985332
 31
0.0
  0
LINE
  5
5C
100
AcDbEntity
  8
0
  6
CONTINUOUS
 62
               7
100
AcDbLine
 10
178.24790696320451
 20
-2.156295009342557
 30
0.0
 11
179.99999946897879
 21
-1.8473538189509782
 31
0.0
  0
LINE
  5
5D
100
AcDbEntity
  8
0
  6
CONTINUOUS
 62
               7
100
AcDbLine
 10
178.24791467228533
 20
-4.2437195725533456
 30
0.0
 11
179.9999996645729
 21
-4.5526594381144605
 31
0.0
  0
LINE
  5
5E
100
AcDbEntity
  8
0
  6
CONTINUOUS
 62
               7
100
AcDbLine
 10
198.0
 20
-30.0
 30
0.0
 11
180.0
 21
-30.0
 31
0.0
  0
LINE
  5
5F
100
AcDbEntity
  8
0
  6
CONTINUOUS
 62
               7
100
AcDbLine
 10
198.0
 20
-8.0
 30
0.0
 11
180.0
 21
-8.0
 31
0.0
  0
LINE
  5
60
100
AcDbEntity
  8
0
  6
CONTINUOUS
 62
               7
100
AcDbLine
 10
178.0
 20
0.0517578125
 30
0.0
 11
178.0
 21
1.54827880859375
 31
0.0
  0
LINE
  5
61
100
AcDbEntity
  8
0
  6
CONTINUOUS
 62
               7
100
AcDbLine
 10
178.0
 20
-34.051727294921875
 30
0.0
 11
178.0
 21
-35.54827880859375
 31
0.0
  0
LINE
  5
62
100
AcDbEntity
  8
0
  6
CONTINUOUS
 62
               7
100
AcDbLine
 10
178.0
 20
-46.0
 30
0.0
 11
178.0
 21
-48.0
 31
0.0
  0
LINE
  5
63
100
AcDbEntity
  8
0
  6
CONTINUOUS
 62
               7
100
AcDbLine
 10
178.24790711822061
 20
-41.756320583228444
 30
0.0
 11
179.99999962399488
 21
-41.447379392836865
 31
0.0
  0
LINE
  5
64
100
AcDbEntity
  8
0
  6
CONTINUOUS
 62
               7
100
AcDbLine
 10
178.24790548245619
 20
-45.706283203049225
 30
0.0
 11
180.00000550171717
 21
-45.397340687827182
 31
0.0
  0
LINE
  5
65
100
AcDbEntity
  8
0
  6
CONTINUOUS
 62
               7
100
AcDbLine
 10
178.24790004664465
 20
-48.293702119379304
 30
0.0
 11
180.00001509287904
 21
-48.602647284262275
 31
0.0
  0
LINE
  5
66
100
AcDbEntity
  8
0
  6
CONTINUOUS
 62
               7
100
AcDbLine
 10
178.24791230310439
 20
-43.843713767661939
 30
0.0
 11
179.99999729539195
 21
-44.152653633223053
 31
0.0
  0
LINE
  5
67
100
AcDbEntity
  8
0
  6
CONTINUOUS
 62
               7
100
AcDbLine
 10
178.24790821054739
 20
-37.756311857378932
 30
0.0
 11
180.00000071632167
 21
-37.447370666987354
 31
0.0
  0
LINE
  5
68
100
AcDbEntity
  8
0
  6
CONTINUOUS
 62
               7
100
AcDbLine
 10
178.24790591145575
 20
-39.843735095759257
 30
0.0
 11
179.99999090374331
 21
-40.152674961320372
 31
0.0
  0
LINE
  5
69
100
AcDbEntity
  8
0
  6
CONTINUOUS
 62
               7
100
AcDbLine
 10
178.24790930287418
 20
-33.756303131529421
 30
0.0
 11
179.99999429516174
 21
-33.447363265968306
 31
0.0
  0
LINE
  5
6A
100
AcDbEntity
  8
0
  6
CONTINUOUS
 62
               7
100
AcDbLine
 10
178.24790481912896
 20
-35.843726369909746
 30
0.0
 11
179.99998981141653
 21
-36.152666235470861
 31
0.0
  0
LINE
  5
6B
100
AcDbEntity
  8
0
  6
CONTINUOUS
 62
               7
100
AcDbLine
 10
178.0
 20
-38.0517578125
 30
0.0
 11
178.0
 21
-39.54827880859375
 31
0.0
  0
LINE
  5
6C
100
AcDbEntity
  8
0
  6
CONTINUOUS
 62
               7
100
AcDbLine
 10
14.0
 20
-38.0517578125
 30
0.0
 11
14.0
 21
-39.54827880859375
 31
0.0
  0
LINE
  5
6D
100
AcDbEntity
  8
0
  6
CONTINUOUS
 62
               7
100
AcDbLine
 10
13.752102832668243
 20
-35.843715092301863
 30
0.0
 11
12.000017840380679
 21
-36.152654957862978
 31
0.0
  0
LINE
  5
6E
100
AcDbEntity
  8
0
  6
CONTINUOUS
 62
               7
100
AcDbLine
 10
13.752100998583956
 20
-33.756299382163888
 30
0.0
 11
12.000016006296391
 21
-33.447359516602774
 31
0.0
  0
LINE
  5
6F
100
AcDbEntity
  8
0
  6
CONTINUOUS
 62
               7
100
AcDbLine
 10
13.752101740341459
 20
-39.843723818151375
 30
0.0
 11
12.000016748053895
 21
-40.15266368371249
 31
0.0
  0
LINE
  5
70
100
AcDbEntity
  8
0
  6
CONTINUOUS
 62
               7
100
AcDbLine
 10
13.752102090910739
 20
-37.7563081080134
 30
0.0
 11
12.00000207164976
 21
-37.447365592791357
 31
0.0
  0
LINE
  5
71
100
AcDbEntity
  8
0
  6
CONTINUOUS
 62
               7
100
AcDbLine
 10
13.752095348692819
 20
-43.843702490054056
 30
0.0
 11
12.000010356405255
 21
-44.152642355615171
 31
0.0
  0
LINE
  5
72
100
AcDbEntity
  8
0
  6
CONTINUOUS
 62
               7
100
AcDbLine
 10
13.75210760515256
 20
-48.293690841771422
 30
0.0
 11
11.999992558918166
 21
-48.602636006654393
 31
0.0
  0
LINE
  5
73
100
AcDbEntity
  8
0
  6
CONTINUOUS
 62
               7
100
AcDbLine
 10
13.752097305515235
 20
-45.706278128853228
 30
0.0
 11
11.999997286254256
 21
-45.397335613631185
 31
0.0
  0
LINE
  5
74
100
AcDbEntity
  8
0
  6
CONTINUOUS
 62
               7
100
AcDbLine
 10
13.752103183237523
 20
-41.756316833862911
 30
0.0
 11
12.000003163976544
 21
-41.447374318640868
 31
0.0
  0
LINE
  5
75
100
AcDbEntity
  8
0
  6
CONTINUOUS
 62
               7
100
AcDbLine
 10
14.0
 20
-46.0
 30
0.0
 11
14.0
 21
-48.0
 31
0.0
  0
LINE
  5
76
100
AcDbEntity
  8
0
  6
CONTINUOUS
 62
               7
100
AcDbLine
 10
14.0
 20
-34.051727294921875
 30
0.0
 11
14.0
 21
-35.54827880859375
 31
0.0
  0
LINE
  5
77
100
AcDbEntity
  8
0
  6
CONTINUOUS
 62
               7
100
AcDbLine
 10
14.0
 20
0.0517578125
 30
0.0
 11
14.0
 21
1.54827880859375
 31
0.0
  0
LINE
  5
78
100
AcDbEntity
  8
0
  6
CONTINUOUS
 62
               7
100
AcDbLine
 10
-6.0
 20
-8.0
 30
0.0
 11
12.0
 21
-8.0
 31
0.0
  0
LINE
  5
79
100
AcDbEntity
  8
0
  6
CONTINUOUS
 62
               7
100
AcDbLine
 10
-6.0
 20
-30.0
 30
0.0
 11
12.0
 21
-30.0
 31
0.0
  0
LINE
  5
7A
100
AcDbEntity
  8
0
  6
CONTINUOUS
 62
               7
100
AcDbLine
 10
13.752092979511872
 20
-4.2437082949454634
 30
0.0
 11
12.000007987224308
 21
-4.5526481605065783
 31
0.0
  0
LINE
  5
7B
100
AcDbEntity
  8
0
  6
CONTINUOUS
 62
               7
100
AcDbLine
 10
13.752095824766911
 20
-2.1562899351465603
 30
0.0
 11
12.000010832479347
 21
-1.8473500695854455
 31
0.0
  0
LINE
  5
7C
100
AcDbEntity
  8
0
  6
CONTINUOUS
 62
               7
100
AcDbLine
 10
13.752094732440128
 20
1.8437187907029511
 30
0.0
 11
12.000009740152564
 21
2.1526586562640659
 31
0.0
  0
LINE
  5
7D
100
AcDbEntity
  8
0
  6
CONTINUOUS
 62
               7
100
AcDbLine
 10
13.752088340791488
 20
5.8436974626056326
 30
0.0
 11
12.000003348503924
 21
6.1526373281667475
 31
0.0
  0
LINE
  5
7E
100
AcDbEntity
  8
0
  6
CONTINUOUS
 62
               7
100
AcDbLine
 10
13.752094071838656
 20
-0.243699569095952
 30
0.0
 11
12.000009079551091
 21
-0.5526394346570669
 31
0.0
  0
LINE
  5
7F
100
AcDbEntity
  8
0
  6
CONTINUOUS
 62
               7
100
AcDbLine
 10
13.752100597251228
 20
10.293685814322998
 30
0.0
 11
11.999985551016835
 21
10.602630979205969
 31
0.0
  0
LINE
  5
80
100
AcDbEntity
  8
0
  6
CONTINUOUS
 62
               7
100
AcDbLine
 10
13.752104313416567
 20
7.706273101404804
 30
0.0
 11
12.000004294155588
 21
7.3973305861827612
 31
0.0
  0
LINE
  5
81
100
AcDbEntity
  8
0
  6
CONTINUOUS
 62
               7
100
AcDbLine
 10
13.752095164165439
 20
3.7563091567535594
 30
0.0
 11
12.000010171877875
 21
3.4473692911924445
 31
0.0
  0
LINE
  5
82
100
AcDbEntity
  8
0
  6
CONTINUOUS
 62
               7
100
AcDbLine
 10
14.0
 20
8.0
 30
0.0
 11
14.0
 21
10.0
 31
0.0
  0
LINE
  5
83
100
AcDbEntity
  8
0
  6
CONTINUOUS
 62
               7
100
AcDbLine
 10
12.0
 20
11.5
 30
0.0
 11
12.0
 21
-49.5
 31
0.0
  0
LINE
  5
84
100
AcDbEntity
  8
0
  6
CONTINUOUS
 62
               7
100
AcDbLine
 10
14.0
 20
-3.948272705078125
 30
0.0
 11
14.0
 21
-2.45172119140625
 31
0.0
  0
LINE
  5
85
100
AcDbEntity
  8
0
  6
CONTINUOUS
 62
               7
100
AcDbLine
 10
14.0
 20
-42.0517578125
 30
0.0
 11
14.0
 21
-43.54827880859375
 31
0.0
  0
LINE
  5
86
100
AcDbEntity
  8
0
  6
CONTINUOUS
 62
               7
100
AcDbLine
 10
14.0
 20
4.0517578125
 30
0.0
 11
14.0
 21
5.54827880859375
 31
0.0
  0
LINE
  5
87
100
AcDbEntity
  8
0
  6
CONTINUOUS
 62
               7
100
AcDbLine
 10
5.5
 20
-49.5
 30
0.0
 11
5.5
 21
11.5
 31
0.0
  0
LINE
  5
88
100
AcDbEntity
  8
0
  6
CONTINUOUS
 62
               2
100
AcDbLine
 10
-7.290008544921875
 20
0.0
 30
0.0
 11
8.404144287109375
 21
0.0
 31
0.0
  0
LINE
  5
89
100
AcDbEntity
  8
0
  6
CONTINUOUS
 62
               2
100
AcDbLine
 10
-7.290008544921875
 20
-38.0
 30
0.0
 11
7.7216949462890625
 21
-38.0
 31
0.0
  0
LINE
  5
8A
100
AcDbEntity
  8
0
  6
CONTINUOUS
 62
               7
100
AcDbLine
 10
-6.0
 20
-49.5
 30
0.0
 11
12.0
 21
-49.5
 31
0.0
  0
LINE
  5
8B
100
AcDbEntity
  8
0
  6
CONTINUOUS
 62
               7
100
AcDbLine
 10
-6.0
 20
11.5
 30
0.0
 11
12.0
 21
11.5
 31
0.0
  0
LINE
  5
8C
100
AcDbEntity
  8
0
  6
CONTINUOUS
 62
               2
100
AcDbLine
 10
0.0
 20
-30.71002197265625
 30
0.0
 11
0.0
 21
-45.28997802734375
 31
0.0
  0
LINE
  5
8D
100
AcDbEntity
  8
0
  6
CONTINUOUS
 62
               2
100
AcDbLine
 10
0.0
 20
-7.28997802734375
 30
0.0
 11
0.0
 21
7.290008544921875
 31
0.0
  0
LINE
  5
8E
100
AcDbEntity
  8
0
  6
CONTINUOUS
 62
               7
100
AcDbLine
 10
-6.0
 20
11.5
 30
0.0
 11
-6.0
 21
-49.5
 31
0.0
  0
LINE
  5
8F
100
AcDbEntity
  8
0
  6
CONTINUOUS
 62
               7
100
AcDbLine
 10
193.0
 20
-55.699996948242188
 30
0.0
 11
-1.0
 21
-55.699996948242188
 31
0.0
  0
LINE
  5
90
100
AcDbEntity
  8
0
  6
CONTINUOUS
 62
               7
100
AcDbLine
 10
193.0
 20
-55.699996948242188
 30
0.0
 11
193.0
 21
-49.5
 31
0.0
  0
LINE
  5
91
100
AcDbEntity
  8
0
  6
CONTINUOUS
 62
               7
100
AcDbLine
 10
-1.0
 20
-55.699996948242188
 30
0.0
 11
-1.0
 21
-49.5
 31
0.0
  0
LINE
  5
92
100
AcDbEntity
  8
0
  6
CONTINUOUS
 62
               7
100
AcDbLine
 10
180.0
 20
-48.5
 30
0.0
 11
12.582046508789063
 21
-48.5
 31
0.0
  0
ARC
  5
93
100
AcDbEntity
  8
0
  6
CONTINUOUS
 62
               7
100
AcDbCircle
 10
74.89483642578125
 20
-44.41973876953125
 30
0.0
 40
2.5
100
AcDbArc
 50
283.5636671870891
 51
314.59315169965993
  0
ARC
  5
94
100
AcDbEntity
  8
0
  6
CONTINUOUS
 62
               7
100
AcDbCircle
 10
74.89483642578125
 20
5.58026123046875
 30
0.0
 40
2.5
100
AcDbArc
 50
283.5636671870891
 51
314.59315169965993
  0
ARC
  5
95
100
AcDbEntity
  8
0
  6
CONTINUOUS
 62
               7
100
AcDbCircle
 10
74.89483642578125
 20
6.41973876953125
 30
0.0
 40
2.5
100
AcDbArc
 50
45.406848300340066
 51
76.436332812910877
  0
ARC
  5
96
100
AcDbEntity
  8
0
  6
CONTINUOUS
 62
               7
100
AcDbCircle
 10
74.89483642578125
 20
-43.58026123046875
 30
0.0
 40
2.5
100
AcDbArc
 50
45.406848300340066
 51
76.436332812910877
  0
ARC
  5
97
100
AcDbEntity
  8
0
  6
CONTINUOUS
 62
               7
100
AcDbCircle
 10
17.10516357421875
 20
-44.41973876953125
 30
0.0
 40
2.5
100
AcDbArc
 50
225.40684670647832
 51
256.43633463414369
  0
ARC
  5
98
100
AcDbEntity
  8
0
  6
CONTINUOUS
 62
               7
100
AcDbCircle
 10
17.10516357421875
 20
-43.58026123046875
 30
0.0
 40
2.5
100
AcDbArc
 50
103.56366536585629
 51
134.59315329352168
  0
ARC
  5
99
100
AcDbEntity
  8
0
  6
CONTINUOUS
 62
               7
100
AcDbCircle
 10
17.10516357421875
 20
5.58026123046875
 30
0.0
 40
2.5
100
AcDbArc
 50
225.40684670647832
 51
256.43633463414369
  0
ARC
  5
9A
100
AcDbEntity
  8
0
  6
CONTINUOUS
 62
               7
100
AcDbCircle
 10
17.10516357421875
 20
6.41973876953125
 30
0.0
 40
2.5
100
AcDbArc
 50
103.56366536585629
 51
134.59315329352168
  0
CIRCLE
  5
9B
100
AcDbEntity
  8
0
  6
CONTINUOUS
 62
               7
100
AcDbCircle
 10
26.0
 20
4.0
 30
0.0
 40
2.0
  0
CIRCLE
  5
9C
100
AcDbEntity
  8
0
  6
CONTINUOUS
 62
               2
100
AcDbCircle
 10
26.0
 20
4.0
 30
0.0
 40
2.5
  0
CIRCLE
  5
9D
100
AcDbEntity
  8
0
  6
CONTINUOUS
 62
               2
100
AcDbCircle
 10
66.0
 20
4.0
 30
0.0
 40
2.5
  0
CIRCLE
  5
9E
100
AcDbEntity
  8
0
  6
CONTINUOUS
 62
               7
100
AcDbCircle
 10
66.0
 20
4.0
 30
0.0
 40
2.0
  0
CIRCLE
  5
9F
100
AcDbEntity
  8
0
  6
CONTINUOUS
 62
               7
100
AcDbCircle
 10
26.0
 20
-42.0
 30
0.0
 40
2.0
  0
CIRCLE
  5
A0
100
AcDbEntity
  8
0
  6
CONTINUOUS
 62
               2
100
AcDbCircle
 10
26.0
 20
-42.0
 30
0.0
 40
2.5
  0
CIRCLE
  5
A1
100
AcDbEntity
  8
0
  6
CONTINUOUS
 62
               2
100
AcDbCircle
 10
66.0
 20
-42.0
 30
0.0
 40
2.5
  0
CIRCLE
  5
A2
100
AcDbEntity
  8
0
  6
CONTINUOUS
 62
               7
100
AcDbCircle
 10
66.0
 20
-42.0
 30
0.0
 40
2.0
  0
CIRCLE
  5
A3
100
AcDbEntity
  8
0
  6
CONTINUOUS
 62
               7
100
AcDbCircle
 10
192.0
 20
0.0
 30
0.0
 40
4.75
  0
CIRCLE
  5
A4
100
AcDbEntity
  8
0
  6
CONTINUOUS
 62
               7
100
AcDbCircle
 10
192.0
 20
0.0
 30
0.0
 40
2.9000000953674316
  0
CIRCLE
  5
A5
100
AcDbEntity
  8
0
  6
CONTINUOUS
 62
               7
100
AcDbCircle
 10
192.0
 20
-38.0
 30
0.0
 40
4.75
  0
ARC
  5
A6
100
AcDbEntity
  8
0
  6
CONTINUOUS
 62
               7
100
AcDbCircle
 10
178.30000305175781
 20
-2.45172119140625
 30
0.0
 40
0.300000011920929
100
AcDbArc
 50
100.0000005060238
 51
180.00000500895632
  0
ARC
  5
A7
100
AcDbEntity
  8
0
  6
CONTINUOUS
 62
               7
100
AcDbCircle
 10
178.30000305175781
 20
0.0517578125
 30
0.0
 40
0.300000011920929
100
AcDbArc
 50
179.99999134857799
 51
260.0000026816997
  0
ARC
  5
A8
100
AcDbEntity
  8
0
  6
CONTINUOUS
 62
               7
100
AcDbCircle
 10
178.30000305175781
 20
1.54827880859375
 30
0.0
 40
0.300000011920929
100
AcDbArc
 50
100.0000005060238
 51
180.00000500895632
  0
CIRCLE
  5
A9
100
AcDbEntity
  8
0
  6
CONTINUOUS
 62
               7
100
AcDbCircle
 10
192.0
 20
-38.0
 30
0.0
 40
2.9000000953674316
  0
ARC
  5
AA
100
AcDbEntity
  8
0
  6
CONTINUOUS
 62
               7
100
AcDbCircle
 10
178.30000305175781
 20
4.0517578125
 30
0.0
 40
0.300000011920929
100
AcDbArc
 50
179.99999134857799
 51
260.0000026816997
  0
ARC
  5
AB
100
AcDbEntity
  8
0
  6
CONTINUOUS
 62
               7
100
AcDbCircle
 10
178.30000305175781
 20
8.001708984375
 30
0.0
 40
0.300000011920929
100
AcDbArc
 50
179.99999134857799
 51
260.0000026816997
  0
ARC
  5
AC
100
AcDbEntity
  8
0
  6
CONTINUOUS
 62
               7
100
AcDbCircle
 10
178.30000305175781
 20
9.998260498046875
 30
0.0
 40
0.300000011920929
100
AcDbArc
 50
100.0000005060238
 51
180.00000500895632
  0
ARC
  5
AD
100
AcDbEntity
  8
0
  6
CONTINUOUS
 62
               7
100
AcDbCircle
 10
178.30000305175781
 20
5.54827880859375
 30
0.0
 40
0.300000011920929
100
AcDbArc
 50
100.0000005060238
 51
180.00000500895632
  0
ARC
  5
AE
100
AcDbEntity
  8
0
  6
CONTINUOUS
 62
               7
100
AcDbCircle
 10
178.30000305175781
 20
-43.54827880859375
 30
0.0
 40
0.300000011920929
100
AcDbArc
 50
179.99999134857799
 51
260.0000026816997
  0
ARC
  5
AF
100
AcDbEntity
  8
0
  6
CONTINUOUS
 62
               7
100
AcDbCircle
 10
178.30000305175781
 20
-47.998260498046875
 30
0.0
 40
0.300000011920929
100
AcDbArc
 50
179.99999134857799
 51
260.0000026816997
  0
ARC
  5
B0
100
AcDbEntity
  8
0
  6
CONTINUOUS
 62
               7
100
AcDbCircle
 10
178.30000305175781
 20
-46.001708984375
 30
0.0
 40
0.300000011920929
100
AcDbArc
 50
100.0000005060238
 51
180.00000500895632
  0
ARC
  5
B1
100
AcDbEntity
  8
0
  6
CONTINUOUS
 62
               7
100
AcDbCircle
 10
178.30000305175781
 20
-42.0517578125
 30
0.0
 40
0.300000011920929
100
AcDbArc
 50
100.0000005060238
 51
180.00000500895632
  0
ARC
  5
B2
100
AcDbEntity
  8
0
  6
CONTINUOUS
 62
               7
100
AcDbCircle
 10
178.30000305175781
 20
-39.54827880859375
 30
0.0
 40
0.300000011920929
100
AcDbArc
 50
179.99999134857799
 51
260.0000026816997
  0
ARC
  5
B3
100
AcDbEntity
  8
0
  6
CONTINUOUS
 62
               7
100
AcDbCircle
 10
178.30000305175781
 20
-38.0517578125
 30
0.0
 40
0.300000011920929
100
AcDbArc
 50
100.0000005060238
 51
180.00000500895632
  0
ARC
  5
B4
100
AcDbEntity
  8
0
  6
CONTINUOUS
 62
               7
100
AcDbCircle
 10
178.30000305175781
 20
-35.54827880859375
 30
0.0
 40
0.300000011920929
100
AcDbArc
 50
179.99999134857799
 51
260.0000026816997
  0
ARC
  5
B5
100
AcDbEntity
  8
0
  6
CONTINUOUS
 62
               7
100
AcDbCircle
 10
178.30000305175781
 20
-34.051727294921875
 30
0.0
 40
0.300000011920929
100
AcDbArc
 50
100.0000005060238
 51
180.00000500895632
  0
ARC
  5
B6
100
AcDbEntity
  8
0
  6
CONTINUOUS
 62
               7
100
AcDbCircle
 10
178.30000305175781
 20
-3.948272705078125
 30
0.0
 40
0.300000011920929
100
AcDbArc
 50
179.99999134857799
 51
260.0000026816997
  0
ARC
  5
B7
100
AcDbEntity
  8
0
  6
CONTINUOUS
 62
               7
100
AcDbCircle
 10
13.699996948242188
 20
-3.948272705078125
 30
0.0
 40
0.300000011920929
100
AcDbArc
 50
280.00000232725665
 51
0.0000050089565381
  0
ARC
  5
B8
100
AcDbEntity
  8
0
  6
CONTINUOUS
 62
               7
100
AcDbCircle
 10
13.699996948242188
 20
-34.051727294921875
 30
0.0
 40
0.300000011920929
100
AcDbArc
 50
359.99999499104388
 51
79.999997672743362
  0
ARC
  5
B9
100
AcDbEntity
  8
0
  6
CONTINUOUS
 62
               7
100
AcDbCircle
 10
13.699996948242188
 20
-35.54827880859375
 30
0.0
 40
0.300000011920929
100
AcDbArc
 50
280.00000232725665
 51
0.0000050089565381
  0
ARC
  5
BA
100
AcDbEntity
  8
0
  6
CONTINUOUS
 62
               7
100
AcDbCircle
 10
13.699996948242188
 20
-38.0517578125
 30
0.0
 40
0.300000011920929
100
AcDbArc
 50
359.99999499104388
 51
79.999997672743362
  0
ARC
  5
BB
100
AcDbEntity
  8
0
  6
CONTINUOUS
 62
               7
100
AcDbCircle
 10
13.699996948242188
 20
-39.54827880859375
 30
0.0
 40
0.300000011920929
100
AcDbArc
 50
280.00000232725665
 51
0.0000050089565381
  0
ARC
  5
BC
100
AcDbEntity
  8
0
  6
CONTINUOUS
 62
               7
100
AcDbCircle
 10
13.699996948242188
 20
-42.0517578125
 30
0.0
 40
0.300000011920929
100
AcDbArc
 50
359.99999499104388
 51
79.999997672743362
  0
ARC
  5
BD
100
AcDbEntity
  8
0
  6
CONTINUOUS
 62
               7
100
AcDbCircle
 10
13.699996948242188
 20
-46.001708984375
 30
0.0
 40
0.300000011920929
100
AcDbArc
 50
359.99999499104388
 51
79.999997672743362
  0
ARC
  5
BE
100
AcDbEntity
  8
0
  6
CONTINUOUS
 62
               7
100
AcDbCircle
 10
13.699996948242188
 20
-47.998260498046875
 30
0.0
 40
0.300000011920929
100
AcDbArc
 50
280.00000232725665
 51
0.0000050089565381
  0
ARC
  5
BF
100
AcDbEntity
  8
0
  6
CONTINUOUS
 62
               7
100
AcDbCircle
 10
13.699996948242188
 20
-43.54827880859375
 30
0.0
 40
0.300000011920929
100
AcDbArc
 50
280.00000232725665
 51
0.0000050089565381
  0
ARC
  5
C0
100
AcDbEntity
  8
0
  6
CONTINUOUS
 62
               7
100
AcDbCircle
 10
13.699996948242188
 20
5.54827880859375
 30
0.0
 40
0.300000011920929
100
AcDbArc
 50
359.99999499104388
 51
79.999997672743362
  0
ARC
  5
C1
100
AcDbEntity
  8
0
  6
CONTINUOUS
 62
               7
100
AcDbCircle
 10
13.699996948242188
 20
9.998260498046875
 30
0.0
 40
0.300000011920929
100
AcDbArc
 50
359.99999499104388
 51
79.999997672743362
  0
ARC
  5
C2
100
AcDbEntity
  8
0
  6
CONTINUOUS
 62
               7
100
AcDbCircle
 10
13.699996948242188
 20
8.001708984375
 30
0.0
 40
0.300000011920929
100
AcDbArc
 50
280.00000232725665
 51
0.0000050089565381
  0
ARC
  5
C3
100
AcDbEntity
  8
0
  6
CONTINUOUS
 62
               7
100
AcDbCircle
 10
13.699996948242188
 20
4.0517578125
 30
0.0
 40
0.300000011920929
100
AcDbArc
 50
280.00000232725665
 51
0.0000050089565381
  0
CIRCLE
  5
C4
100
AcDbEntity
  8
0
  6
CONTINUOUS
 62
               7
100
AcDbCircle
 10
0.0
 20
-38.0
 30
0.0
 40
2.9000000953674316
  0
ARC
  5
C5
100
AcDbEntity
  8
0
  6
CONTINUOUS
 62
               7
100
AcDbCircle
 10
13.699996948242188
 20
1.54827880859375
 30
0.0
 40
0.300000011920929
100
AcDbArc
 50
359.99999499104388
 51
79.999997672743362
  0
ARC
  5
C6
100
AcDbEntity
  8
0
  6
CONTINUOUS
 62
               7
100
AcDbCircle
 10
13.699996948242188
 20
0.0517578125
 30
0.0
 40
0.300000011920929
100
AcDbArc
 50
280.00000232725665
 51
0.0000050089565381
  0
ARC
  5
C7
100
AcDbEntity
  8
0
  6
CONTINUOUS
 62
               7
100
AcDbCircle
 10
13.699996948242188
 20
-2.45172119140625
 30
0.0
 40
0.300000011920929
100
AcDbArc
 50
359.99999499104388
 51
79.999997672743362
  0
CIRCLE
  5
C8
100
AcDbEntity
  8
0
  6
CONTINUOUS
 62
               7
100
AcDbCircle
 10
0.0
 20
-38.0
 30
0.0
 40
4.75
  0
CIRCLE
  5
C9
100
AcDbEntity
  8
0
  6
CONTINUOUS
 62
               7
100
AcDbCircle
 10
0.0
 20
0.0
 30
0.0
 40
2.9000000953674316
  0
CIRCLE
  5
CA
100
AcDbEntity
  8
0
  6
CONTINUOUS
 62
               7
100
AcDbCircle
 10
0.0
 20
0.0
 30
0.0
 40
4.75
  0
LINE
  5
CC
100
AcDbEntity
  8
0
  6
PHANTOM
 62
               3
100
AcDbLine
 10
116.0
 20
51.0
 30
0.0
 11
116.0
 21
-75.095789206488121
 31
0.0
  0
ENDBLK
  5
CD
100
AcDbEntity
  8
0
100
AcDbBlockEnd
  0
BLOCK
  5
CE
100
AcDbEntity
  8
0
100
AcDbBlockBegin
  2
MRVS22-2
 70
               0
 10
0.0
 20
0.0
 30
0.0
  3
MRVS22-2
  1

  0
CIRCLE
  5
CF
100
AcDbEntity
  8
0
  6
CONTINUOUS
 62
               7
100
AcDbCircle
 10
26.0
 20
8.0
 30
0.0
 40
2.0
  0
CIRCLE
  5
D0
100
AcDbEntity
  8
0
  6
CONTINUOUS
 62
               7
100
AcDbCircle
 10
16.5
 20
-28.699981689453125
 30
0.0
 40
5.5
  0
ARC
  5
D1
100
AcDbEntity
  8
0
  6
CONTINUOUS
 62
               7
100
AcDbCircle
 10
9.0
 20
-55.20001220703125
 30
0.0
 40
0.5
100
AcDbArc
 50
269.99999499104388
 51
0.0000025044781673
  0
CIRCLE
  5
D2
100
AcDbEntity
  8
0
  6
CONTINUOUS
 62
               7
100
AcDbCircle
 10
26.0
 20
-46.0
 30
0.0
 40
2.0
  0
ARC
  5
D3
100
AcDbEntity
  8
0
  6
CONTINUOUS
 62
               7
100
AcDbCircle
 10
6.0
 20
-53.100006103515625
 30
0.0
 40
2.0999999046325684
100
AcDbArc
 50
359.99999567428898
 51
180.00000068324533
  0
ARC
  5
D4
100
AcDbEntity
  8
0
  6
CONTINUOUS
 62
               7
100
AcDbCircle
 10
3.0
 20
-55.20001220703125
 30
0.0
 40
0.5
100
AcDbArc
 50
179.99999749552182
 51
270.00000865142221
  0
ARC
  5
D5
100
AcDbEntity
  8
0
  6
CONTINUOUS
 62
               7
100
AcDbCircle
 10
29.5
 20
9.0
 30
0.0
 40
1.0
100
AcDbArc
 50
359.99999567428898
 51
90.000005008956336
  0
ARC
  5
D6
100
AcDbEntity
  8
0
  6
CONTINUOUS
 62
               7
100
AcDbCircle
 10
29.5
 20
-47.0
 30
0.0
 40
1.0
100
AcDbArc
 50
269.99999499104388
 51
359.99999567428898
  0
ARC
  5
D7
100
AcDbEntity
  8
0
  6
CONTINUOUS
 62
               7
100
AcDbCircle
 10
28.0
 20
-48.5
 30
0.0
 40
1.0
100
AcDbArc
 50
269.99999499104388
 51
359.99999567428898
  0
ARC
  5
D8
100
AcDbEntity
  8
0
  6
CONTINUOUS
 62
               7
100
AcDbCircle
 10
28.0
 20
10.5
 30
0.0
 40
1.0
100
AcDbArc
 50
359.99999567428898
 51
90.000005008956336
  0
ARC
  5
D9
100
AcDbEntity
  8
0
  6
CONTINUOUS
 62
               7
100
AcDbCircle
 10
30.0
 20
9.0
 30
0.0
 40
1.0
100
AcDbArc
 50
359.99999567428898
 51
90.000005008956336
  0
ARC
  5
DA
100
AcDbEntity
  8
0
  6
CONTINUOUS
 62
               7
100
AcDbCircle
 10
30.0
 20
-47.0
 30
0.0
 40
1.0
100
AcDbArc
 50
269.99999499104388
 51
359.99999567428898
  0
CIRCLE
  5
DB
100
AcDbEntity
  8
0
  6
CONTINUOUS
 62
               7
100
AcDbCircle
 10
16.5
 20
-28.699981689453125
 30
0.0
 40
4.0
  0
CIRCLE
  5
DC
100
AcDbEntity
  8
0
  6
CONTINUOUS
 62
               7
100
AcDbCircle
 10
10.499984741210937
 20
-19.0
 30
0.0
 40
3.25
  0
CIRCLE
  5
DD
100
AcDbEntity
  8
0
  6
CONTINUOUS
 62
               7
100
AcDbCircle
 10
22.5
 20
-19.0
 30
0.0
 40
3.25
  0
LINE
  5
DE
100
AcDbEntity
  8
0
  6
CONTINUOUS
 62
               7
100
AcDbLine
 10
0.0
 20
-30.0
 30
0.0
 11
0.0
 21
-49.5
 31
0.0
  0
LINE
  5
DF
100
AcDbEntity
  8
0
  6
CONTINUOUS
 62
               7
100
AcDbLine
 10
0.0000147176569953
 20
-7.9999792019980305
 30
0.0
 11
0.3000193519710592
 21
-8.2999838363120944
 31
0.0
  0
LINE
  5
E0
100
AcDbEntity
  8
0
  6
CONTINUOUS
 62
               7
100
AcDbLine
 10
0.0000039280639612
 20
-29.999991767374013
 30
0.0
 11
0.3000193519710592
 21
-29.699976343466915
 31
0.0
  0
LINE
  5
E1
100
AcDbEntity
  8
0
  6
CONTINUOUS
 62
               7
100
AcDbLine
 10
0.3000030517578125
 20
-8.29998779296875
 30
0.0
 11
0.3000030517578125
 21
-29.70001220703125
 31
0.0
  0
LINE
  5
E2
100
AcDbEntity
  8
0
  6
CONTINUOUS
 62
               7
100
AcDbLine
 10
3.899993896484375
 20
-53.100006103515625
 30
0.0
 11
3.899993896484375
 21
-54.699981689453125
 31
0.0
  0
LINE
  5
E3
100
AcDbEntity
  8
0
  6
CONTINUOUS
 62
               7
100
AcDbLine
 10
29.000007740176898
 20
-31.499998754554781
 30
0.0
 11
28.499996419789113
 21
-30.999987434166997
 31
0.0
  0
LINE
  5
E4
100
AcDbEntity
  8
0
  6
CONTINUOUS
 62
               7
100
AcDbLine
 10
9.0
 20
-55.70001220703125
 30
0.0
 11
7.600006103515625
 21
-55.70001220703125
 31
0.0
  0
LINE
  5
E5
100
AcDbEntity
  8
0
  6
CONTINUOUS
 62
               7
100
AcDbLine
 10
3.0
 20
-55.70001220703125
 30
0.0
 11
4.399993896484375
 21
-55.70001220703125
 31
0.0
  0
LINE
  5
E6
100
AcDbEntity
  8
0
  6
CONTINUOUS
 62
               7
100
AcDbLine
 10
28.5
 20
-7.0
 30
0.0
 11
28.5
 21
-31.0
 31
0.0
  0
LINE
  5
E7
100
AcDbEntity
  8
0
  6
CONTINUOUS
 62
               7
100
AcDbLine
 10
29.000013134973415
 20
-6.4999991887998476
 30
0.0
 11
28.50000181458563
 21
-7.0000105091876321
 31
0.0
  0
LINE
  5
E8
100
AcDbEntity
  8
0
  6
CONTINUOUS
 62
               7
100
AcDbLine
 10
8.100006103515625
 20
-53.100006103515625
 30
0.0
 11
8.100006103515625
 21
-54.70001220703125
 31
0.0
  0
LINE
  5
E9
100
AcDbEntity
  8
0
  6
CONTINUOUS
 62
               7
100
AcDbLine
 10
9.5
 20
10.5
 30
0.0
 11
9.5
 21
11.5
 31
0.0
  0
LINE
  5
EA
100
AcDbEntity
  8
0
  6
CONTINUOUS
 62
               7
100
AcDbLine
 10
29.0
 20
10.5
 30
0.0
 11
29.0
 21
-6.5
 31
0.0
  0
LINE
  5
EB
100
AcDbEntity
  8
0
  6
CONTINUOUS
 62
               7
100
AcDbLine
 10
29.0
 20
-31.5
 30
0.0
 11
29.0
 21
-48.5
 31
0.0
  0
LINE
  5
EC
100
AcDbEntity
  8
0
  6
CONTINUOUS
 62
               7
100
AcDbLine
 10
9.5
 20
-55.20001220703125
 30
0.0
 11
9.5
 21
-48.5
 31
0.0
  0
LINE
  5
ED
100
AcDbEntity
  8
0
  6
CONTINUOUS
 62
               7
100
AcDbLine
 10
30.5
 20
9.0
 30
0.0
 11
30.5
 21
-47.0
 31
0.0
  0
LINE
  5
EE
100
AcDbEntity
  8
0
  6
CONTINUOUS
 62
               7
100
AcDbLine
 10
9.5
 20
10.5
 30
0.0
 11
2.5
 21
10.5
 31
0.0
  0
LINE
  5
EF
100
AcDbEntity
  8
0
  6
CONTINUOUS
 62
               7
100
AcDbLine
 10
2.5
 20
-55.20001220703125
 30
0.0
 11
2.5
 21
-48.5
 31
0.0
  0
LINE
  5
F0
100
AcDbEntity
  8
0
  6
CONTINUOUS
 62
               7
100
AcDbLine
 10
2.5
 20
11.5
 30
0.0
 11
0.0
 21
11.5
 31
0.0
  0
LINE
  5
F1
100
AcDbEntity
  8
0
  6
CONTINUOUS
 62
               7
100
AcDbLine
 10
2.5
 20
10.5
 30
0.0
 11
2.5
 21
11.5
 31
0.0
  0
LINE
  5
F2
100
AcDbEntity
  8
0
  6
CONTINUOUS
 62
               7
100
AcDbLine
 10
31.0
 20
-34.0
 30
0.0
 11
31.0
 21
-47.0
 31
0.0
  0
LINE
  5
F3
100
AcDbEntity
  8
0
  6
CONTINUOUS
 62
               7
100
AcDbLine
 10
31.000009863355899
 20
-33.999990618935499
 30
0.0
 11
30.500020122154183
 21
-33.500000877733783
 31
0.0
  0
LINE
  5
F4
100
AcDbEntity
  8
0
  6
CONTINUOUS
 62
               7
100
AcDbLine
 10
31.000015258152416
 20
-4.0000073244191299
 30
0.0
 11
30.5000255169507
 21
-4.4999970656208461
 31
0.0
  0
LINE
  5
F5
100
AcDbEntity
  8
0
  6
CONTINUOUS
 62
               7
100
AcDbLine
 10
11.221664428710937
 20
-17.75
 30
0.0
 11
9.7783050537109375
 21
-17.75
 31
0.0
  0
LINE
  5
F6
100
AcDbEntity
  8
0
  6
CONTINUOUS
 62
               7
100
AcDbLine
 10
11.22172333778326
 20
-17.750009331782167
 30
0.0
 11
11.94340302528326
 21
-18.999995194887561
 31
0.0
  0
LINE
  5
F7
100
AcDbEntity
  8
0
  6
CONTINUOUS
 62
               7
100
AcDbLine
 10
9.7783173366774463
 20
-17.749983874191457
 30
0.0
 11
9.0566223903883838
 21
-18.999996166294295
 31
0.0
  0
LINE
  5
F8
100
AcDbEntity
  8
0
  6
CONTINUOUS
 62
               7
100
AcDbLine
 10
9.7783395546812244
 20
-20.249995194887561
 30
0.0
 11
9.0566598671812244
 21
-19.000009331782167
 31
0.0
  0
LINE
  5
F9
100
AcDbEntity
  8
0
  6
CONTINUOUS
 62
               7
100
AcDbLine
 10
11.221685860990419
 20
-20.249996166294295
 30
0.0
 11
11.943380807279482
 21
-18.999983874191457
 31
0.0
  0
LINE
  5
FA
100
AcDbEntity
  8
0
  6
CONTINUOUS
 62
               7
100
AcDbLine
 10
11.221664428710937
 20
-20.25
 30
0.0
 11
9.7783050537109375
 21
-20.25
 31
0.0
  0
LINE
  5
FB
100
AcDbEntity
  8
0
  6
CONTINUOUS
 62
               7
100
AcDbLine
 10
21.7783203125
 20
-17.75
 30
0.0
 11
23.2216796875
 21
-17.75
 31
0.0
  0
LINE
  5
FC
100
AcDbEntity
  8
0
  6
CONTINUOUS
 62
               7
100
AcDbLine
 10
21.778302766727847
 20
-17.749975648750478
 30
0.0
 11
21.056607820438785
 21
-18.999987940853316
 31
0.0
  0
LINE
  5
FD
100
AcDbEntity
  8
0
  6
CONTINUOUS
 62
               7
100
AcDbLine
 10
23.221695553334939
 20
-17.750025186617677
 30
0.0
 11
23.943375240834939
 21
-19.000011049723071
 31
0.0
  0
LINE
  5
FE
100
AcDbEntity
  8
0
  6
CONTINUOUS
 62
               7
100
AcDbLine
 10
23.221671291040821
 20
-20.249987940853316
 30
0.0
 11
23.943366237329883
 21
-18.999975648750478
 31
0.0
  0
LINE
  5
FF
100
AcDbEntity
  8
0
  6
CONTINUOUS
 62
               7
100
AcDbLine
 10
21.778311770232904
 20
-20.250011049723071
 30
0.0
 11
21.056632082732904
 21
-19.000025186617677
 31
0.0
  0
LINE
  5
100
100
AcDbEntity
  8
0
  6
CONTINUOUS
 62
               7
100
AcDbLine
 10
21.7783203125
 20
-20.25
 30
0.0
 11
23.2216796875
 21
-20.25
 31
0.0
  0
LINE
  5
101
100
AcDbEntity
  8
0
  6
CONTINUOUS
 62
               7
100
AcDbLine
 10
13.31306538110266
 20
-26.282649681505063
 30
0.0
 11
20.18691725378585
 21
-30.251269981798032
 31
0.0
  0
LINE
  5
102
100
AcDbEntity
  8
0
  6
CONTINUOUS
 62
               7
100
AcDbLine
 10
28.0
 20
11.5
 30
0.0
 11
9.5
 21
11.5
 31
0.0
  0
LINE
  5
103
100
AcDbEntity
  8
0
  6
CONTINUOUS
 62
               7
100
AcDbLine
 10
0.0
 20
11.5
 30
0.0
 11
0.0
 21
-8.0
 31
0.0
  0
LINE
  5
104
100
AcDbEntity
  8
0
  6
CONTINUOUS
 62
               7
100
AcDbLine
 10
30.0
 20
10.0
 30
0.0
 11
29.0
 21
10.0
 31
0.0
  0
LINE
  5
105
100
AcDbEntity
  8
0
  6
CONTINUOUS
 62
               7
100
AcDbLine
 10
30.0
 20
-48.0
 30
0.0
 11
29.0
 21
-48.0
 31
0.0
  0
LINE
  5
106
100
AcDbEntity
  8
0
  6
CONTINUOUS
 62
               7
100
AcDbLine
 10
31.0
 20
9.0
 30
0.0
 11
31.0
 21
-4.0
 31
0.0
  0
LINE
  5
107
100
AcDbEntity
  8
0
  6
CONTINUOUS
 62
               7
100
AcDbLine
 10
0.0
 20
-49.5
 30
0.0
 11
2.5
 21
-49.5
 31
0.0
  0
LINE
  5
108
100
AcDbEntity
  8
0
  6
CONTINUOUS
 62
               7
100
AcDbLine
 10
4.399993896484375
 20
-55.70001220703125
 30
0.0
 11
4.399993896484375
 21
-55.199981689453125
 31
0.0
  0
LINE
  5
109
100
AcDbEntity
  8
0
  6
CONTINUOUS
 62
               7
100
AcDbLine
 10
12.813052166603939
 20
-27.148667440351346
 30
0.0
 11
19.68691725378585
 21
-31.117295370038846
 31
0.0
  0
LINE
  5
10A
100
AcDbEntity
  8
0
  6
CONTINUOUS
 62
               7
100
AcDbLine
 10
8.1000265534098617
 20
-54.699975909221848
 30
0.0
 11
7.6000152330220772
 21
-55.199987229609633
 31
0.0
  0
LINE
  5
10B
100
AcDbEntity
  8
0
  6
CONTINUOUS
 62
               7
100
AcDbLine
 10
3.9000264105711722
 20
-54.699975909221848
 30
0.0
 11
4.4000377309589567
 21
-55.199987229609633
 31
0.0
  0
LINE
  5
10C
100
AcDbEntity
  8
0
  6
CONTINUOUS
 62
               7
100
AcDbLine
 10
7.600006103515625
 20
-55.70001220703125
 30
0.0
 11
7.600006103515625
 21
-55.20001220703125
 31
0.0
  0
LINE
  5
10D
100
AcDbEntity
  8
0
  6
CONTINUOUS
 62
               2
100
AcDbLine
 10
34.0
 20
-19.0
 30
0.0
 11
-4.9912766683303857
 21
-19.0
 31
0.0
  0
LINE
  5
10E
100
AcDbEntity
  8
0
  6
CONTINUOUS
 62
               2
100
AcDbLine
 10
23.539993286132813
 20
-28.699981689453125
 30
0.0
 11
9.4600067138671875
 21
-28.699981689453125
 31
0.0
  0
LINE
  5
10F
100
AcDbEntity
  8
0
  6
CONTINUOUS
 62
               2
100
AcDbLine
 10
6.0
 20
-47.6820068359375
 30
0.0
 11
6.0
 21
-56.391815185546875
 31
0.0
  0
LINE
  5
110
100
AcDbEntity
  8
0
  6
CONTINUOUS
 62
               2
100
AcDbLine
 10
16.5
 20
-52.5
 30
0.0
 11
16.5
 21
14.5
 31
0.0
  0
LINE
  5
111
100
AcDbEntity
  8
0
  6
CONTINUOUS
 62
               7
100
AcDbLine
 10
9.5
 20
-48.5
 30
0.0
 11
2.5
 21
-48.5
 31
0.0
  0
LINE
  5
112
100
AcDbEntity
  8
0
  6
CONTINUOUS
 62
               7
100
AcDbLine
 10
9.5
 20
-49.5
 30
0.0
 11
28.0
 21
-49.5
 31
0.0
  0
CIRCLE
  5
113
100
AcDbEntity
  8
0
  6
CONTINUOUS
 62
               7
100
AcDbCircle
 10
5.3499999972751766
 20
-53.200012684684793
 30
0.0
 40
0.5
  0
CIRCLE
  5
114
100
AcDbEntity
  8
0
  6
CONTINUOUS
 62
               7
100
AcDbCircle
 10
5.3499999972751766
 20
-53.200012684684793
 30
0.0
 40
0.29
  0
CIRCLE
  5
115
100
AcDbEntity
  8
0
  6
CONTINUOUS
 62
               7
100
AcDbCircle
 10
6.0
 20
-53.200012684684793
 30
0.0
 40
1.3000000000000114
  0
LINE
  5
116
100
AcDbEntity
  8
0
  6
CONTINUOUS
 62
               7
100
AcDbLine
 10
7.5
 20
-55.70001220703125
 30
0.0
 11
4.5
 21
-55.70001220703125
 31
0.0
  0
LINE
  5
117
100
AcDbEntity
  8
0
  6
CONTINUOUS
 62
               7
100
AcDbLine
 10
7.25
 20
-55.937411608853729
 30
0.0
 11
4.75
 21
-55.937411608853729
 31
0.0
  0
LINE
  5
118
100
AcDbEntity
  8
0
  6
CONTINUOUS
 62
               7
100
AcDbLine
 10
7.0500000000000114
 20
-56.137411608853746
 30
0.0
 11
4.9499999999999886
 21
-56.137411608853746
 31
0.0
  0
ARC
  5
119
100
AcDbEntity
  8
0
  6
CONTINUOUS
 62
               7
100
AcDbCircle
 10
6.0
 20
-53.150012207031253
 30
0.0
 40
2.0499999999999972
100
AcDbArc
 50
12.680383491819539
 51
167.31961650818053
  0
LINE
  5
11A
100
AcDbEntity
  8
0
  6
CONTINUOUS
 62
               7
100
AcDbLine
 10
4.75
 20
-55.937411608853729
 30
0.0
 11
4.75
 21
-55.70001220703125
 31
0.0
  0
LINE
  5
11B
100
AcDbEntity
  8
0
  6
CONTINUOUS
 62
               7
100
AcDbLine
 10
4.9499999999999886
 20
-56.137411608853746
 30
0.0
 11
4.75
 21
-55.937411608853729
 31
0.0
  0
LINE
  5
11C
100
AcDbEntity
  8
0
  6
CONTINUOUS
 62
               2
100
AcDbLine
 10
4.9499999999999886
 20
-55.70001220703125
 30
0.0
 11
4.9499999999999886
 21
-56.137411608853746
 31
0.0
  0
CIRCLE
  5
11D
100
AcDbEntity
  8
0
  6
CONTINUOUS
 62
               7
100
AcDbCircle
 10
6.6500000027247665
 20
-53.200012684684808
 30
0.0
 40
0.5
  0
CIRCLE
  5
11E
100
AcDbEntity
  8
0
  6
CONTINUOUS
 62
               7
100
AcDbCircle
 10
6.6500000027247665
 20
-53.200012684684808
 30
0.0
 40
0.29
  0
LINE
  5
11F
100
AcDbEntity
  8
0
  6
CONTINUOUS
 62
               7
100
AcDbLine
 10
8.0
 20
-54.650272623697916
 30
0.0
 11
7.5
 21
-55.152876790364573
 31
0.0
  0
LINE
  5
120
100
AcDbEntity
  8
0
  6
CONTINUOUS
 62
               7
100
AcDbLine
 10
7.5
 20
-55.152876790364573
 30
0.0
 11
7.5
 21
-55.700012209756025
 31
0.0
  0
LINE
  5
121
100
AcDbEntity
  8
0
  6
CONTINUOUS
 62
               7
100
AcDbLine
 10
7.25
 20
-55.70001220703125
 30
0.0
 11
7.25
 21
-55.937411608853729
 31
0.0
  0
LINE
  5
122
100
AcDbEntity
  8
0
  6
CONTINUOUS
 62
               7
100
AcDbLine
 10
7.25
 20
-55.937411608853729
 30
0.0
 11
7.0500000000000114
 21
-56.137411608853746
 31
0.0
  0
LINE
  5
123
100
AcDbEntity
  8
0
  6
CONTINUOUS
 62
               2
100
AcDbLine
 10
7.0500000000000114
 20
-55.70001220703125
 30
0.0
 11
7.0500000000000114
 21
-56.137411608853746
 31
0.0
  0
LINE
  5
124
100
AcDbEntity
  8
0
  6
CONTINUOUS
 62
               7
100
AcDbLine
 10
8.0
 20
-52.700012207031264
 30
0.0
 11
8.0
 21
-54.650272623697916
 31
0.0
  0
LINE
  5
125
100
AcDbEntity
  8
0
  6
CONTINUOUS
 62
               7
100
AcDbLine
 10
4.0
 20
-52.700012207031264
 30
0.0
 11
4.0
 21
-54.650012207031253
 31
0.0
  0
LINE
  5
126
100
AcDbEntity
  8
0
  6
CONTINUOUS
 62
               7
100
AcDbLine
 10
4.5000000061307333
 20
-55.150012213162015
 30
0.0
 11
4.0
 21
-54.650012207031253
 31
0.0
  0
LINE
  5
127
100
AcDbEntity
  8
0
  6
CONTINUOUS
 62
               7
100
AcDbLine
 10
4.5
 20
-55.150012207031253
 30
0.0
 11
4.5
 21
-55.700012209756025
 31
0.0
  0
LINE
  5
128
100
AcDbEntity
  8
0
  6
CONTINUOUS
 62
               2
100
AcDbLine
 10
-3.0
 20
0.0
 30
0.0
 11
3.0
 21
0.0
 31
0.0
  0
LINE
  5
129
100
AcDbEntity
  8
0
  6
CONTINUOUS
 62
               2
100
AcDbLine
 10
-3.0
 20
-38.0
 30
0.0
 11
3.0
 21
-38.0
 31
0.0
  0
LINE
  5
12A
100
AcDbEntity
  8
0
  6
CONTINUOUS
 62
               2
100
AcDbLine
 10
28.0
 20
4.0
 30
0.0
 11
34.0
 21
4.0
 31
0.0
  0
LINE
  5
12B
100
AcDbEntity
  8
0
  6
CONTINUOUS
 62
               2
100
AcDbLine
 10
28.0
 20
-42.0
 30
0.0
 11
34.0
 21
-42.0
 31
0.0
  0
ENDBLK
  5
12C
100
AcDbEntity
  8
0
100
AcDbBlockEnd
  0
BLOCK
  5
12D
100
AcDbEntity
  8
0
100
AcDbBlockBegin
  2
MRVS22-3
 70
               0
 10
0.0
 20
0.0
 30
0.0
  3
MRVS22-3
  1

  0
LINE
  5
12E
100
AcDbEntity
  8
0
  6
CONTINUOUS
 62
               2
100
AcDbLine
 10
-9.0
 20
16.5
 30
0.0
 11
201.0
 21
16.5
 31
0.0
  0
LINE
  5
12F
100
AcDbEntity
  8
0
  6
CONTINUOUS
 62
               7
100
AcDbLine
 10
17.0
 20
13.649993896484375
 30
0.0
 11
16.51885986328125
 21
13.649993896484375
 31
0.0
  0
LINE
  5
130
100
AcDbEntity
  8
0
  6
CONTINUOUS
 62
               7
100
AcDbLine
 10
17.0
 20
19.350006103515625
 30
0.0
 11
16.51885986328125
 21
19.350006103515625
 31
0.0
  0
LINE
  5
131
100
AcDbEntity
  8
0
  6
CONTINUOUS
 62
               7
100
AcDbLine
 10
15.350006103515625
 20
14.300003051757813
 30
0.0
 11
15.350006103515625
 21
18.699996948242188
 31
0.0
  0
LINE
  5
132
100
AcDbEntity
  8
0
  6
CONTINUOUS
 62
               7
100
AcDbLine
 10
18.600006103515625
 20
31.0
 30
0.0
 11
18.600006103515625
 21
9.5
 31
0.0
  0
LINE
  5
133
100
AcDbEntity
  8
0
  6
CONTINUOUS
 62
               7
100
AcDbLine
 10
73.399993896484375
 20
31.0
 30
0.0
 11
73.399993896484375
 21
9.5
 31
0.0
  0
LINE
  5
134
100
AcDbEntity
  8
0
  6
CONTINUOUS
 62
               7
100
AcDbLine
 10
18.600006103515625
 20
31.0
 30
0.0
 11
73.399993896484375
 21
31.0
 31
0.0
  0
LINE
  5
135
100
AcDbEntity
  8
0
  6
CONTINUOUS
 62
               2
100
AcDbLine
 10
46.0
 20
37.226383293134489
 30
0.0
 11
46.0
 21
-4.42364501953125
 31
0.0
  0
LINE
  5
136
100
AcDbEntity
  8
0
  6
CONTINUOUS
 62
               7
100
AcDbLine
 10
75.0
 20
30.5
 30
0.0
 11
75.0
 21
9.5
 31
0.0
  0
LINE
  5
137
100
AcDbEntity
  8
0
  6
CONTINUOUS
 62
               7
100
AcDbLine
 10
17.0
 20
30.5
 30
0.0
 11
17.0
 21
9.5
 31
0.0
  0
LINE
  5
138
100
AcDbEntity
  8
0
  6
CONTINUOUS
 62
               7
100
AcDbLine
 10
18.600006103515625
 20
30.5
 30
0.0
 11
17.0
 21
30.5
 31
0.0
  0
LINE
  5
139
100
AcDbEntity
  8
0
  6
CONTINUOUS
 62
               7
100
AcDbLine
 10
73.399993896484375
 20
30.5
 30
0.0
 11
75.0
 21
30.5
 31
0.0
  0
LINE
  5
13A
100
AcDbEntity
  8
0
  6
CONTINUOUS
 62
               7
100
AcDbLine
 10
75.0
 20
25.29998779296875
 30
0.0
 11
178.0
 21
25.29998779296875
 31
0.0
  0
LINE
  5
13B
100
AcDbEntity
  8
0
  6
CONTINUOUS
 62
               7
100
AcDbLine
 10
-6.0
 20
2.5
 30
0.0
 11
198.0
 21
2.5
 31
0.0
  0
LINE
  5
13C
100
AcDbEntity
  8
0
  6
CONTINUOUS
 62
               7
100
AcDbLine
 10
17.0
 20
2.0
 30
0.0
 11
75.0
 21
2.0
 31
0.0
  0
LINE
  5
13D
100
AcDbEntity
  8
0
  6
CONTINUOUS
 62
               7
100
AcDbLine
 10
14.0
 20
25.29998779296875
 30
0.0
 11
17.0
 21
25.29998779296875
 31
0.0
  0
LINE
  5
13E
100
AcDbEntity
  8
0
  6
CONTINUOUS
 62
               2
100
AcDbLine
 10
186.5
 20
21.539993286132813
 30
0.0
 11
186.5
 21
11.460006713867187
 31
0.0
  0
LINE
  5
13F
100
AcDbEntity
  8
0
  6
CONTINUOUS
 62
               7
100
AcDbLine
 10
14.0
 20
23.604385375976563
 30
0.0
 11
14.0
 21
28.395614624023437
 31
0.0
  0
LINE
  5
140
100
AcDbEntity
  8
0
  6
CONTINUOUS
 62
               7
100
AcDbLine
 10
5.5
 20
23.0
 30
0.0
 11
12.0
 21
23.0
 31
0.0
  0
LINE
  5
141
100
AcDbEntity
  8
0
  6
CONTINUOUS
 62
               7
100
AcDbLine
 10
198.0
 20
0.0
 30
0.0
 11
180.0
 21
0.0
 31
0.0
  0
LINE
  5
142
100
AcDbEntity
  8
0
  6
CONTINUOUS
 62
               7
100
AcDbLine
 10
198.0
 20
29.0
 30
0.0
 11
180.0
 21
29.0
 31
0.0
  0
LINE
  5
143
100
AcDbEntity
  8
0
  6
CONTINUOUS
 62
               7
100
AcDbLine
 10
198.0
 20
29.0
 30
0.0
 11
198.0
 21
0.0
 31
0.0
  0
LINE
  5
144
100
AcDbEntity
  8
0
  6
CONTINUOUS
 62
               7
100
AcDbLine
 10
180.0
 20
29.0
 30
0.0
 11
180.0
 21
9.5
 31
0.0
  0
LINE
  5
145
100
AcDbEntity
  8
0
  6
CONTINUOUS
 62
               7
100
AcDbLine
 10
-6.0
 20
9.5
 30
0.0
 11
198.0
 21
9.5
 31
0.0
  0
LINE
  5
146
100
AcDbEntity
  8
0
  6
CONTINUOUS
 62
               2
100
AcDbLine
 10
5.5
 20
21.539993286132813
 30
0.0
 11
5.5
 21
11.460006713867187
 31
0.0
  0
LINE
  5
147
100
AcDbEntity
  8
0
  6
CONTINUOUS
 62
               7
100
AcDbLine
 10
-6.0
 20
0.0
 30
0.0
 11
12.0
 21
0.0
 31
0.0
  0
LINE
  5
148
100
AcDbEntity
  8
0
  6
CONTINUOUS
 62
               7
100
AcDbLine
 10
-6.0
 20
29.0
 30
0.0
 11
12.0
 21
29.0
 31
0.0
  0
LINE
  5
149
100
AcDbEntity
  8
0
  6
CONTINUOUS
 62
               7
100
AcDbLine
 10
-6.0
 20
29.0
 30
0.0
 11
-6.0
 21
0.0
 31
0.0
  0
LINE
  5
14A
100
AcDbEntity
  8
0
  6
CONTINUOUS
 62
               7
100
AcDbLine
 10
12.0
 20
29.0
 30
0.0
 11
12.0
 21
9.5
 31
0.0
  0
LINE
  5
14B
100
AcDbEntity
  8
0
  6
CONTINUOUS
 62
               7
100
AcDbLine
 10
75.0
 20
13.649993896484375
 30
0.0
 11
75.48114013671875
 21
13.649993896484375
 31
0.0
  0
LINE
  5
14C
100
AcDbEntity
  8
0
  6
CONTINUOUS
 62
               7
100
AcDbLine
 10
75.0
 20
19.350006103515625
 30
0.0
 11
75.48114013671875
 21
19.350006103515625
 31
0.0
  0
LINE
  5
14D
100
AcDbEntity
  8
0
  6
CONTINUOUS
 62
               7
100
AcDbLine
 10
76.649993896484375
 20
14.300003051757813
 30
0.0
 11
76.649993896484375
 21
18.699996948242188
 31
0.0
  0
LINE
  5
14E
100
AcDbEntity
  8
0
  6
CONTINUOUS
 62
               7
100
AcDbLine
 10
186.5
 20
23.0
 30
0.0
 11
180.0
 21
23.0
 31
0.0
  0
LINE
  5
14F
100
AcDbEntity
  8
0
  6
CONTINUOUS
 62
               7
100
AcDbLine
 10
178.0
 20
23.604385375976563
 30
0.0
 11
178.0
 21
28.395614624023437
 31
0.0
  0
LINE
  5
150
100
AcDbEntity
  8
0
  6
CONTINUOUS
 62
               7
100
AcDbLine
 10
186.5
 20
29.0
 30
0.0
 11
186.5
 21
23.0
 31
0.0
  0
LINE
  5
151
100
AcDbEntity
  8
0
  6
CONTINUOUS
 62
               7
100
AcDbLine
 10
17.0
 20
11.499984741210938
 30
0.0
 11
19.5
 21
11.499984741210938
 31
0.0
  0
LINE
  5
152
100
AcDbEntity
  8
0
  6
CONTINUOUS
 62
               7
100
AcDbLine
 10
17.0
 20
14.0980224609375
 30
0.0
 11
75.0
 21
14.0980224609375
 31
0.0
  0
LINE
  5
153
100
AcDbEntity
  8
0
  6
CONTINUOUS
 62
               7
100
AcDbLine
 10
178.24791060683856
 20
23.308942376530013
 30
0.0
 11
179.99999559912612
 21
23.000002510968898
 31
0.0
  0
LINE
  5
154
100
AcDbEntity
  8
0
  6
CONTINUOUS
 62
               7
100
AcDbLine
 10
178.24791333396661
 20
28.69106530533054
 30
0.0
 11
179.99999832625417
 21
29.000005170891654
 31
0.0
  0
LINE
  5
155
100
AcDbEntity
  8
0
  6
CONTINUOUS
 62
               7
100
AcDbLine
 10
180.0
 20
28.0
 30
0.0
 11
186.5
 21
28.0
 31
0.0
  0
LINE
  5
156
100
AcDbEntity
  8
0
  6
CONTINUOUS
 62
               7
100
AcDbLine
 10
5.5
 20
29.0
 30
0.0
 11
5.5
 21
23.0
 31
0.0
  0
LINE
  5
157
100
AcDbEntity
  8
0
  6
CONTINUOUS
 62
               7
100
AcDbLine
 10
13.752077154159451
 20
23.308934652673088
 30
0.0
 11
11.999992161871887
 21
22.999994787111973
 31
0.0
  0
LINE
  5
158
100
AcDbEntity
  8
0
  6
CONTINUOUS
 62
               7
100
AcDbLine
 10
13.752103156147768
 20
28.691060216378901
 30
0.0
 11
12.000018163860204
 21
29.000000081940016
 31
0.0
  0
LINE
  5
159
100
AcDbEntity
  8
0
  6
CONTINUOUS
 62
               7
100
AcDbLine
 10
12.0
 20
28.0
 30
0.0
 11
5.5
 21
28.0
 31
0.0
  0
LINE
  5
15A
100
AcDbEntity
  8
0
  6
CONTINUOUS
 62
               7
100
AcDbLine
 10
20.130355834960937
 20
11.211296081542969
 30
0.0
 11
71.731643676757813
 21
11.211296081542969
 31
0.0
  0
LINE
  5
15B
100
AcDbEntity
  8
0
  6
CONTINUOUS
 62
               7
100
AcDbLine
 10
19.5
 20
13.749969482421875
 30
0.0
 11
72.5
 21
13.749969482421875
 31
0.0
  0
LINE
  5
15C
100
AcDbEntity
  8
0
  6
CONTINUOUS
 62
               7
100
AcDbLine
 10
19.5
 20
13.31695556640625
 30
0.0
 11
72.5
 21
13.31695556640625
 31
0.0
  0
LINE
  5
15D
100
AcDbEntity
  8
0
  6
CONTINUOUS
 62
               7
100
AcDbLine
 10
72.5
 20
9.5
 30
0.0
 11
72.5
 21
13.749969482421875
 31
0.0
  0
LINE
  5
15E
100
AcDbEntity
  8
0
  6
CONTINUOUS
 62
               7
100
AcDbLine
 10
19.5
 20
9.5
 30
0.0
 11
19.5
 21
13.749969482421875
 31
0.0
  0
LINE
  5
15F
100
AcDbEntity
  8
0
  6
CONTINUOUS
 62
               7
100
AcDbLine
 10
72.5
 20
11.499984741210938
 30
0.0
 11
75.0
 21
11.499984741210938
 31
0.0
  0
LINE
  5
160
100
AcDbEntity
  8
0
  6
CONTINUOUS
 62
               7
100
AcDbLine
 10
31.5
 20
10.25
 30
0.0
 11
60.5
 21
10.25
 31
0.0
  0
LINE
  5
161
100
AcDbEntity
  8
0
  6
CONTINUOUS
 62
               7
100
AcDbLine
 10
60.5
 20
10.25
 30
0.0
 11
60.5
 21
9.5
 31
0.0
  0
LINE
  5
162
100
AcDbEntity
  8
0
  6
CONTINUOUS
 62
               7
100
AcDbLine
 10
31.5
 20
10.25
 30
0.0
 11
31.5
 21
9.5
 31
0.0
  0
LINE
  5
163
100
AcDbEntity
  8
0
  6
CONTINUOUS
 62
               7
100
AcDbLine
 10
-1.0
 20
9.5
 30
0.0
 11
-1.0
 21
2.5
 31
0.0
  0
LINE
  5
164
100
AcDbEntity
  8
0
  6
CONTINUOUS
 62
               7
100
AcDbLine
 10
-1.0
 20
7.600006103515625
 30
0.0
 11
6.4180755615234375
 21
7.600006103515625
 31
0.0
  0
LINE
  5
165
100
AcDbEntity
  8
0
  6
CONTINUOUS
 62
               7
100
AcDbLine
 10
8.8839097932147979
 20
5.116107954456993
 30
0.0
 11
7.1161428705024719
 21
6.883874877169319
 31
0.0
  0
LINE
  5
166
100
AcDbEntity
  8
0
  6
CONTINUOUS
 62
               7
100
AcDbLine
 10
-1.0
 20
4.399993896484375
 30
0.0
 11
6.4180755615234375
 21
4.399993896484375
 31
0.0
  0
LINE
  5
167
100
AcDbEntity
  8
0
  6
CONTINUOUS
 62
               7
100
AcDbLine
 10
7.1161401731042133
 20
5.1161052570587344
 30
0.0
 11
8.8839097932147979
 21
6.883874877169319
 31
0.0
  0
LINE
  5
168
100
AcDbEntity
  8
0
  6
CONTINUOUS
 62
               7
100
AcDbLine
 10
9.5819244384765625
 20
4.399993896484375
 30
0.0
 11
181.91807556152344
 21
4.399993896484375
 31
0.0
  0
LINE
  5
169
100
AcDbEntity
  8
0
  6
CONTINUOUS
 62
               7
100
AcDbLine
 10
17.0
 20
2.5
 30
0.0
 11
17.0
 21
2.0
 31
0.0
  0
LINE
  5
16A
100
AcDbEntity
  8
0
  6
CONTINUOUS
 62
               7
100
AcDbLine
 10
18.600006103515625
 20
2.5
 30
0.0
 11
18.600006103515625
 21
2.0
 31
0.0
  0
LINE
  5
16B
100
AcDbEntity
  8
0
  6
CONTINUOUS
 62
               7
100
AcDbLine
 10
12.0
 20
2.5
 30
0.0
 11
12.0
 21
0.0
 31
0.0
  0
LINE
  5
16C
100
AcDbEntity
  8
0
  6
CONTINUOUS
 62
               7
100
AcDbLine
 10
193.0
 20
4.399993896484375
 30
0.0
 11
186.08192443847656
 21
4.399993896484375
 31
0.0
  0
LINE
  5
16D
100
AcDbEntity
  8
0
  6
CONTINUOUS
 62
               7
100
AcDbLine
 10
184.5
 20
3.75
 30
0.0
 11
183.5
 21
3.75
 31
0.0
  0
LINE
  5
16E
100
AcDbEntity
  8
0
  6
CONTINUOUS
 62
               7
100
AcDbLine
 10
193.0
 20
9.5
 30
0.0
 11
193.0
 21
2.5
 31
0.0
  0
LINE
  5
16F
100
AcDbEntity
  8
0
  6
CONTINUOUS
 62
               7
100
AcDbLine
 10
184.88387720269134
 20
5.1161241388465442
 30
0.0
 11
183.11612106957205
 21
6.8838802719658361
 31
0.0
  0
LINE
  5
170
100
AcDbEntity
  8
0
  6
CONTINUOUS
 62
               7
100
AcDbLine
 10
184.5
 20
8.25
 30
0.0
 11
183.5
 21
8.25
 31
0.0
  0
LINE
  5
171
100
AcDbEntity
  8
0
  6
CONTINUOUS
 62
               7
100
AcDbLine
 10
193.0
 20
7.600006103515625
 30
0.0
 11
186.08192443847656
 21
7.600006103515625
 31
0.0
  0
LINE
  5
172
100
AcDbEntity
  8
0
  6
CONTINUOUS
 62
               7
100
AcDbLine
 10
183.11612106957205
 20
5.11611334925351
 30
0.0
 11
184.88388799228437
 21
6.8838802719658361
 31
0.0
  0
LINE
  5
173
100
AcDbEntity
  8
0
  6
CONTINUOUS
 62
               7
100
AcDbLine
 10
9.5819244384765625
 20
7.600006103515625
 30
0.0
 11
181.91807556152344
 21
7.600006103515625
 31
0.0
  0
LINE
  5
174
100
AcDbEntity
  8
0
  6
CONTINUOUS
 62
               7
100
AcDbLine
 10
180.0
 20
2.5
 30
0.0
 11
180.0
 21
0.0
 31
0.0
  0
LINE
  5
175
100
AcDbEntity
  8
0
  6
CONTINUOUS
 62
               7
100
AcDbLine
 10
73.399993896484375
 20
2.5
 30
0.0
 11
73.399993896484375
 21
2.0
 31
0.0
  0
LINE
  5
176
100
AcDbEntity
  8
0
  6
CONTINUOUS
 62
               7
100
AcDbLine
 10
75.0
 20
2.5
 30
0.0
 11
75.0
 21
2.0
 31
0.0
  0
ARC
  5
177
100
AcDbEntity
  8
0
  6
CONTINUOUS
 62
               7
100
AcDbCircle
 10
17.10516357421875
 20
16.919723510742188
 30
0.0
 40
2.5
100
AcDbArc
 50
103.56366536585629
 51
134.59315329352168
  0
ARC
  5
178
100
AcDbEntity
  8
0
  6
CONTINUOUS
 62
               7
100
AcDbCircle
 10
17.10516357421875
 20
16.080276489257813
 30
0.0
 40
2.5
100
AcDbArc
 50
225.40684670647832
 51
256.43633463414369
  0
ARC
  5
179
100
AcDbEntity
  8
0
  6
CONTINUOUS
 62
               7
100
AcDbCircle
 10
74.89483642578125
 20
16.919723510742188
 30
0.0
 40
2.5
100
AcDbArc
 50
45.406844885245476
 51
76.436339643100041
  0
CIRCLE
  5
17A
100
AcDbEntity
  8
0
  6
CONTINUOUS
 62
               7
100
AcDbCircle
 10
186.5
 20
16.5
 30
0.0
 40
2.0
  0
CIRCLE
  5
17B
100
AcDbEntity
  8
0
  6
CONTINUOUS
 62
               2
100
AcDbCircle
 10
186.5
 20
16.5
 30
0.0
 40
2.5
  0
CIRCLE
  5
17C
100
AcDbEntity
  8
0
  6
CONTINUOUS
 62
               7
100
AcDbCircle
 10
5.5
 20
16.5
 30
0.0
 40
2.0
  0
CIRCLE
  5
17D
100
AcDbEntity
  8
0
  6
CONTINUOUS
 62
               2
100
AcDbCircle
 10
5.5
 20
16.5
 30
0.0
 40
2.5
  0
ARC
  5
17E
100
AcDbEntity
  8
0
  6
CONTINUOUS
 62
               7
100
AcDbCircle
 10
74.89483642578125
 20
16.080276489257813
 30
0.0
 40
2.5
100
AcDbArc
 50
283.56366035689996
 51
314.5931551147545
  0
ARC
  5
17F
100
AcDbEntity
  8
0
  6
CONTINUOUS
 62
               7
100
AcDbCircle
 10
178.30000305175781
 20
28.395614624023437
 30
0.0
 40
0.300000011920929
100
AcDbArc
 50
100.0000005060238
 51
180.00000500895632
  0
ARC
  5
180
100
AcDbEntity
  8
0
  6
CONTINUOUS
 62
               7
100
AcDbCircle
 10
178.30000305175781
 20
23.604385375976563
 30
0.0
 40
0.300000011920929
100
AcDbArc
 50
180.00000865142201
 51
259.99999266378705
  0
ARC
  5
181
100
AcDbEntity
  8
0
  6
CONTINUOUS
 62
               7
100
AcDbCircle
 10
13.70001220703125
 20
28.395614624023437
 30
0.0
 40
0.300000011920929
100
AcDbArc
 50
359.99999749552194
 51
79.999997672743362
  0
ARC
  5
182
100
AcDbEntity
  8
0
  6
CONTINUOUS
 62
               7
100
AcDbCircle
 10
13.70001220703125
 20
23.604385375976563
 30
0.0
 40
0.300000011920929
100
AcDbArc
 50
280.00000915744579
 51
359.99999749552194
  0
CIRCLE
  5
183
100
AcDbEntity
  8
0
  6
CONTINUOUS
 62
               7
100
AcDbCircle
 10
8.0
 20
6.0
 30
0.0
 40
1.75
  0
CIRCLE
  5
184
100
AcDbEntity
  8
0
  6
CONTINUOUS
 62
               7
100
AcDbCircle
 10
8.0
 20
6.0
 30
0.0
 40
2.25
  0
CIRCLE
  5
185
100
AcDbEntity
  8
0
  6
CONTINUOUS
 62
               7
100
AcDbCircle
 10
184.0
 20
6.0
 30
0.0
 40
1.75
  0
ARC
  5
186
100
AcDbEntity
  8
0
  6
CONTINUOUS
 62
               7
100
AcDbCircle
 10
184.5
 20
6.0
 30
0.0
 40
2.25
100
AcDbArc
 50
269.99999749552182
 51
90.000002504478161
  0
ARC
  5
187
100
AcDbEntity
  8
0
  6
CONTINUOUS
 62
               7
100
AcDbCircle
 10
183.5
 20
6.0
 30
0.0
 40
2.25
100
AcDbArc
 50
90.000002504478161
 51
270.00000068324533
  0
LINE
  5
188
100
AcDbEntity
  8
0
  6
CONTINUOUS
 62
               2
100
AcDbLine
 10
50.0
 20
8.9428571428571502
 30
0.0
 11
50.0
 21
2.7000153265765334
 31
0.0
  0
LINE
  5
189
100
AcDbEntity
  8
0
  6
CONTINUOUS
 62
               2
100
AcDbLine
 10
34.247690531177852
 20
7.3000000000000114
 30
0.0
 11
32.74653579676675
 21
4.7000000000000028
 31
0.0
  0
LINE
  5
18A
100
AcDbEntity
  8
0
  6
CONTINUOUS
 62
               7
100
AcDbLine
 10
36.5
 20
4.7000000000000028
 30
0.0
 11
32.74653579676675
 21
4.7000000000000028
 31
0.0
  0
LINE
  5
18B
100
AcDbEntity
  8
0
  6
CONTINUOUS
 62
               7
100
AcDbLine
 10
36.5
 20
7.3000000000000114
 30
0.0
 11
34.247690531177852
 21
7.3000000000000114
 31
0.0
  0
LINE
  5
18C
100
AcDbEntity
  8
0
  6
CONTINUOUS
 62
               7
100
AcDbLine
 10
48.100000000000023
 20
4.5
 30
0.0
 11
48.100000000000023
 21
7.5
 31
0.0
  0
LINE
  5
18D
100
AcDbEntity
  8
0
  6
CONTINUOUS
 62
               7
100
AcDbLine
 10
41.600000000000023
 20
4.5
 30
0.0
 11
41.600000000000023
 21
7.5
 31
0.0
  0
LINE
  5
18E
100
AcDbEntity
  8
0
  6
CONTINUOUS
 62
               7
100
AcDbLine
 10
52.000000004768367
 20
4.399993896484375
 30
0.0
 11
52.000000004768367
 21
7.600006103515625
 31
0.0
  0
LINE
  5
18F
100
AcDbEntity
  8
0
  6
CONTINUOUS
 62
               7
100
AcDbLine
 10
36.5
 20
4.399993896484375
 30
0.0
 11
36.5
 21
7.600006103515625
 31
0.0
  0
LINE
  5
190
100
AcDbEntity
  8
0
  6
CONTINUOUS
 62
               7
100
AcDbLine
 10
52.000000004768367
 20
7.5
 30
0.0
 11
36.5
 21
7.5
 31
0.0
  0
LINE
  5
191
100
AcDbEntity
  8
0
  6
CONTINUOUS
 62
               7
100
AcDbLine
 10
52.000000004768367
 20
4.5
 30
0.0
 11
36.5
 21
4.5
 31
0.0
  0
CIRCLE
  5
192
100
AcDbEntity
  8
0
  6
CONTINUOUS
 62
               7
100
AcDbCircle
 10
50.0
 20
6.0
 30
0.0
 40
1.3999999999999997
  0
CIRCLE
  5
193
100
AcDbEntity
  8
0
  6
CONTINUOUS
 62
               7
100
AcDbCircle
 10
50.0
 20
6.0
 30
0.0
 40
1.25
  0
CIRCLE
  5
194
100
AcDbEntity
  8
0
  6
CONTINUOUS
 62
               2
100
AcDbCircle
 10
50.0
 20
6.0
 30
0.0
 40
1.05
  0
LINE
  5
195
100
AcDbEntity
  8
0
  6
CONTINUOUS
 62
               7
100
AcDbLine
 10
51.042802106093063
 20
5.3107513021209911
 30
0.0
 11
49.310751302120991
 21
7.0428021060930348
 31
0.0
  0
LINE
  5
196
100
AcDbEntity
  8
0
  6
CONTINUOUS
 62
               7
100
AcDbLine
 10
50.689248685836787
 20
4.9571979277474441
 30
0.0
 11
48.957197892325269
 21
6.6892487212589913
 31
0.0
  0
LINE
  5
198
100
AcDbEntity
  8
0
  6
CENTER
 62
               2
100
AcDbLine
 10
53.41040175778528
 20
6.0
 30
0.0
 11
30.497113163972301
 21
6.0
 31
0.0
  0
LINE
  5
199
100
AcDbEntity
  8
0
  6
CONTINUOUS
 62
               2
100
AcDbLine
 10
149.99999999523163
 20
8.9428571428571502
 30
0.0
 11
149.99999999523163
 21
2.7000153265765334
 31
0.0
  0
LINE
  5
19A
100
AcDbEntity
  8
0
  6
CENTER
 62
               2
100
AcDbLine
 10
153.41040175301691
 20
6.0
 30
0.0
 11
130.49711315920393
 21
6.0
 31
0.0
  0
LINE
  5
19B
100
AcDbEntity
  8
0
  6
CONTINUOUS
 62
               7
100
AcDbLine
 10
150.68924868106842
 20
4.9571979277474441
 30
0.0
 11
148.9571978875569
 21
6.6892487212589913
 31
0.0
  0
LINE
  5
19C
100
AcDbEntity
  8
0
  6
CONTINUOUS
 62
               7
100
AcDbLine
 10
151.0428021013247
 20
5.3107513021209911
 30
0.0
 11
149.31075129735262
 21
7.0428021060930348
 31
0.0
  0
CIRCLE
  5
19D
100
AcDbEntity
  8
0
  6
CONTINUOUS
 62
               2
100
AcDbCircle
 10
149.99999999523163
 20
6.0
 30
0.0
 40
1.05
  0
CIRCLE
  5
19E
100
AcDbEntity
  8
0
  6
CONTINUOUS
 62
               7
100
AcDbCircle
 10
149.99999999523163
 20
6.0
 30
0.0
 40
1.25
  0
CIRCLE
  5
19F
100
AcDbEntity
  8
0
  6
CONTINUOUS
 62
               7
100
AcDbCircle
 10
149.99999999523163
 20
6.0
 30
0.0
 40
1.3999999999999997
  0
LINE
  5
1A0
100
AcDbEntity
  8
0
  6
CONTINUOUS
 62
               7
100
AcDbLine
 10
152.0
 20
4.5
 30
0.0
 11
136.49999999523163
 21
4.5
 31
0.0
  0
LINE
  5
1A1
100
AcDbEntity
  8
0
  6
CONTINUOUS
 62
               7
100
AcDbLine
 10
152.0
 20
7.5
 30
0.0
 11
136.49999999523163
 21
7.5
 31
0.0
  0
LINE
  5
1A2
100
AcDbEntity
  8
0
  6
CONTINUOUS
 62
               7
100
AcDbLine
 10
136.49999999523163
 20
4.399993896484375
 30
0.0
 11
136.49999999523163
 21
7.600006103515625
 31
0.0
  0
LINE
  5
1A3
100
AcDbEntity
  8
0
  6
CONTINUOUS
 62
               7
100
AcDbLine
 10
152.0
 20
4.399993896484375
 30
0.0
 11
152.0
 21
7.600006103515625
 31
0.0
  0
LINE
  5
1A4
100
AcDbEntity
  8
0
  6
CONTINUOUS
 62
               7
100
AcDbLine
 10
141.59999999523166
 20
4.5
 30
0.0
 11
141.59999999523166
 21
7.5
 31
0.0
  0
LINE
  5
1A5
100
AcDbEntity
  8
0
  6
CONTINUOUS
 62
               7
100
AcDbLine
 10
148.09999999523166
 20
4.5
 30
0.0
 11
148.09999999523166
 21
7.5
 31
0.0
  0
LINE
  5
1A6
100
AcDbEntity
  8
0
  6
CONTINUOUS
 62
               7
100
AcDbLine
 10
136.49999999523163
 20
7.3000000000000114
 30
0.0
 11
134.24769052640949
 21
7.3000000000000114
 31
0.0
  0
LINE
  5
1A7
100
AcDbEntity
  8
0
  6
CONTINUOUS
 62
               7
100
AcDbLine
 10
136.49999999523163
 20
4.7000000000000028
 30
0.0
 11
132.74653579199838
 21
4.7000000000000028
 31
0.0
  0
LINE
  5
1A8
100
AcDbEntity
  8
0
  6
CONTINUOUS
 62
               2
100
AcDbLine
 10
134.24769052640949
 20
7.3000000000000114
 30
0.0
 11
132.74653579199838
 21
4.7000000000000028
 31
0.0
  0
LINE
  5
1A9
100
AcDbEntity
  8
0
  6
CONTINUOUS
 62
               2
100
AcDbLine
 10
26.0
 20
28.0
 30
0.0
 11
26.0
 21
34.0
 31
0.0
  0
LINE
  5
1AA
100
AcDbEntity
  8
0
  6
CONTINUOUS
 62
               2
100
AcDbLine
 10
66.0
 20
28.0
 30
0.0
 11
66.0
 21
34.0
 31
0.0
  0
LINE
  5
1AB
100
AcDbEntity
  8
0
  6
CONTINUOUS
 62
               2
100
AcDbLine
 10
0.0
 20
-3.0
 30
0.0
 11
0.0
 21
3.0
 31
0.0
  0
LINE
  5
1AC
100
AcDbEntity
  8
0
  6
CONTINUOUS
 62
               2
100
AcDbLine
 10
192.0
 20
-3.0
 30
0.0
 11
192.0
 21
3.0
 31
0.0
  0
LINE
  5
1AD
100
AcDbEntity
  8
0
  6
PHANTOM
 62
               3
100
AcDbLine
 10
116.0
 20
79.904210793511879
 30
0.0
 11
116.0
 21
-13.958947368421065
 31
0.0
  0
ENDBLK
  5
1AE
100
AcDbEntity
  8
0
100
AcDbBlockEnd
  0
BLOCK
  5
1AF
100
AcDbEntity
  8
0
100
AcDbBlockBegin
  2
MRVS22-4
 70
               0
 10
0.0
 20
0.0
 30
0.0
  3
MRVS22-4
  1

  0
LINE
  5
1B0
100
AcDbEntity
  8
0
  6
CONTINUOUS
 62
               2
100
AcDbLine
 10
186.5
 20
-53.0
 30
0.0
 11
186.5
 21
-46.0
 31
0.0
  0
LINE
  5
1B1
100
AcDbEntity
  8
0
  6
CONTINUOUS
 62
               2
100
AcDbLine
 10
5.5
 20
-53.0
 30
0.0
 11
5.5
 21
-46.0
 31
0.0
  0
LINE
  5
1B2
100
AcDbEntity
  8
0
  6
CONTINUOUS
 62
               7
100
AcDbLine
 10
75.0
 20
8.850006103515625
 30
0.0
 11
75.48114013671875
 21
8.850006103515625
 31
0.0
  0
LINE
  5
1B3
100
AcDbEntity
  8
0
  6
CONTINUOUS
 62
               7
100
AcDbLine
 10
75.0
 20
-46.850006103515625
 30
0.0
 11
75.48114013671875
 21
-46.850006103515625
 31
0.0
  0
LINE
  5
1B4
100
AcDbEntity
  8
0
  6
CONTINUOUS
 62
               7
100
AcDbLine
 10
75.0
 20
-41.149993896484375
 30
0.0
 11
75.48114013671875
 21
-41.149993896484375
 31
0.0
  0
LINE
  5
1B5
100
AcDbEntity
  8
0
  6
CONTINUOUS
 62
               7
100
AcDbLine
 10
75.0
 20
3.149993896484375
 30
0.0
 11
75.48114013671875
 21
3.149993896484375
 31
0.0
  0
LINE
  5
1B6
100
AcDbEntity
  8
0
  6
CONTINUOUS
 62
               7
100
AcDbLine
 10
17.0
 20
-46.850006103515625
 30
0.0
 11
16.51885986328125
 21
-46.850006103515625
 31
0.0
  0
LINE
  5
1B7
100
AcDbEntity
  8
0
  6
CONTINUOUS
 62
               7
100
AcDbLine
 10
17.0
 20
-41.149993896484375
 30
0.0
 11
16.51885986328125
 21
-41.149993896484375
 31
0.0
  0
LINE
  5
1B8
100
AcDbEntity
  8
0
  6
CONTINUOUS
 62
               7
100
AcDbLine
 10
17.0
 20
8.850006103515625
 30
0.0
 11
16.51885986328125
 21
8.850006103515625
 31
0.0
  0
LINE
  5
1B9
100
AcDbEntity
  8
0
  6
CONTINUOUS
 62
               7
100
AcDbLine
 10
17.0
 20
3.149993896484375
 30
0.0
 11
16.51885986328125
 21
3.149993896484375
 31
0.0
  0
LINE
  5
1BA
100
AcDbEntity
  8
0
  6
CONTINUOUS
 62
               2
100
AcDbLine
 10
71.039993286132812
 20
-42.0
 30
0.0
 11
60.960006713867188
 21
-42.0
 31
0.0
  0
LINE
  5
1BB
100
AcDbEntity
  8
0
  6
CONTINUOUS
 62
               7
100
AcDbLine
 10
75.0
 20
10.0
 30
0.0
 11
75.0
 21
-48.0
 31
0.0
  0
LINE
  5
1BC
100
AcDbEntity
  8
0
  6
CONTINUOUS
 62
               7
100
AcDbLine
 10
17.0
 20
-48.0
 30
0.0
 11
75.0
 21
-48.0
 31
0.0
  0
LINE
  5
1BD
100
AcDbEntity
  8
0
  6
CONTINUOUS
 62
               7
100
AcDbLine
 10
17.0
 20
-48.0
 30
0.0
 11
17.0
 21
10.0
 31
0.0
  0
LINE
  5
1BE
100
AcDbEntity
  8
0
  6
CONTINUOUS
 62
               7
100
AcDbLine
 10
18.600006103515625
 20
-48.0
 30
0.0
 11
18.600006103515625
 21
10.0
 31
0.0
  0
LINE
  5
1BF
100
AcDbEntity
  8
0
  6
CONTINUOUS
 62
               2
100
AcDbLine
 10
71.039993286132812
 20
4.0
 30
0.0
 11
60.960006713867188
 21
4.0
 31
0.0
  0
LINE
  5
1C0
100
AcDbEntity
  8
0
  6
CONTINUOUS
 62
               7
100
AcDbLine
 10
73.399993896484375
 20
10.0
 30
0.0
 11
73.399993896484375
 21
-48.0
 31
0.0
  0
LINE
  5
1C1
100
AcDbEntity
  8
0
  6
CONTINUOUS
 62
               2
100
AcDbLine
 10
20.960006713867188
 20
4.0
 30
0.0
 11
31.039993286132813
 21
4.0
 31
0.0
  0
LINE
  5
1C2
100
AcDbEntity
  8
0
  6
CONTINUOUS
 62
               2
100
AcDbLine
 10
26.0
 20
9.0399932861328125
 30
0.0
 11
26.0
 21
-1.0399932861328125
 31
0.0
  0
LINE
  5
1C3
100
AcDbEntity
  8
0
  6
CONTINUOUS
 62
               7
100
AcDbLine
 10
75.0
 20
-37.500015258789063
 30
0.0
 11
75.5
 21
-37.500015258789063
 31
0.0
  0
LINE
  5
1C4
100
AcDbEntity
  8
0
  6
CONTINUOUS
 62
               2
100
AcDbLine
 10
-9.0
 20
-19.0
 30
0.0
 11
201.0
 21
-19.0
 31
0.0
  0
LINE
  5
1C5
100
AcDbEntity
  8
0
  6
CONTINUOUS
 62
               7
100
AcDbLine
 10
18.600006103515625
 20
-34.0
 30
0.0
 11
73.399993896484375
 21
-34.0
 31
0.0
  0
LINE
  5
1C6
100
AcDbEntity
  8
0
  6
CONTINUOUS
 62
               2
100
AcDbLine
 10
26.0
 20
-47.039993286132812
 30
0.0
 11
26.0
 21
-36.960006713867188
 31
0.0
  0
LINE
  5
1C7
100
AcDbEntity
  8
0
  6
CONTINUOUS
 62
               2
100
AcDbLine
 10
20.960006713867188
 20
-42.0
 30
0.0
 11
31.039993286132813
 21
-42.0
 31
0.0
  0
LINE
  5
1C8
100
AcDbEntity
  8
0
  6
CONTINUOUS
 62
               2
100
AcDbLine
 10
66.0
 20
9.0399932861328125
 30
0.0
 11
66.0
 21
-1.0399932861328125
 31
0.0
  0
LINE
  5
1C9
100
AcDbEntity
  8
0
  6
CONTINUOUS
 62
               7
100
AcDbLine
 10
18.600006103515625
 20
-4.0
 30
0.0
 11
73.399993896484375
 21
-4.0
 31
0.0
  0
LINE
  5
1CA
100
AcDbEntity
  8
0
  6
CONTINUOUS
 62
               7
100
AcDbLine
 10
75.0
 20
-0.4999847412109375
 30
0.0
 11
75.5
 21
-0.4999847412109375
 31
0.0
  0
LINE
  5
1CB
100
AcDbEntity
  8
0
  6
CONTINUOUS
 62
               7
100
AcDbLine
 10
17.0
 20
10.0
 30
0.0
 11
75.0
 21
10.0
 31
0.0
  0
LINE
  5
1CC
100
AcDbEntity
  8
0
  6
CONTINUOUS
 62
               7
100
AcDbLine
 10
16.5
 20
-0.4999847412109375
 30
0.0
 11
17.0
 21
-0.4999847412109375
 31
0.0
  0
LINE
  5
1CD
100
AcDbEntity
  8
0
  6
CONTINUOUS
 62
               7
100
AcDbLine
 10
16.5
 20
-37.500015258789063
 30
0.0
 11
17.0
 21
-37.500015258789063
 31
0.0
  0
LINE
  5
1CE
100
AcDbEntity
  8
0
  6
CONTINUOUS
 62
               2
100
AcDbLine
 10
66.0
 20
-47.039993286132812
 30
0.0
 11
66.0
 21
-36.960006713867188
 31
0.0
  0
LINE
  5
1CF
100
AcDbEntity
  8
0
  6
CONTINUOUS
 62
               7
100
AcDbLine
 10
198.0
 20
11.5
 30
0.0
 11
198.0
 21
-49.5
 31
0.0
  0
LINE
  5
1D0
100
AcDbEntity
  8
0
  6
CONTINUOUS
 62
               2
100
AcDbLine
 10
192.0
 20
-7.28997802734375
 30
0.0
 11
192.0
 21
7.290008544921875
 31
0.0
  0
LINE
  5
1D1
100
AcDbEntity
  8
0
  6
CONTINUOUS
 62
               2
100
AcDbLine
 10
192.0
 20
-30.71002197265625
 30
0.0
 11
192.0
 21
-45.28997802734375
 31
0.0
  0
LINE
  5
1D2
100
AcDbEntity
  8
0
  6
CONTINUOUS
 62
               7
100
AcDbLine
 10
198.0
 20
11.5
 30
0.0
 11
180.0
 21
11.5
 31
0.0
  0
LINE
  5
1D3
100
AcDbEntity
  8
0
  6
CONTINUOUS
 62
               7
100
AcDbLine
 10
198.0
 20
-49.5
 30
0.0
 11
180.0
 21
-49.5
 31
0.0
  0
LINE
  5
1D4
100
AcDbEntity
  8
0
  6
CONTINUOUS
 62
               2
100
AcDbLine
 10
199.29000091552734
 20
-38.0
 30
0.0
 11
184.27830505371094
 21
-38.0
 31
0.0
  0
LINE
  5
1D5
100
AcDbEntity
  8
0
  6
CONTINUOUS
 62
               2
100
AcDbLine
 10
199.29000091552734
 20
0.0
 30
0.0
 11
183.59585571289062
 21
0.0
 31
0.0
  0
LINE
  5
1D6
100
AcDbEntity
  8
0
  6
CONTINUOUS
 62
               7
100
AcDbLine
 10
186.5
 20
-49.5
 30
0.0
 11
186.5
 21
11.5
 31
0.0
  0
LINE
  5
1D7
100
AcDbEntity
  8
0
  6
CONTINUOUS
 62
               7
100
AcDbLine
 10
180.0
 20
11.5
 30
0.0
 11
180.0
 21
-49.5
 31
0.0
  0
LINE
  5
1D8
100
AcDbEntity
  8
0
  6
CONTINUOUS
 62
               7
100
AcDbLine
 10
198.0
 20
-30.0
 30
0.0
 11
186.5
 21
-30.0
 31
0.0
  0
LINE
  5
1D9
100
AcDbEntity
  8
0
  6
CONTINUOUS
 62
               7
100
AcDbLine
 10
198.0
 20
-8.0
 30
0.0
 11
186.5
 21
-8.0
 31
0.0
  0
LINE
  5
1DA
100
AcDbEntity
  8
0
  6
CONTINUOUS
 62
               7
100
AcDbLine
 10
-6.0
 20
-8.0
 30
0.0
 11
5.5
 21
-8.0
 31
0.0
  0
LINE
  5
1DB
100
AcDbEntity
  8
0
  6
CONTINUOUS
 62
               7
100
AcDbLine
 10
-6.0
 20
-30.0
 30
0.0
 11
5.5
 21
-30.0
 31
0.0
  0
LINE
  5
1DC
100
AcDbEntity
  8
0
  6
CONTINUOUS
 62
               7
100
AcDbLine
 10
5.5
 20
-49.5
 30
0.0
 11
5.5
 21
11.5
 31
0.0
  0
LINE
  5
1DD
100
AcDbEntity
  8
0
  6
CONTINUOUS
 62
               2
100
AcDbLine
 10
-7.290008544921875
 20
0.0
 30
0.0
 11
8.404144287109375
 21
0.0
 31
0.0
  0
LINE
  5
1DE
100
AcDbEntity
  8
0
  6
CONTINUOUS
 62
               2
100
AcDbLine
 10
-7.290008544921875
 20
-38.0
 30
0.0
 11
7.7216949462890625
 21
-38.0
 31
0.0
  0
LINE
  5
1DF
100
AcDbEntity
  8
0
  6
CONTINUOUS
 62
               7
100
AcDbLine
 10
-6.0
 20
-49.5
 30
0.0
 11
7.5250701904296875
 21
-49.5
 31
0.0
  0
LINE
  5
1E0
100
AcDbEntity
  8
0
  6
CONTINUOUS
 62
               7
100
AcDbLine
 10
-6.0
 20
11.5
 30
0.0
 11
7.5250701904296875
 21
11.5
 31
0.0
  0
LINE
  5
1E1
100
AcDbEntity
  8
0
  6
CONTINUOUS
 62
               2
100
AcDbLine
 10
0.0
 20
-30.71002197265625
 30
0.0
 11
0.0
 21
-45.28997802734375
 31
0.0
  0
LINE
  5
1E2
100
AcDbEntity
  8
0
  6
CONTINUOUS
 62
               2
100
AcDbLine
 10
0.0
 20
-7.28997802734375
 30
0.0
 11
0.0
 21
7.290008544921875
 31
0.0
  0
LINE
  5
1E3
100
AcDbEntity
  8
0
  6
CONTINUOUS
 62
               7
100
AcDbLine
 10
-6.0
 20
11.5
 30
0.0
 11
-6.0
 21
-49.5
 31
0.0
  0
LINE
  5
1E4
100
AcDbEntity
  8
0
  6
CONTINUOUS
 62
               7
100
AcDbLine
 10
180.0
 20
-6.5
 30
0.0
 11
186.5
 21
-6.5
 31
0.0
  0
LINE
  5
1E5
100
AcDbEntity
  8
0
  6
CONTINUOUS
 62
               7
100
AcDbLine
 10
180.0
 20
-31.5
 30
0.0
 11
186.5
 21
-31.5
 31
0.0
  0
LINE
  5
1E6
100
AcDbEntity
  8
0
  6
CONTINUOUS
 62
               7
100
AcDbLine
 10
7.5
 20
-31.5
 30
0.0
 11
5.5
 21
-31.5
 31
0.0
  0
LINE
  5
1E7
100
AcDbEntity
  8
0
  6
CONTINUOUS
 62
               7
100
AcDbLine
 10
7.5
 20
-6.5
 30
0.0
 11
5.5
 21
-6.5
 31
0.0
  0
LINE
  5
1E8
100
AcDbEntity
  8
0
  6
CONTINUOUS
 62
               7
100
AcDbLine
 10
7.5
 20
-49.0
 30
0.0
 11
7.5
 21
11.0
 31
0.0
  0
LINE
  5
1E9
100
AcDbEntity
  8
0
  6
CONTINUOUS
 62
               7
100
AcDbLine
 10
84.5
 20
-49.0
 30
0.0
 11
84.5
 21
11.0
 31
0.0
  0
LINE
  5
1EA
100
AcDbEntity
  8
0
  6
CONTINUOUS
 62
               2
100
AcDbLine
 10
85.039993286132813
 20
4.0
 30
0.0
 11
74.960006713867188
 21
4.0
 31
0.0
  0
LINE
  5
1EB
100
AcDbEntity
  8
0
  6
CONTINUOUS
 62
               2
100
AcDbLine
 10
80.0
 20
-1.0399932861328125
 30
0.0
 11
80.0
 21
9.0399932861328125
 31
0.0
  0
LINE
  5
1EC
100
AcDbEntity
  8
0
  6
CONTINUOUS
 62
               7
100
AcDbLine
 10
79.5
 20
16.0
 30
0.0
 11
12.5
 21
16.0
 31
0.0
  0
LINE
  5
1ED
100
AcDbEntity
  8
0
  6
CONTINUOUS
 62
               7
100
AcDbLine
 10
74.5
 20
12.5
 30
0.0
 11
17.5
 21
12.5
 31
0.0
  0
LINE
  5
1EE
100
AcDbEntity
  8
0
  6
CONTINUOUS
 62
               7
100
AcDbLine
 10
16.5
 20
-9.0
 30
0.0
 11
17.0
 21
-9.0
 31
0.0
  0
LINE
  5
1EF
100
AcDbEntity
  8
0
  6
CONTINUOUS
 62
               7
100
AcDbLine
 10
74.5
 20
-50.5
 30
0.0
 11
17.5
 21
-50.5
 31
0.0
  0
LINE
  5
1F0
100
AcDbEntity
  8
0
  6
CONTINUOUS
 62
               7
100
AcDbLine
 10
79.5
 20
-54.0
 30
0.0
 11
12.5
 21
-54.0
 31
0.0
  0
LINE
  5
1F1
100
AcDbEntity
  8
0
  6
CONTINUOUS
 62
               7
100
AcDbLine
 10
75.5
 20
11.5
 30
0.0
 11
75.5
 21
-9.0
 31
0.0
  0
LINE
  5
1F2
100
AcDbEntity
  8
0
  6
CONTINUOUS
 62
               7
100
AcDbLine
 10
75.5
 20
-29.0
 30
0.0
 11
75.5
 21
-49.5
 31
0.0
  0
LINE
  5
1F3
100
AcDbEntity
  8
0
  6
CONTINUOUS
 62
               7
100
AcDbLine
 10
16.5
 20
11.5
 30
0.0
 11
16.5
 21
-9.0
 31
0.0
  0
LINE
  5
1F4
100
AcDbEntity
  8
0
  6
CONTINUOUS
 62
               7
100
AcDbLine
 10
16.5
 20
-29.0
 30
0.0
 11
16.5
 21
-49.5
 31
0.0
  0
LINE
  5
1F5
100
AcDbEntity
  8
0
  6
CONTINUOUS
 62
               7
100
AcDbLine
 10
75.5
 20
-9.0
 30
0.0
 11
75.0
 21
-9.0
 31
0.0
  0
LINE
  5
1F6
100
AcDbEntity
  8
0
  6
CONTINUOUS
 62
               7
100
AcDbLine
 10
16.5
 20
-29.0
 30
0.0
 11
17.0
 21
-29.0
 31
0.0
  0
LINE
  5
1F7
100
AcDbEntity
  8
0
  6
CONTINUOUS
 62
               7
100
AcDbLine
 10
75.5
 20
-29.0
 30
0.0
 11
75.0
 21
-29.0
 31
0.0
  0
LINE
  5
1F8
100
AcDbEntity
  8
0
  6
CONTINUOUS
 62
               2
100
AcDbLine
 10
85.039993286132813
 20
-42.0
 30
0.0
 11
74.960006713867188
 21
-42.0
 31
0.0
  0
LINE
  5
1F9
100
AcDbEntity
  8
0
  6
CONTINUOUS
 62
               2
100
AcDbLine
 10
6.9600067138671875
 20
4.0
 30
0.0
 11
17.039993286132812
 21
4.0
 31
0.0
  0
LINE
  5
1FA
100
AcDbEntity
  8
0
  6
CONTINUOUS
 62
               2
100
AcDbLine
 10
12.0
 20
-1.0399932861328125
 30
0.0
 11
12.0
 21
9.0399932861328125
 31
0.0
  0
LINE
  5
1FB
100
AcDbEntity
  8
0
  6
CONTINUOUS
 62
               2
100
AcDbLine
 10
80.0
 20
-36.960006713867188
 30
0.0
 11
80.0
 21
-47.03997802734375
 31
0.0
  0
LINE
  5
1FC
100
AcDbEntity
  8
0
  6
CONTINUOUS
 62
               2
100
AcDbLine
 10
6.9600067138671875
 20
-42.0
 30
0.0
 11
17.039993286132812
 21
-42.0
 31
0.0
  0
LINE
  5
1FD
100
AcDbEntity
  8
0
  6
CONTINUOUS
 62
               2
100
AcDbLine
 10
12.0
 20
-36.960006713867188
 30
0.0
 11
12.0
 21
-47.03997802734375
 31
0.0
  0
LINE
  5
1FE
100
AcDbEntity
  8
0
  6
CONTINUOUS
 62
               7
100
AcDbLine
 10
84.5
 20
-0.4999847412109375
 30
0.0
 11
180.0
 21
-0.4999847412109375
 31
0.0
  0
LINE
  5
1FF
100
AcDbEntity
  8
0
  6
CONTINUOUS
 62
               7
100
AcDbLine
 10
84.5
 20
-37.500015258789063
 30
0.0
 11
180.0
 21
-37.500015258789063
 31
0.0
  0
ARC
  5
200
100
AcDbEntity
  8
0
  6
CONTINUOUS
 62
               7
100
AcDbCircle
 10
74.89483642578125
 20
-44.41973876953125
 30
0.0
 40
2.5
100
AcDbArc
 50
283.5636671870891
 51
284.00847642659704
  0
ARC
  5
201
100
AcDbEntity
  8
0
  6
CONTINUOUS
 62
               7
100
AcDbCircle
 10
74.89483642578125
 20
5.58026123046875
 30
0.0
 40
2.5
100
AcDbArc
 50
283.5636671870891
 51
284.00847642659704
  0
ARC
  5
202
100
AcDbEntity
  8
0
  6
CONTINUOUS
 62
               7
100
AcDbCircle
 10
74.89483642578125
 20
6.41973876953125
 30
0.0
 40
2.5
100
AcDbArc
 50
75.991523573402972
 51
76.435601982669681
  0
ARC
  5
203
100
AcDbEntity
  8
0
  6
CONTINUOUS
 62
               7
100
AcDbCircle
 10
74.89483642578125
 20
-43.58026123046875
 30
0.0
 40
2.5
100
AcDbArc
 50
75.991523573402972
 51
76.436332812910877
  0
ARC
  5
204
100
AcDbEntity
  8
0
  6
CONTINUOUS
 62
               7
100
AcDbCircle
 10
17.10516357421875
 20
-44.41973876953125
 30
0.0
 40
2.5
100
AcDbArc
 50
255.9915253946358
 51
256.43633463414369
  0
ARC
  5
205
100
AcDbEntity
  8
0
  6
CONTINUOUS
 62
               7
100
AcDbCircle
 10
17.10516357421875
 20
-43.58026123046875
 30
0.0
 40
2.5
100
AcDbArc
 50
103.56366536585629
 51
104.0084746053642
  0
ARC
  5
206
100
AcDbEntity
  8
0
  6
CONTINUOUS
 62
               7
100
AcDbCircle
 10
17.10516357421875
 20
5.58026123046875
 30
0.0
 40
2.5
100
AcDbArc
 50
255.9915253946358
 51
256.43633463414369
  0
ARC
  5
207
100
AcDbEntity
  8
0
  6
CONTINUOUS
 62
               7
100
AcDbCircle
 10
17.10516357421875
 20
6.41973876953125
 30
0.0
 40
2.5
100
AcDbArc
 50
103.56366536585629
 51
104.0084746053642
  0
CIRCLE
  5
208
100
AcDbEntity
  8
0
  6
CONTINUOUS
 62
               7
100
AcDbCircle
 10
26.0
 20
4.0
 30
0.0
 40
2.0
  0
CIRCLE
  5
209
100
AcDbEntity
  8
0
  6
CONTINUOUS
 62
               2
100
AcDbCircle
 10
26.0
 20
4.0
 30
0.0
 40
2.5
  0
CIRCLE
  5
20A
100
AcDbEntity
  8
0
  6
CONTINUOUS
 62
               2
100
AcDbCircle
 10
66.0
 20
4.0
 30
0.0
 40
2.5
  0
CIRCLE
  5
20B
100
AcDbEntity
  8
0
  6
CONTINUOUS
 62
               7
100
AcDbCircle
 10
66.0
 20
4.0
 30
0.0
 40
2.0
  0
CIRCLE
  5
20C
100
AcDbEntity
  8
0
  6
CONTINUOUS
 62
               7
100
AcDbCircle
 10
26.0
 20
-42.0
 30
0.0
 40
2.0
  0
CIRCLE
  5
20D
100
AcDbEntity
  8
0
  6
CONTINUOUS
 62
               2
100
AcDbCircle
 10
26.0
 20
-42.0
 30
0.0
 40
2.5
  0
CIRCLE
  5
20E
100
AcDbEntity
  8
0
  6
CONTINUOUS
 62
               2
100
AcDbCircle
 10
66.0
 20
-42.0
 30
0.0
 40
2.5
  0
CIRCLE
  5
20F
100
AcDbEntity
  8
0
  6
CONTINUOUS
 62
               7
100
AcDbCircle
 10
66.0
 20
-42.0
 30
0.0
 40
2.0
  0
CIRCLE
  5
210
100
AcDbEntity
  8
0
  6
CONTINUOUS
 62
               7
100
AcDbCircle
 10
192.0
 20
0.0
 30
0.0
 40
4.75
  0
CIRCLE
  5
211
100
AcDbEntity
  8
0
  6
CONTINUOUS
 62
               7
100
AcDbCircle
 10
192.0
 20
0.0
 30
0.0
 40
2.9000000953674316
  0
CIRCLE
  5
212
100
AcDbEntity
  8
0
  6
CONTINUOUS
 62
               7
100
AcDbCircle
 10
192.0
 20
-38.0
 30
0.0
 40
4.75
  0
CIRCLE
  5
213
100
AcDbEntity
  8
0
  6
CONTINUOUS
 62
               7
100
AcDbCircle
 10
192.0
 20
-38.0
 30
0.0
 40
2.9000000953674316
  0
CIRCLE
  5
214
100
AcDbEntity
  8
0
  6
CONTINUOUS
 62
               7
100
AcDbCircle
 10
0.0
 20
-38.0
 30
0.0
 40
2.9000000953674316
  0
CIRCLE
  5
215
100
AcDbEntity
  8
0
  6
CONTINUOUS
 62
               7
100
AcDbCircle
 10
0.0
 20
-38.0
 30
0.0
 40
4.75
  0
CIRCLE
  5
216
100
AcDbEntity
  8
0
  6
CONTINUOUS
 62
               7
100
AcDbCircle
 10
0.0
 20
0.0
 30
0.0
 40
2.9000000953674316
  0
CIRCLE
  5
217
100
AcDbEntity
  8
0
  6
CONTINUOUS
 62
               7
100
AcDbCircle
 10
0.0
 20
0.0
 30
0.0
 40
4.75
  0
ARC
  5
218
100
AcDbEntity
  8
0
  6
CONTINUOUS
 62
               7
100
AcDbCircle
 10
17.5
 20
11.5
 30
0.0
 40
1.0
100
AcDbArc
 50
89.999995674288996
 51
180.00000500895632
  0
CIRCLE
  5
219
100
AcDbEntity
  8
0
  6
CONTINUOUS
 62
               7
100
AcDbCircle
 10
80.0
 20
4.0
 30
0.0
 40
2.0
  0
CIRCLE
  5
21A
100
AcDbEntity
  8
0
  6
CONTINUOUS
 62
               2
100
AcDbCircle
 10
80.0
 20
4.0
 30
0.0
 40
2.5
  0
ARC
  5
21B
100
AcDbEntity
  8
0
  6
CONTINUOUS
 62
               7
100
AcDbCircle
 10
17.5
 20
-49.5
 30
0.0
 40
1.0
100
AcDbArc
 50
180.00000865142201
 51
270.00000432571102
  0
ARC
  5
21C
100
AcDbEntity
  8
0
  6
CONTINUOUS
 62
               7
100
AcDbCircle
 10
74.5
 20
11.5
 30
0.0
 40
1.0
100
AcDbArc
 50
359.99999066533235
 51
90.000002504478161
  0
ARC
  5
21D
100
AcDbEntity
  8
0
  6
CONTINUOUS
 62
               7
100
AcDbCircle
 10
79.5
 20
11.0
 30
0.0
 40
5.0
100
AcDbArc
 50
359.99999066533235
 51
90.000002504478161
  0
ARC
  5
21E
100
AcDbEntity
  8
0
  6
CONTINUOUS
 62
               7
100
AcDbCircle
 10
12.5
 20
11.0
 30
0.0
 40
5.0
100
AcDbArc
 50
89.999995674288996
 51
180.00000500895632
  0
ARC
  5
21F
100
AcDbEntity
  8
0
  6
CONTINUOUS
 62
               7
100
AcDbCircle
 10
74.5
 20
-49.5
 30
0.0
 40
1.0
100
AcDbArc
 50
270.00001115590015
 51
0.0000043257111045
  0
ARC
  5
220
100
AcDbEntity
  8
0
  6
CONTINUOUS
 62
               7
100
AcDbCircle
 10
79.5
 20
-49.0
 30
0.0
 40
5.0
100
AcDbArc
 50
270.00001115590015
 51
0.0000043257111045
  0
ARC
  5
221
100
AcDbEntity
  8
0
  6
CONTINUOUS
 62
               7
100
AcDbCircle
 10
12.5
 20
-49.0
 30
0.0
 40
5.0
100
AcDbArc
 50
180.00000865142201
 51
270.00000432571102
  0
CIRCLE
  5
222
100
AcDbEntity
  8
0
  6
CONTINUOUS
 62
               7
100
AcDbCircle
 10
12.0
 20
4.0
 30
0.0
 40
2.0
  0
CIRCLE
  5
223
100
AcDbEntity
  8
0
  6
CONTINUOUS
 62
               2
100
AcDbCircle
 10
12.0
 20
4.0
 30
0.0
 40
2.5
  0
CIRCLE
  5
224
100
AcDbEntity
  8
0
  6
CONTINUOUS
 62
               7
100
AcDbCircle
 10
80.0
 20
-42.0
 30
0.0
 40
2.0
  0
CIRCLE
  5
225
100
AcDbEntity
  8
0
  6
CONTINUOUS
 62
               2
100
AcDbCircle
 10
80.0
 20
-42.0
 30
0.0
 40
2.5
  0
CIRCLE
  5
226
100
AcDbEntity
  8
0
  6
CONTINUOUS
 62
               7
100
AcDbCircle
 10
12.0
 20
-42.0
 30
0.0
 40
2.0
  0
CIRCLE
  5
227
100
AcDbEntity
  8
0
  6
CONTINUOUS
 62
               2
100
AcDbCircle
 10
12.0
 20
-42.0
 30
0.0
 40
2.5
  0
LINE
  5
228
100
AcDbEntity
  8
0
  6
CONTINUOUS
 62
               7
100
AcDbLine
 10
193.0
 20
-55.699996948242188
 30
0.0
 11
-1.0
 21
-55.699996948242188
 31
0.0
  0
LINE
  5
229
100
AcDbEntity
  8
0
  6
CONTINUOUS
 62
               7
100
AcDbLine
 10
-1.0
 20
-55.699996948242188
 30
0.0
 11
-1.0
 21
-49.5
 31
0.0
  0
LINE
  5
22A
100
AcDbEntity
  8
0
  6
CONTINUOUS
 62
               7
100
AcDbLine
 10
193.0
 20
-55.699996948242188
 30
0.0
 11
193.0
 21
-49.5
 31
0.0
  0
LINE
  5
22B
100
AcDbEntity
  8
0
  6
CONTINUOUS
 62
               7
100
AcDbLine
 10
180.0
 20
-48.5
 30
0.0
 11
84.5
 21
-48.5
 31
0.0
  0
LINE
  5
22C
100
AcDbEntity
  8
0
  6
CONTINUOUS
 62
               2
100
AcDbLine
 10
46.0
 20
21.785388338358132
 30
0.0
 11
46.0
 21
-61.759813729805629
 31
0.0
  0
LINE
  5
22D
100
AcDbEntity
  8
0
  6
PHANTOM
 62
               3
100
AcDbLine
 10
120.5
 20
51.0
 30
0.0
 11
120.5
 21
-73.542104994623287
 31
0.0
  0
ENDBLK
  5
22E
100
AcDbEntity
  8
0
100
AcDbBlockEnd
  0
BLOCK
  5
22F
100
AcDbEntity
  8
0
100
AcDbBlockBegin
  2
MRVS22-5
 70
               0
 10
0.0
 20
0.0
 30
0.0
  3
MRVS22-5
  1

  0
LINE
  5
230
100
AcDbEntity
  8
0
  6
CONTINUOUS
 62
               7
100
AcDbLine
 10
12.813059758495001
 20
-27.148703910479298
 30
0.0
 11
19.686924845676913
 21
-31.117331840166798
 31
0.0
  0
LINE
  5
231
100
AcDbEntity
  8
0
  6
CONTINUOUS
 62
               7
100
AcDbLine
 10
13.313059758495001
 20
-26.282678522238484
 30
0.0
 11
20.186924845676913
 21
-30.251306451925984
 31
0.0
  0
LINE
  5
232
100
AcDbEntity
  8
0
  6
CONTINUOUS
 62
               7
100
AcDbLine
 10
21.7783203125
 20
-17.75
 30
0.0
 11
23.2216796875
 21
-17.75
 31
0.0
  0
LINE
  5
233
100
AcDbEntity
  8
0
  6
CONTINUOUS
 62
               7
100
AcDbLine
 10
21.778334880267721
 20
-17.750030681292174
 30
0.0
 11
21.056655192767721
 21
-19.000016544397567
 31
0.0
  0
LINE
  5
234
100
AcDbEntity
  8
0
  6
CONTINUOUS
 62
               7
100
AcDbLine
 10
21.7783203125
 20
-20.25
 30
0.0
 11
23.2216796875
 21
-20.25
 31
0.0
  0
LINE
  5
235
100
AcDbEntity
  8
0
  6
CONTINUOUS
 62
               7
100
AcDbLine
 10
21.778323722129244
 20
-20.249992651801222
 30
0.0
 11
21.056628775840181
 21
-18.999980359698384
 31
0.0
  0
LINE
  5
236
100
AcDbEntity
  8
0
  6
CONTINUOUS
 62
               7
100
AcDbLine
 10
11.2216796875
 20
-20.25
 30
0.0
 11
9.7783203125
 21
-20.25
 31
0.0
  0
LINE
  5
237
100
AcDbEntity
  8
0
  6
CONTINUOUS
 62
               7
100
AcDbLine
 10
9.7783250775801207
 20
-20.249992055754774
 30
0.0
 11
9.0566301312910582
 21
-18.999979763651936
 31
0.0
  0
LINE
  5
238
100
AcDbEntity
  8
0
  6
CONTINUOUS
 62
               7
100
AcDbLine
 10
11.2216796875
 20
-17.75
 30
0.0
 11
9.7783203125
 21
-17.75
 31
0.0
  0
LINE
  5
239
100
AcDbEntity
  8
0
  6
CONTINUOUS
 62
               7
100
AcDbLine
 10
11.221693601893094
 20
-17.749979763651936
 30
0.0
 11
11.943388548182156
 21
-18.999992055754774
 31
0.0
  0
LINE
  5
23A
100
AcDbEntity
  8
0
  6
CONTINUOUS
 62
               7
100
AcDbLine
 10
9.778309806721154
 20
-17.750016018549559
 30
0.0
 11
9.056630119221154
 21
-19.000001881654953
 31
0.0
  0
LINE
  5
23B
100
AcDbEntity
  8
0
  6
CONTINUOUS
 62
               7
100
AcDbLine
 10
11.22169358982319
 20
-20.250001881654953
 30
0.0
 11
11.94337327732319
 21
-19.000016018549559
 31
0.0
  0
CIRCLE
  5
23C
100
AcDbEntity
  8
0
  6
CONTINUOUS
 62
               7
100
AcDbCircle
 10
16.5
 20
-28.699981689453125
 30
0.0
 40
4.0
  0
CIRCLE
  5
23D
100
AcDbEntity
  8
0
  6
CONTINUOUS
 62
               7
100
AcDbCircle
 10
16.5
 20
-28.699981689453125
 30
0.0
 40
5.5
  0
CIRCLE
  5
23E
100
AcDbEntity
  8
0
  6
CONTINUOUS
 62
               7
100
AcDbCircle
 10
22.5
 20
-19.0
 30
0.0
 40
3.25
  0
CIRCLE
  5
23F
100
AcDbEntity
  8
0
  6
CONTINUOUS
 62
               7
100
AcDbCircle
 10
10.5
 20
-19.0
 30
0.0
 40
3.25
  0
LINE
  5
240
100
AcDbEntity
  8
0
  6
CONTINUOUS
 62
               7
100
AcDbLine
 10
23.221692246442217
 20
-17.749980359698384
 30
0.0
 11
23.943387192731279
 21
-18.999992651801222
 31
0.0
  0
LINE
  5
241
100
AcDbEntity
  8
0
  6
CONTINUOUS
 62
               7
100
AcDbLine
 10
23.221718663369757
 20
-20.250016544397567
 30
0.0
 11
23.943398350869757
 21
-19.000030681292174
 31
0.0
  0
LINE
  5
242
100
AcDbEntity
  8
0
  6
CONTINUOUS
 62
               2
100
AcDbLine
 10
25.0
 20
-28.699981689453125
 30
0.0
 11
8.0
 21
-28.699981689453125
 31
0.0
  0
CIRCLE
  5
243
100
AcDbEntity
  8
0
  6
CONTINUOUS
 62
               7
100
AcDbCircle
 10
26.0
 20
-46.0
 30
0.0
 40
2.25
  0
CIRCLE
  5
244
100
AcDbEntity
  8
0
  6
CONTINUOUS
 62
               7
100
AcDbCircle
 10
26.0
 20
8.0
 30
0.0
 40
2.25
  0
LINE
  5
245
100
AcDbEntity
  8
0
  6
CONTINUOUS
 62
               2
100
AcDbLine
 10
35.0
 20
-19.0
 30
0.0
 11
-6.1453261777238595
 21
-19.0
 31
0.0
  0
LINE
  5
246
100
AcDbEntity
  8
0
  6
CONTINUOUS
 62
               7
100
AcDbLine
 10
24.0
 20
-54.0
 30
0.0
 11
24.0
 21
-49.5
 31
0.0
  0
LINE
  5
247
100
AcDbEntity
  8
0
  6
CONTINUOUS
 62
               7
100
AcDbLine
 10
24.0
 20
16.0
 30
0.0
 11
24.0
 21
11.5
 31
0.0
  0
LINE
  5
248
100
AcDbEntity
  8
0
  6
CONTINUOUS
 62
               7
100
AcDbLine
 10
24.0
 20
-54.0
 30
0.0
 11
32.0
 21
-54.0
 31
0.0
  0
LINE
  5
249
100
AcDbEntity
  8
0
  6
CONTINUOUS
 62
               7
100
AcDbLine
 10
32.0
 20
-54.0
 30
0.0
 11
32.0
 21
16.0
 31
0.0
  0
LINE
  5
24A
100
AcDbEntity
  8
0
  6
CONTINUOUS
 62
               7
100
AcDbLine
 10
24.0
 20
16.0
 30
0.0
 11
32.0
 21
16.0
 31
0.0
  0
LINE
  5
24B
100
AcDbEntity
  8
0
  6
CONTINUOUS
 62
               2
100
AcDbLine
 10
16.5
 20
-52.5
 30
0.0
 11
16.5
 21
14.5
 31
0.0
  0
LINE
  5
24C
100
AcDbEntity
  8
0
  6
CONTINUOUS
 62
               7
100
AcDbLine
 10
0.0
 20
-49.5
 30
0.0
 11
0.0
 21
-29.999972340468958
 31
0.0
  0
LINE
  5
24D
100
AcDbEntity
  8
0
  6
CONTINUOUS
 62
               7
100
AcDbLine
 10
2.5
 20
10.5
 30
0.0
 11
2.5
 21
11.5
 31
0.0
  0
LINE
  5
24E
100
AcDbEntity
  8
0
  6
CONTINUOUS
 62
               7
100
AcDbLine
 10
9.5
 20
10.5
 30
0.0
 11
9.5
 21
11.5
 31
0.0
  0
LINE
  5
24F
100
AcDbEntity
  8
0
  6
CONTINUOUS
 62
               7
100
AcDbLine
 10
9.5
 20
10.5
 30
0.0
 11
2.5
 21
10.5
 31
0.0
  0
LINE
  5
250
100
AcDbEntity
  8
0
  6
CONTINUOUS
 62
               7
100
AcDbLine
 10
2.5
 20
11.5
 30
0.0
 11
0.0
 21
11.5
 31
0.0
  0
LINE
  5
251
100
AcDbEntity
  8
0
  6
CONTINUOUS
 62
               7
100
AcDbLine
 10
2.5
 20
-49.5
 30
0.0
 11
0.0
 21
-49.5
 31
0.0
  0
LINE
  5
252
100
AcDbEntity
  8
0
  6
CONTINUOUS
 62
               7
100
AcDbLine
 10
9.5
 20
-48.5
 30
0.0
 11
2.5
 21
-48.5
 31
0.0
  0
LINE
  5
253
100
AcDbEntity
  8
0
  6
CONTINUOUS
 62
               7
100
AcDbLine
 10
0.29998779296875
 20
-29.699984547500208
 30
0.0
 11
0.29998779296875
 21
-8.2999855339803617
 31
0.0
  0
LINE
  5
254
100
AcDbEntity
  8
0
  6
CONTINUOUS
 62
               7
100
AcDbLine
 10
-0.0000000000000001
 20
-7.9999977410116117
 30
0.0
 11
0.2999877929687504
 21
-8.2999855339803617
 31
0.0
  0
LINE
  5
255
100
AcDbEntity
  8
0
  6
CONTINUOUS
 62
               7
100
AcDbLine
 10
0.0000000000000008
 20
-29.999972340468958
 30
0.0
 11
0.2999877929687496
 21
-29.699984547500208
 31
0.0
  0
LINE
  5
256
100
AcDbEntity
  8
0
  6
CONTINUOUS
 62
               7
100
AcDbLine
 10
0.0
 20
-7.9999977410116117
 30
0.0
 11
0.0
 21
11.500000000000002
 31
0.0
  0
LINE
  5
257
100
AcDbEntity
  8
0
  6
CONTINUOUS
 62
               7
100
AcDbLine
 10
27.999999912577209
 20
11.5
 30
0.0
 11
9.5
 21
11.5
 31
0.0
  0
LINE
  5
258
100
AcDbEntity
  8
0
  6
CONTINUOUS
 62
               7
100
AcDbLine
 10
27.999999956288548
 20
-49.5
 30
0.0
 11
9.5
 21
-49.5
 31
0.0
  0
ARC
  5
259
100
AcDbEntity
  8
0
  6
CONTINUOUS
 62
               7
100
AcDbCircle
 10
28.0
 20
-48.5
 30
0.0
 40
1.0
100
AcDbArc
 50
269.99999749552194
 51
0.0000025044781673
  0
ARC
  5
25A
100
AcDbEntity
  8
0
  6
CONTINUOUS
 62
               7
100
AcDbCircle
 10
28.0
 20
10.5
 30
0.0
 40
1.0
100
AcDbArc
 50
0.0000025044781673
 51
90.000005008956336
  0
LINE
  5
25B
100
AcDbEntity
  8
0
  6
CONTINUOUS
 62
               7
100
AcDbLine
 10
9.5
 20
-55.20001220703125
 30
0.0
 11
9.5
 21
-48.5
 31
0.0
  0
LINE
  5
25C
100
AcDbEntity
  8
0
  6
CONTINUOUS
 62
               7
100
AcDbLine
 10
2.5
 20
-55.20001220703125
 30
0.0
 11
2.5
 21
-48.5
 31
0.0
  0
LINE
  5
25D
100
AcDbEntity
  8
0
  6
CONTINUOUS
 62
               2
100
AcDbLine
 10
6.0
 20
-47.6820068359375
 30
0.0
 11
6.0
 21
-56.391815185546875
 31
0.0
  0
LINE
  5
25E
100
AcDbEntity
  8
0
  6
CONTINUOUS
 62
               7
100
AcDbLine
 10
7.600006103515625
 20
-55.70001220703125
 30
0.0
 11
7.600006103515625
 21
-55.20001220703125
 31
0.0
  0
LINE
  5
25F
100
AcDbEntity
  8
0
  6
CONTINUOUS
 62
               7
100
AcDbLine
 10
3.9000264105711722
 20
-54.699975909221848
 30
0.0
 11
4.4000377309589567
 21
-55.199987229609633
 31
0.0
  0
LINE
  5
260
100
AcDbEntity
  8
0
  6
CONTINUOUS
 62
               7
100
AcDbLine
 10
8.1000265534098617
 20
-54.699975909221848
 30
0.0
 11
7.6000152330220772
 21
-55.199987229609633
 31
0.0
  0
LINE
  5
261
100
AcDbEntity
  8
0
  6
CONTINUOUS
 62
               7
100
AcDbLine
 10
4.399993896484375
 20
-55.70001220703125
 30
0.0
 11
4.399993896484375
 21
-55.199981689453125
 31
0.0
  0
LINE
  5
262
100
AcDbEntity
  8
0
  6
CONTINUOUS
 62
               7
100
AcDbLine
 10
8.100006103515625
 20
-53.100006103515625
 30
0.0
 11
8.100006103515625
 21
-54.70001220703125
 31
0.0
  0
LINE
  5
263
100
AcDbEntity
  8
0
  6
CONTINUOUS
 62
               7
100
AcDbLine
 10
3.0
 20
-55.70001220703125
 30
0.0
 11
4.399993896484375
 21
-55.70001220703125
 31
0.0
  0
LINE
  5
264
100
AcDbEntity
  8
0
  6
CONTINUOUS
 62
               7
100
AcDbLine
 10
9.0
 20
-55.70001220703125
 30
0.0
 11
7.600006103515625
 21
-55.70001220703125
 31
0.0
  0
LINE
  5
265
100
AcDbEntity
  8
0
  6
CONTINUOUS
 62
               7
100
AcDbLine
 10
3.899993896484375
 20
-53.100006103515625
 30
0.0
 11
3.899993896484375
 21
-54.699981689453125
 31
0.0
  0
ARC
  5
266
100
AcDbEntity
  8
0
  6
CONTINUOUS
 62
               7
100
AcDbCircle
 10
3.0
 20
-55.20001220703125
 30
0.0
 40
0.5
100
AcDbArc
 50
179.99999749552182
 51
270.00000865142221
  0
ARC
  5
267
100
AcDbEntity
  8
0
  6
CONTINUOUS
 62
               7
100
AcDbCircle
 10
6.0
 20
-53.100006103515625
 30
0.0
 40
2.0999999046325684
100
AcDbArc
 50
359.99999567428898
 51
180.00000068324533
  0
ARC
  5
268
100
AcDbEntity
  8
0
  6
CONTINUOUS
 62
               7
100
AcDbCircle
 10
9.0
 20
-55.20001220703125
 30
0.0
 40
0.5
100
AcDbArc
 50
269.99999499104388
 51
0.0000025044781673
  0
CIRCLE
  5
269
100
AcDbEntity
  8
0
  6
CONTINUOUS
 62
               7
100
AcDbCircle
 10
5.3499999972751766
 20
-53.200012684684793
 30
0.0
 40
0.5
  0
CIRCLE
  5
26A
100
AcDbEntity
  8
0
  6
CONTINUOUS
 62
               7
100
AcDbCircle
 10
5.3499999972751766
 20
-53.200012684684793
 30
0.0
 40
0.29
  0
CIRCLE
  5
26B
100
AcDbEntity
  8
0
  6
CONTINUOUS
 62
               7
100
AcDbCircle
 10
6.0
 20
-53.200012684684793
 30
0.0
 40
1.3000000000000114
  0
LINE
  5
26C
100
AcDbEntity
  8
0
  6
CONTINUOUS
 62
               7
100
AcDbLine
 10
7.5
 20
-55.70001220703125
 30
0.0
 11
4.5
 21
-55.70001220703125
 31
0.0
  0
LINE
  5
26D
100
AcDbEntity
  8
0
  6
CONTINUOUS
 62
               7
100
AcDbLine
 10
7.25
 20
-55.937411608853729
 30
0.0
 11
4.75
 21
-55.937411608853729
 31
0.0
  0
LINE
  5
26E
100
AcDbEntity
  8
0
  6
CONTINUOUS
 62
               7
100
AcDbLine
 10
7.0500000000000114
 20
-56.137411608853746
 30
0.0
 11
4.9499999999999886
 21
-56.137411608853746
 31
0.0
  0
ARC
  5
26F
100
AcDbEntity
  8
0
  6
CONTINUOUS
 62
               7
100
AcDbCircle
 10
6.0
 20
-53.150012207031253
 30
0.0
 40
2.0499999999999972
100
AcDbArc
 50
12.680383491819539
 51
167.31961650818053
  0
LINE
  5
270
100
AcDbEntity
  8
0
  6
CONTINUOUS
 62
               7
100
AcDbLine
 10
4.75
 20
-55.937411608853729
 30
0.0
 11
4.75
 21
-55.70001220703125
 31
0.0
  0
LINE
  5
271
100
AcDbEntity
  8
0
  6
CONTINUOUS
 62
               7
100
AcDbLine
 10
4.9499999999999886
 20
-56.137411608853746
 30
0.0
 11
4.75
 21
-55.937411608853729
 31
0.0
  0
LINE
  5
272
100
AcDbEntity
  8
0
  6
CONTINUOUS
 62
               2
100
AcDbLine
 10
4.9499999999999886
 20
-55.70001220703125
 30
0.0
 11
4.9499999999999886
 21
-56.137411608853746
 31
0.0
  0
CIRCLE
  5
273
100
AcDbEntity
  8
0
  6
CONTINUOUS
 62
               7
100
AcDbCircle
 10
6.6500000027247665
 20
-53.200012684684808
 30
0.0
 40
0.5
  0
CIRCLE
  5
274
100
AcDbEntity
  8
0
  6
CONTINUOUS
 62
               7
100
AcDbCircle
 10
6.6500000027247665
 20
-53.200012684684808
 30
0.0
 40
0.29
  0
LINE
  5
275
100
AcDbEntity
  8
0
  6
CONTINUOUS
 62
               7
100
AcDbLine
 10
8.0
 20
-54.650272623697916
 30
0.0
 11
7.5
 21
-55.152876790364573
 31
0.0
  0
LINE
  5
276
100
AcDbEntity
  8
0
  6
CONTINUOUS
 62
               7
100
AcDbLine
 10
7.5
 20
-55.152876790364573
 30
0.0
 11
7.5
 21
-55.700012209756025
 31
0.0
  0
LINE
  5
277
100
AcDbEntity
  8
0
  6
CONTINUOUS
 62
               7
100
AcDbLine
 10
7.25
 20
-55.70001220703125
 30
0.0
 11
7.25
 21
-55.937411608853729
 31
0.0
  0
LINE
  5
278
100
AcDbEntity
  8
0
  6
CONTINUOUS
 62
               7
100
AcDbLine
 10
7.25
 20
-55.937411608853729
 30
0.0
 11
7.0500000000000114
 21
-56.137411608853746
 31
0.0
  0
LINE
  5
279
100
AcDbEntity
  8
0
  6
CONTINUOUS
 62
               2
100
AcDbLine
 10
7.0500000000000114
 20
-55.70001220703125
 30
0.0
 11
7.0500000000000114
 21
-56.137411608853746
 31
0.0
  0
LINE
  5
27A
100
AcDbEntity
  8
0
  6
CONTINUOUS
 62
               7
100
AcDbLine
 10
8.0
 20
-52.700012207031264
 30
0.0
 11
8.0
 21
-54.650272623697916
 31
0.0
  0
LINE
  5
27B
100
AcDbEntity
  8
0
  6
CONTINUOUS
 62
               7
100
AcDbLine
 10
4.0
 20
-52.700012207031264
 30
0.0
 11
4.0
 21
-54.650012207031253
 31
0.0
  0
LINE
  5
27C
100
AcDbEntity
  8
0
  6
CONTINUOUS
 62
               7
100
AcDbLine
 10
4.5000000061307333
 20
-55.150012213162015
 30
0.0
 11
4.0
 21
-54.650012207031253
 31
0.0
  0
LINE
  5
27D
100
AcDbEntity
  8
0
  6
CONTINUOUS
 62
               7
100
AcDbLine
 10
4.5
 20
-55.150012207031253
 30
0.0
 11
4.5
 21
-55.700012209756025
 31
0.0
  0
LINE
  5
27E
100
AcDbEntity
  8
0
  6
CONTINUOUS
 62
               7
100
AcDbLine
 10
28.5
 20
-7.0000123237732632
 30
0.0
 11
28.5
 21
-30.999991014377883
 31
0.0
  0
LINE
  5
27F
100
AcDbEntity
  8
0
  6
CONTINUOUS
 62
               7
100
AcDbLine
 10
29.0
 20
10.5
 30
0.0
 11
29.0
 21
-6.5000123237732623
 31
0.0
  0
LINE
  5
280
100
AcDbEntity
  8
0
  6
CONTINUOUS
 62
               7
100
AcDbLine
 10
29.0
 20
-6.5000123237732623
 30
0.0
 11
28.5
 21
-7.0000123237732632
 31
0.0
  0
LINE
  5
281
100
AcDbEntity
  8
0
  6
CONTINUOUS
 62
               7
100
AcDbLine
 10
29.0
 20
-31.499991014377883
 30
0.0
 11
29.0
 21
-48.5
 31
0.0
  0
LINE
  5
282
100
AcDbEntity
  8
0
  6
CONTINUOUS
 62
               7
100
AcDbLine
 10
29.0
 20
-31.499991014377883
 30
0.0
 11
28.5
 21
-30.999991014377883
 31
0.0
  0
LINE
  5
283
100
AcDbEntity
  8
0
  6
CONTINUOUS
 62
               2
100
AcDbLine
 10
-3.0000152587890625
 20
0.0
 30
0.0
 11
2.9999847412109375
 21
0.0
 31
0.0
  0
LINE
  5
284
100
AcDbEntity
  8
0
  6
CONTINUOUS
 62
               2
100
AcDbLine
 10
-3.0000152587890625
 20
-38.0
 30
0.0
 11
2.9999847412109375
 21
-38.0
 31
0.0
  0
LINE
  5
285
100
AcDbEntity
  8
0
  6
CONTINUOUS
 62
               2
100
AcDbLine
 10
28.999984741210938
 20
4.0
 30
0.0
 11
34.999984741210938
 21
4.0
 31
0.0
  0
LINE
  5
286
100
AcDbEntity
  8
0
  6
CONTINUOUS
 62
               2
100
AcDbLine
 10
28.999984741210938
 20
-42.0
 30
0.0
 11
34.999984741210938
 21
-42.0
 31
0.0
  0
ENDBLK
  5
287
100
AcDbEntity
  8
0
100
AcDbBlockEnd
  0
BLOCK
  5
288
100
AcDbEntity
  8
0
100
AcDbBlockBegin
  2
MRVS22-6
 70
               0
 10
0.0
 20
0.0
 30
0.0
  3
MRVS22-6
  1

  0
LINE
  5
289
100
AcDbEntity
  8
0
  6
CONTINUOUS
 62
               2
100
AcDbLine
 10
-7.4999847412109375
 20
16.5
 30
0.0
 11
202.50001525878906
 21
16.5
 31
0.0
  0
LINE
  5
28A
100
AcDbEntity
  8
0
  6
CONTINUOUS
 62
               7
100
AcDbLine
 10
18.500015258789063
 20
13.649993896484375
 30
0.0
 11
18.018875122070312
 21
13.649993896484375
 31
0.0
  0
LINE
  5
28B
100
AcDbEntity
  8
0
  6
CONTINUOUS
 62
               7
100
AcDbLine
 10
18.500015258789063
 20
19.350006103515625
 30
0.0
 11
18.018875122070312
 21
19.350006103515625
 31
0.0
  0
LINE
  5
28C
100
AcDbEntity
  8
0
  6
CONTINUOUS
 62
               7
100
AcDbLine
 10
16.850021362304687
 20
14.300003051757813
 30
0.0
 11
16.850021362304687
 21
18.699996948242188
 31
0.0
  0
LINE
  5
28D
100
AcDbEntity
  8
0
  6
CONTINUOUS
 62
               2
100
AcDbLine
 10
47.500015258789063
 20
37.226383293134489
 30
0.0
 11
47.500015258789063
 21
-4.42364501953125
 31
0.0
  0
LINE
  5
28E
100
AcDbEntity
  8
0
  6
CONTINUOUS
 62
               7
100
AcDbLine
 10
18.500015258789063
 20
2.0
 30
0.0
 11
76.500015258789063
 21
2.0
 31
0.0
  0
LINE
  5
28F
100
AcDbEntity
  8
0
  6
CONTINUOUS
 62
               2
100
AcDbLine
 10
188.00001525878906
 20
21.539993286132813
 30
0.0
 11
188.00001525878906
 21
11.460006713867187
 31
0.0
  0
LINE
  5
290
100
AcDbEntity
  8
0
  6
CONTINUOUS
 62
               7
100
AcDbLine
 10
7.0000152587890625
 20
23.0
 30
0.0
 11
13.500015258789063
 21
23.0
 31
0.0
  0
LINE
  5
291
100
AcDbEntity
  8
0
  6
CONTINUOUS
 62
               7
100
AcDbLine
 10
199.50001525878906
 20
29.0
 30
0.0
 11
188.00001525878906
 21
29.0
 31
0.0
  0
LINE
  5
292
100
AcDbEntity
  8
0
  6
CONTINUOUS
 62
               7
100
AcDbLine
 10
199.50001525878906
 20
29.0
 30
0.0
 11
199.50001525878906
 21
0.0
 31
0.0
  0
LINE
  5
293
100
AcDbEntity
  8
0
  6
CONTINUOUS
 62
               7
100
AcDbLine
 10
181.50001525878906
 20
26.5
 30
0.0
 11
181.50001525878906
 21
9.5
 31
0.0
  0
LINE
  5
294
100
AcDbEntity
  8
0
  6
CONTINUOUS
 62
               2
100
AcDbLine
 10
7.0000152587890625
 20
21.539993286132813
 30
0.0
 11
7.0000152587890625
 21
11.460006713867187
 31
0.0
  0
LINE
  5
295
100
AcDbEntity
  8
0
  6
CONTINUOUS
 62
               7
100
AcDbLine
 10
-4.4999847412109375
 20
29.0
 30
0.0
 11
7.0000152587890625
 21
29.0
 31
0.0
  0
LINE
  5
296
100
AcDbEntity
  8
0
  6
CONTINUOUS
 62
               7
100
AcDbLine
 10
-4.4999847412109375
 20
29.0
 30
0.0
 11
-4.4999847412109375
 21
0.0
 31
0.0
  0
LINE
  5
297
100
AcDbEntity
  8
0
  6
CONTINUOUS
 62
               7
100
AcDbLine
 10
76.500015258789063
 20
13.649993896484375
 30
0.0
 11
76.981155395507813
 21
13.649993896484375
 31
0.0
  0
LINE
  5
298
100
AcDbEntity
  8
0
  6
CONTINUOUS
 62
               7
100
AcDbLine
 10
76.500015258789063
 20
19.350006103515625
 30
0.0
 11
76.981155395507813
 21
19.350006103515625
 31
0.0
  0
LINE
  5
299
100
AcDbEntity
  8
0
  6
CONTINUOUS
 62
               7
100
AcDbLine
 10
78.150009155273437
 20
14.300003051757813
 30
0.0
 11
78.150009155273437
 21
18.699996948242188
 31
0.0
  0
LINE
  5
29A
100
AcDbEntity
  8
0
  6
CONTINUOUS
 62
               7
100
AcDbLine
 10
188.00001525878906
 20
23.0
 30
0.0
 11
181.50001525878906
 21
23.0
 31
0.0
  0
LINE
  5
29B
100
AcDbEntity
  8
0
  6
CONTINUOUS
 62
               7
100
AcDbLine
 10
188.00001525878906
 20
29.0
 30
0.0
 11
188.00001525878906
 21
23.0
 31
0.0
  0
LINE
  5
29C
100
AcDbEntity
  8
0
  6
CONTINUOUS
 62
               7
100
AcDbLine
 10
18.500015258789063
 20
11.499984741210938
 30
0.0
 11
21.000015258789063
 21
11.499984741210938
 31
0.0
  0
LINE
  5
29D
100
AcDbEntity
  8
0
  6
CONTINUOUS
 62
               7
100
AcDbLine
 10
18.500015258789063
 20
14.0980224609375
 30
0.0
 11
76.500015258789063
 21
14.0980224609375
 31
0.0
  0
LINE
  5
29E
100
AcDbEntity
  8
0
  6
CONTINUOUS
 62
               7
100
AcDbLine
 10
7.0000152587890625
 20
29.0
 30
0.0
 11
7.0000152587890625
 21
23.0
 31
0.0
  0
LINE
  5
29F
100
AcDbEntity
  8
0
  6
CONTINUOUS
 62
               7
100
AcDbLine
 10
188.00001525878906
 20
26.5
 30
0.0
 11
181.50001525878906
 21
26.5
 31
0.0
  0
LINE
  5
2A0
100
AcDbEntity
  8
0
  6
CONTINUOUS
 62
               7
100
AcDbLine
 10
7.0000152587890625
 20
26.5
 30
0.0
 11
9.0000152587890625
 21
26.5
 31
0.0
  0
LINE
  5
2A1
100
AcDbEntity
  8
0
  6
CONTINUOUS
 62
               7
100
AcDbLine
 10
9.0000152587890625
 20
32.0
 30
0.0
 11
86.000015258789063
 21
32.0
 31
0.0
  0
LINE
  5
2A2
100
AcDbEntity
  8
0
  6
CONTINUOUS
 62
               7
100
AcDbLine
 10
9.0000152587890625
 20
32.0
 30
0.0
 11
9.0000152587890625
 21
24.0
 31
0.0
  0
LINE
  5
2A3
100
AcDbEntity
  8
0
  6
CONTINUOUS
 62
               7
100
AcDbLine
 10
86.000015258789063
 20
32.0
 30
0.0
 11
86.000015258789063
 21
24.0
 31
0.0
  0
LINE
  5
2A4
100
AcDbEntity
  8
0
  6
CONTINUOUS
 62
               7
100
AcDbLine
 10
9.0000152587890625
 20
24.0
 30
0.0
 11
86.000015258789063
 21
24.0
 31
0.0
  0
LINE
  5
2A5
100
AcDbEntity
  8
0
  6
CONTINUOUS
 62
               7
100
AcDbLine
 10
18.500015258789063
 20
24.0
 30
0.0
 11
18.500015258789063
 21
9.5
 31
0.0
  0
LINE
  5
2A6
100
AcDbEntity
  8
0
  6
CONTINUOUS
 62
               7
100
AcDbLine
 10
20.100021362304688
 20
24.0
 30
0.0
 11
20.100021362304688
 21
9.5
 31
0.0
  0
LINE
  5
2A7
100
AcDbEntity
  8
0
  6
CONTINUOUS
 62
               7
100
AcDbLine
 10
74.900009155273438
 20
24.0
 30
0.0
 11
74.900009155273438
 21
9.5
 31
0.0
  0
LINE
  5
2A8
100
AcDbEntity
  8
0
  6
CONTINUOUS
 62
               7
100
AcDbLine
 10
76.500015258789063
 20
24.0
 30
0.0
 11
76.500015258789063
 21
9.5
 31
0.0
  0
LINE
  5
2A9
100
AcDbEntity
  8
0
  6
CONTINUOUS
 62
               7
100
AcDbLine
 10
86.000015258789063
 20
25.29998779296875
 30
0.0
 11
181.50001525878906
 21
25.29998779296875
 31
0.0
  0
LINE
  5
2AA
100
AcDbEntity
  8
0
  6
CONTINUOUS
 62
               7
100
AcDbLine
 10
13.500015258789063
 20
24.0
 30
0.0
 11
13.500015258789063
 21
9.5
 31
0.0
  0
ARC
  5
2AB
100
AcDbEntity
  8
0
  6
CONTINUOUS
 62
               7
100
AcDbCircle
 10
18.605178833007813
 20
16.919723510742188
 30
0.0
 40
2.5
100
AcDbArc
 50
103.56366536585629
 51
134.59315329352168
  0
ARC
  5
2AC
100
AcDbEntity
  8
0
  6
CONTINUOUS
 62
               7
100
AcDbCircle
 10
18.605178833007813
 20
16.080276489257813
 30
0.0
 40
2.5
100
AcDbArc
 50
225.40684670647832
 51
256.43633463414369
  0
ARC
  5
2AD
100
AcDbEntity
  8
0
  6
CONTINUOUS
 62
               7
100
AcDbCircle
 10
76.394851684570312
 20
16.919723510742188
 30
0.0
 40
2.5
100
AcDbArc
 50
45.406844885245476
 51
76.436339643100041
  0
CIRCLE
  5
2AE
100
AcDbEntity
  8
0
  6
CONTINUOUS
 62
               7
100
AcDbCircle
 10
188.00001525878906
 20
16.5
 30
0.0
 40
2.0
  0
CIRCLE
  5
2AF
100
AcDbEntity
  8
0
  6
CONTINUOUS
 62
               2
100
AcDbCircle
 10
188.00001525878906
 20
16.5
 30
0.0
 40
2.5
  0
CIRCLE
  5
2B0
100
AcDbEntity
  8
0
  6
CONTINUOUS
 62
               7
100
AcDbCircle
 10
7.0000152587890625
 20
16.5
 30
0.0
 40
2.0
  0
CIRCLE
  5
2B1
100
AcDbEntity
  8
0
  6
CONTINUOUS
 62
               2
100
AcDbCircle
 10
7.0000152587890625
 20
16.5
 30
0.0
 40
2.5
  0
ARC
  5
2B2
100
AcDbEntity
  8
0
  6
CONTINUOUS
 62
               7
100
AcDbCircle
 10
76.394851684570312
 20
16.080276489257813
 30
0.0
 40
2.5
100
AcDbArc
 50
283.56366035689996
 51
314.5931551147545
  0
LINE
  5
2B3
100
AcDbEntity
  8
0
  6
CONTINUOUS
 62
               7
100
AcDbLine
 10
-4.4999847412109375
 20
2.5
 30
0.0
 11
199.50001525878906
 21
2.5
 31
0.0
  0
LINE
  5
2B4
100
AcDbEntity
  8
0
  6
CONTINUOUS
 62
               7
100
AcDbLine
 10
-4.4999847412109375
 20
9.5
 30
0.0
 11
199.50001525878906
 21
9.5
 31
0.0
  0
CIRCLE
  5
2B5
100
AcDbEntity
  8
0
  6
CONTINUOUS
 62
               7
100
AcDbCircle
 10
9.5000152587890625
 20
6.0
 30
0.0
 40
1.75
  0
CIRCLE
  5
2B6
100
AcDbEntity
  8
0
  6
CONTINUOUS
 62
               7
100
AcDbCircle
 10
9.5000152587890625
 20
6.0
 30
0.0
 40
2.25
  0
LINE
  5
2B7
100
AcDbEntity
  8
0
  6
CONTINUOUS
 62
               7
100
AcDbLine
 10
8.6161554318932758
 20
5.1161052570587344
 30
0.0
 11
10.38392505200386
 21
6.883874877169319
 31
0.0
  0
LINE
  5
2B8
100
AcDbEntity
  8
0
  6
CONTINUOUS
 62
               7
100
AcDbLine
 10
0.5000152587890625
 20
4.399993896484375
 30
0.0
 11
7.9180908203125
 21
4.399993896484375
 31
0.0
  0
LINE
  5
2B9
100
AcDbEntity
  8
0
  6
CONTINUOUS
 62
               7
100
AcDbLine
 10
10.38392505200386
 20
5.116107954456993
 30
0.0
 11
8.6161581292915344
 21
6.883874877169319
 31
0.0
  0
LINE
  5
2BA
100
AcDbEntity
  8
0
  6
CONTINUOUS
 62
               7
100
AcDbLine
 10
0.5000152587890625
 20
7.600006103515625
 30
0.0
 11
7.9180908203125
 21
7.600006103515625
 31
0.0
  0
LINE
  5
2BB
100
AcDbEntity
  8
0
  6
CONTINUOUS
 62
               7
100
AcDbLine
 10
0.5000152587890625
 20
9.5
 30
0.0
 11
0.5000152587890625
 21
2.5
 31
0.0
  0
LINE
  5
2BC
100
AcDbEntity
  8
0
  6
CONTINUOUS
 62
               7
100
AcDbLine
 10
33.000015258789063
 20
10.25
 30
0.0
 11
62.000015258789063
 21
10.25
 31
0.0
  0
LINE
  5
2BD
100
AcDbEntity
  8
0
  6
CONTINUOUS
 62
               7
100
AcDbLine
 10
11.081939697265625
 20
4.399993896484375
 30
0.0
 11
183.4180908203125
 21
4.399993896484375
 31
0.0
  0
LINE
  5
2BE
100
AcDbEntity
  8
0
  6
CONTINUOUS
 62
               7
100
AcDbLine
 10
11.081939697265625
 20
7.600006103515625
 30
0.0
 11
183.4180908203125
 21
7.600006103515625
 31
0.0
  0
LINE
  5
2BF
100
AcDbEntity
  8
0
  6
CONTINUOUS
 62
               7
100
AcDbLine
 10
33.000015258789063
 20
10.25
 30
0.0
 11
33.000015258789063
 21
9.5
 31
0.0
  0
LINE
  5
2C0
100
AcDbEntity
  8
0
  6
CONTINUOUS
 62
               7
100
AcDbLine
 10
62.000015258789063
 20
10.25
 30
0.0
 11
62.000015258789063
 21
9.5
 31
0.0
  0
LINE
  5
2C1
100
AcDbEntity
  8
0
  6
CONTINUOUS
 62
               7
100
AcDbLine
 10
194.50001525878906
 20
9.5
 30
0.0
 11
194.50001525878906
 21
2.5
 31
0.0
  0
ARC
  5
2C2
100
AcDbEntity
  8
0
  6
CONTINUOUS
 62
               7
100
AcDbCircle
 10
186.00001525878906
 20
6.0
 30
0.0
 40
2.25
100
AcDbArc
 50
269.99999749552182
 51
90.000002504478161
  0
ARC
  5
2C3
100
AcDbEntity
  8
0
  6
CONTINUOUS
 62
               7
100
AcDbCircle
 10
185.00001525878906
 20
6.0
 30
0.0
 40
2.25
100
AcDbArc
 50
90.000002504478161
 51
270.00000068324533
  0
CIRCLE
  5
2C4
100
AcDbEntity
  8
0
  6
CONTINUOUS
 62
               7
100
AcDbCircle
 10
185.50001525878906
 20
6.0
 30
0.0
 40
1.75
  0
LINE
  5
2C5
100
AcDbEntity
  8
0
  6
CONTINUOUS
 62
               7
100
AcDbLine
 10
184.61613632836111
 20
5.11611334925351
 30
0.0
 11
186.38390325107343
 21
6.8838802719658361
 31
0.0
  0
LINE
  5
2C6
100
AcDbEntity
  8
0
  6
CONTINUOUS
 62
               7
100
AcDbLine
 10
194.50001525878906
 20
7.600006103515625
 30
0.0
 11
187.58193969726562
 21
7.600006103515625
 31
0.0
  0
LINE
  5
2C7
100
AcDbEntity
  8
0
  6
CONTINUOUS
 62
               7
100
AcDbLine
 10
186.00001525878906
 20
8.25
 30
0.0
 11
185.00001525878906
 21
8.25
 31
0.0
  0
LINE
  5
2C8
100
AcDbEntity
  8
0
  6
CONTINUOUS
 62
               7
100
AcDbLine
 10
186.3838924614804
 20
5.1161241388465442
 30
0.0
 11
184.61613632836111
 21
6.8838802719658361
 31
0.0
  0
LINE
  5
2C9
100
AcDbEntity
  8
0
  6
CONTINUOUS
 62
               7
100
AcDbLine
 10
194.50001525878906
 20
4.399993896484375
 30
0.0
 11
187.58193969726562
 21
4.399993896484375
 31
0.0
  0
LINE
  5
2CA
100
AcDbEntity
  8
0
  6
CONTINUOUS
 62
               7
100
AcDbLine
 10
-4.4999847412109375
 20
0.0
 30
0.0
 11
13.500015258789063
 21
0.0
 31
0.0
  0
LINE
  5
2CB
100
AcDbEntity
  8
0
  6
CONTINUOUS
 62
               7
100
AcDbLine
 10
199.50001525878906
 20
0.0
 30
0.0
 11
181.50001525878906
 21
0.0
 31
0.0
  0
LINE
  5
2CC
100
AcDbEntity
  8
0
  6
CONTINUOUS
 62
               7
100
AcDbLine
 10
18.500015258789063
 20
2.5
 30
0.0
 11
18.500015258789063
 21
2.0
 31
0.0
  0
LINE
  5
2CD
100
AcDbEntity
  8
0
  6
CONTINUOUS
 62
               7
100
AcDbLine
 10
20.100021362304688
 20
2.5
 30
0.0
 11
20.100021362304688
 21
2.0
 31
0.0
  0
LINE
  5
2CE
100
AcDbEntity
  8
0
  6
CONTINUOUS
 62
               7
100
AcDbLine
 10
74.900009155273438
 20
2.5
 30
0.0
 11
74.900009155273438
 21
2.0
 31
0.0
  0
LINE
  5
2CF
100
AcDbEntity
  8
0
  6
CONTINUOUS
 62
               7
100
AcDbLine
 10
76.500015258789063
 20
2.5
 30
0.0
 11
76.500015258789063
 21
2.0
 31
0.0
  0
LINE
  5
2D0
100
AcDbEntity
  8
0
  6
CONTINUOUS
 62
               7
100
AcDbLine
 10
13.500015258789063
 20
2.5
 30
0.0
 11
13.500015258789063
 21
0.0
 31
0.0
  0
LINE
  5
2D1
100
AcDbEntity
  8
0
  6
CONTINUOUS
 62
               7
100
AcDbLine
 10
181.50001525878906
 20
2.5
 30
0.0
 11
181.50001525878906
 21
0.0
 31
0.0
  0
LINE
  5
2D2
100
AcDbEntity
  8
0
  6
CONTINUOUS
 62
               7
100
AcDbLine
 10
186.00001525878906
 20
3.75
 30
0.0
 11
185.00001525878906
 21
3.75
 31
0.0
  0
LINE
  5
2D3
100
AcDbEntity
  8
0
  6
CONTINUOUS
 62
               7
100
AcDbLine
 10
21.000015258789063
 20
9.5
 30
0.0
 11
21.000015258789063
 21
13.749969482421875
 31
0.0
  0
LINE
  5
2D4
100
AcDbEntity
  8
0
  6
CONTINUOUS
 62
               7
100
AcDbLine
 10
21.000015258789063
 20
13.31695556640625
 30
0.0
 11
74.000015258789063
 21
13.31695556640625
 31
0.0
  0
LINE
  5
2D5
100
AcDbEntity
  8
0
  6
CONTINUOUS
 62
               7
100
AcDbLine
 10
21.000015258789063
 20
13.749969482421875
 30
0.0
 11
74.000015258789063
 21
13.749969482421875
 31
0.0
  0
LINE
  5
2D6
100
AcDbEntity
  8
0
  6
CONTINUOUS
 62
               7
100
AcDbLine
 10
74.000015258789063
 20
9.5
 30
0.0
 11
74.000015258789063
 21
13.749969482421875
 31
0.0
  0
LINE
  5
2D7
100
AcDbEntity
  8
0
  6
CONTINUOUS
 62
               7
100
AcDbLine
 10
21.63037109375
 20
11.211296081542969
 30
0.0
 11
73.231658935546875
 21
11.211296081542969
 31
0.0
  0
LINE
  5
2D8
100
AcDbEntity
  8
0
  6
CONTINUOUS
 62
               7
100
AcDbLine
 10
74.000015258789063
 20
11.499984741210938
 30
0.0
 11
76.500015258789063
 21
11.499984741210938
 31
0.0
  0
LINE
  5
2D9
100
AcDbEntity
  8
0
  6
CONTINUOUS
 62
               2
100
AcDbLine
 10
51.500015258789063
 20
8.9428571428571502
 30
0.0
 11
51.500015258789063
 21
2.7000153265765334
 31
0.0
  0
LINE
  5
2DA
100
AcDbEntity
  8
0
  6
CENTER
 62
               2
100
AcDbLine
 10
54.910417016574343
 20
6.0
 30
0.0
 11
31.997128422761364
 21
6.0
 31
0.0
  0
LINE
  5
2DB
100
AcDbEntity
  8
0
  6
CONTINUOUS
 62
               7
100
AcDbLine
 10
52.18926394462585
 20
4.9571979277474441
 30
0.0
 11
50.457213151114331
 21
6.6892487212589913
 31
0.0
  0
LINE
  5
2DC
100
AcDbEntity
  8
0
  6
CONTINUOUS
 62
               7
100
AcDbLine
 10
52.542817364882126
 20
5.3107513021209911
 30
0.0
 11
50.810766560910054
 21
7.0428021060930348
 31
0.0
  0
CIRCLE
  5
2DD
100
AcDbEntity
  8
0
  6
CONTINUOUS
 62
               2
100
AcDbCircle
 10
51.500015258789063
 20
6.0
 30
0.0
 40
1.05
  0
CIRCLE
  5
2DE
100
AcDbEntity
  8
0
  6
CONTINUOUS
 62
               7
100
AcDbCircle
 10
51.500015258789063
 20
6.0
 30
0.0
 40
1.25
  0
CIRCLE
  5
2DF
100
AcDbEntity
  8
0
  6
CONTINUOUS
 62
               7
100
AcDbCircle
 10
51.500015258789063
 20
6.0
 30
0.0
 40
1.3999999999999997
  0
LINE
  5
2E0
100
AcDbEntity
  8
0
  6
CONTINUOUS
 62
               7
100
AcDbLine
 10
53.50001526355743
 20
4.5
 30
0.0
 11
38.000015258789062
 21
4.5
 31
0.0
  0
LINE
  5
2E1
100
AcDbEntity
  8
0
  6
CONTINUOUS
 62
               7
100
AcDbLine
 10
53.50001526355743
 20
7.5
 30
0.0
 11
38.000015258789062
 21
7.5
 31
0.0
  0
LINE
  5
2E2
100
AcDbEntity
  8
0
  6
CONTINUOUS
 62
               7
100
AcDbLine
 10
38.000015258789062
 20
4.399993896484375
 30
0.0
 11
38.000015258789062
 21
7.600006103515625
 31
0.0
  0
LINE
  5
2E3
100
AcDbEntity
  8
0
  6
CONTINUOUS
 62
               7
100
AcDbLine
 10
53.50001526355743
 20
4.399993896484375
 30
0.0
 11
53.50001526355743
 21
7.600006103515625
 31
0.0
  0
LINE
  5
2E4
100
AcDbEntity
  8
0
  6
CONTINUOUS
 62
               7
100
AcDbLine
 10
43.100015258789085
 20
4.5
 30
0.0
 11
43.100015258789085
 21
7.5
 31
0.0
  0
LINE
  5
2E5
100
AcDbEntity
  8
0
  6
CONTINUOUS
 62
               7
100
AcDbLine
 10
49.600015258789085
 20
4.5
 30
0.0
 11
49.600015258789085
 21
7.5
 31
0.0
  0
LINE
  5
2E6
100
AcDbEntity
  8
0
  6
CONTINUOUS
 62
               7
100
AcDbLine
 10
38.000015258789062
 20
7.3000000000000114
 30
0.0
 11
35.747705789966915
 21
7.3000000000000114
 31
0.0
  0
LINE
  5
2E7
100
AcDbEntity
  8
0
  6
CONTINUOUS
 62
               7
100
AcDbLine
 10
38.000015258789062
 20
4.7000000000000028
 30
0.0
 11
34.246551055555813
 21
4.7000000000000028
 31
0.0
  0
LINE
  5
2E8
100
AcDbEntity
  8
0
  6
CONTINUOUS
 62
               2
100
AcDbLine
 10
35.747705789966915
 20
7.3000000000000114
 30
0.0
 11
34.246551055555813
 21
4.7000000000000028
 31
0.0
  0
LINE
  5
2E9
100
AcDbEntity
  8
0
  6
CONTINUOUS
 62
               2
100
AcDbLine
 10
151.5000152540207
 20
8.9428571428571502
 30
0.0
 11
151.5000152540207
 21
2.7000153265765334
 31
0.0
  0
LINE
  5
2EA
100
AcDbEntity
  8
0
  6
CENTER
 62
               2
100
AcDbLine
 10
154.91041701180598
 20
6.0
 30
0.0
 11
131.997128417993
 21
6.0
 31
0.0
  0
LINE
  5
2EB
100
AcDbEntity
  8
0
  6
CONTINUOUS
 62
               2
100
AcDbLine
 10
135.74770578519855
 20
7.3000000000000114
 30
0.0
 11
134.24655105078745
 21
4.7000000000000028
 31
0.0
  0
LINE
  5
2EC
100
AcDbEntity
  8
0
  6
CONTINUOUS
 62
               7
100
AcDbLine
 10
138.0000152540207
 20
4.7000000000000028
 30
0.0
 11
134.24655105078745
 21
4.7000000000000028
 31
0.0
  0
LINE
  5
2ED
100
AcDbEntity
  8
0
  6
CONTINUOUS
 62
               7
100
AcDbLine
 10
138.0000152540207
 20
7.3000000000000114
 30
0.0
 11
135.74770578519855
 21
7.3000000000000114
 31
0.0
  0
LINE
  5
2EE
100
AcDbEntity
  8
0
  6
CONTINUOUS
 62
               7
100
AcDbLine
 10
149.60001525402072
 20
4.5
 30
0.0
 11
149.60001525402072
 21
7.5
 31
0.0
  0
LINE
  5
2EF
100
AcDbEntity
  8
0
  6
CONTINUOUS
 62
               7
100
AcDbLine
 10
143.10001525402072
 20
4.5
 30
0.0
 11
143.10001525402072
 21
7.5
 31
0.0
  0
LINE
  5
2F0
100
AcDbEntity
  8
0
  6
CONTINUOUS
 62
               7
100
AcDbLine
 10
153.50001525878906
 20
4.399993896484375
 30
0.0
 11
153.50001525878906
 21
7.600006103515625
 31
0.0
  0
LINE
  5
2F1
100
AcDbEntity
  8
0
  6
CONTINUOUS
 62
               7
100
AcDbLine
 10
138.0000152540207
 20
4.399993896484375
 30
0.0
 11
138.0000152540207
 21
7.600006103515625
 31
0.0
  0
LINE
  5
2F2
100
AcDbEntity
  8
0
  6
CONTINUOUS
 62
               7
100
AcDbLine
 10
153.50001525878906
 20
7.5
 30
0.0
 11
138.0000152540207
 21
7.5
 31
0.0
  0
LINE
  5
2F3
100
AcDbEntity
  8
0
  6
CONTINUOUS
 62
               7
100
AcDbLine
 10
153.50001525878906
 20
4.5
 30
0.0
 11
138.0000152540207
 21
4.5
 31
0.0
  0
CIRCLE
  5
2F4
100
AcDbEntity
  8
0
  6
CONTINUOUS
 62
               7
100
AcDbCircle
 10
151.5000152540207
 20
6.0
 30
0.0
 40
1.3999999999999997
  0
CIRCLE
  5
2F5
100
AcDbEntity
  8
0
  6
CONTINUOUS
 62
               7
100
AcDbCircle
 10
151.5000152540207
 20
6.0
 30
0.0
 40
1.25
  0
CIRCLE
  5
2F6
100
AcDbEntity
  8
0
  6
CONTINUOUS
 62
               2
100
AcDbCircle
 10
151.5000152540207
 20
6.0
 30
0.0
 40
1.05
  0
LINE
  5
2F7
100
AcDbEntity
  8
0
  6
CONTINUOUS
 62
               7
100
AcDbLine
 10
152.54281736011376
 20
5.3107513021209911
 30
0.0
 11
150.81076655614169
 21
7.0428021060930348
 31
0.0
  0
LINE
  5
2F8
100
AcDbEntity
  8
0
  6
CONTINUOUS
 62
               7
100
AcDbLine
 10
152.18926393985748
 20
4.9571979277474441
 30
0.0
 11
150.45721314634596
 21
6.6892487212589913
 31
0.0
  0
LINE
  5
2F9
100
AcDbEntity
  8
0
  6
CONTINUOUS
 62
               2
100
AcDbLine
 10
1.5000150000000001
 20
-3.0
 30
0.0
 11
1.5000150000000001
 21
3.0
 31
0.0
  0
LINE
  5
2FA
100
AcDbEntity
  8
0
  6
CONTINUOUS
 62
               2
100
AcDbLine
 10
193.50001499999999
 20
-3.0
 30
0.0
 11
193.50001499999999
 21
3.0
 31
0.0
  0
LINE
  5
2FB
100
AcDbEntity
  8
0
  6
CONTINUOUS
 62
               2
100
AcDbLine
 10
13.500015258789063
 20
29.0
 30
0.0
 11
13.500015258789063
 21
35.0
 31
0.0
  0
LINE
  5
2FC
100
AcDbEntity
  8
0
  6
CONTINUOUS
 62
               2
100
AcDbLine
 10
81.500015258789063
 20
29.0
 30
0.0
 11
81.500015258789063
 21
35.0
 31
0.0
  0
LINE
  5
2FD
100
AcDbEntity
  8
0
  6
PHANTOM
 62
               3
100
AcDbLine
 10
122.00001525878906
 20
81.457895005376713
 30
0.0
 11
122.00001525878906
 21
-13.958947368421065
 31
0.0
  0
ENDBLK
  5
2FE
100
AcDbEntity
  8
0
100
AcDbBlockEnd
  0
ENDSEC
  0
SECTION
  2
ENTITIES
  0
LINE
  5
2FF
100
AcDbEntity
  8
0
  6
CONTINUOUS
 62
               7
100
AcDbLine
 10
-182.69999999999999
 20
-210.0
 30
0.0
 11
182.69999999999999
 21
-210.0
 31
0.0
  0
LINE
  5
300
100
AcDbEntity
  8
0
  6
CONTINUOUS
 62
               7
100
AcDbLine
 10
-182.69999999999999
 20
-198.80000000000001
 30
0.0
 11
182.69999999999999
 21
-198.80000000000001
 31
0.0
  0
LINE
  5
301
100
AcDbEntity
  8
0
  6
CONTINUOUS
 62
               7
100
AcDbLine
 10
-182.69999999999999
 20
-187.60000000000002
 30
0.0
 11
182.69999999999999
 21
-187.60000000000002
 31
0.0
  0
LINE
  5
302
100
AcDbEntity
  8
0
  6
CONTINUOUS
 62
               7
100
AcDbLine
 10
182.69999999999999
 20
-187.60000000000002
 30
0.0
 11
182.69999999999999
 21
-210.0
 31
0.0
  0
MTEXT
  5
303
100
AcDbEntity
  8
0
  6
CONTINUOUS
 62
               7
100
AcDbMText
 10
127.18124976726253
 20
-193.20000000000002
 30
0.0
 40
6.3000001907348633
 41
0.0
 71
               4
 72
               1
  1
\W1.125;\A1;700
  0
MTEXT
  5
304
100
AcDbEntity
  8
0
  6
CONTINUOUS
 62
               7
100
AcDbMText
 10
127.18124976726253
 20
-204.40000000000001
 30
0.0
 40
6.3000001907348633
 41
0.0
 71
               4
 72
               1
  1
\W1.125;\A1;600
  0
LINE
  5
305
100
AcDbEntity
  8
0
  6
CONTINUOUS
 62
               7
100
AcDbLine
 10
-182.69999999999999
 20
-187.60000000000002
 30
0.0
 11
-182.69999999999999
 21
-210.0
 31
0.0
  0
MTEXT
  5
306
100
AcDbEntity
  8
0
  6
CONTINUOUS
 62
               7
100
AcDbMText
 10
-175.35000054041544
 20
-193.20000000000002
 30
0.0
 40
6.3000001907348633
 41
0.0
 71
               4
 72
               1
  1
\A1;STROKE
  0
MTEXT
  5
307
100
AcDbEntity
  8
0
  6
CONTINUOUS
 62
               7
100
AcDbMText
 10
-178.95000092188516
 20
-204.40000000000001
 30
0.0
 40
6.3000001907348633
 41
0.0
 71
               4
 72
               1
  1
\A1;STRETCH
  0
MTEXT
  5
308
100
AcDbEntity
  8
0
  6
CONTINUOUS
 62
               7
100
AcDbMText
 10
-124.81875023273753
 20
-193.20000000000002
 30
0.0
 40
6.3000001907348633
 41
0.0
 71
               4
 72
               1
  1
\W1.125;\A1;200
  0
MTEXT
  5
309
100
AcDbEntity
  8
0
  6
CONTINUOUS
 62
               7
100
AcDbMText
 10
-124.65000023373537
 20
-204.40000000000001
 30
0.0
 40
6.3000001907348633
 41
0.0
 71
               4
 72
               1
  1
\W1.286;\A1;100
  0
MTEXT
  5
30A
100
AcDbEntity
  8
0
  6
CONTINUOUS
 62
               7
100
AcDbMText
 10
-93.388235538764818
 20
-193.20000000000002
 30
0.0
 40
6.3000001907348633
 41
0.0
 71
               4
 72
               1
  1
\W1.059;\A1;250
  0
MTEXT
  5
30B
100
AcDbEntity
  8
0
  6
CONTINUOUS
 62
               7
100
AcDbMText
 10
-93.240000247955336
 20
-204.40000000000001
 30
0.0
 40
6.3000001907348633
 41
0.0
 71
               4
 72
               1
  1
\W1.200;\A1;150
  0
MTEXT
  5
30C
100
AcDbEntity
  8
0
  6
CONTINUOUS
 62
               7
100
AcDbMText
 10
-61.818750232737521
 20
-193.20000000000002
 30
0.0
 40
6.3000001907348633
 41
0.0
 71
               4
 72
               1
  1
\W1.125;\A1;300
  0
MTEXT
  5
30D
100
AcDbEntity
  8
0
  6
CONTINUOUS
 62
               7
100
AcDbMText
 10
-61.818750232737521
 20
-204.40000000000001
 30
0.0
 40
6.3000001907348633
 41
0.0
 71
               4
 72
               1
  1
\W1.125;\A1;200
  0
MTEXT
  5
30E
100
AcDbEntity
  8
0
  6
CONTINUOUS
 62
               7
100
AcDbMText
 10
-30.38823553876485
 20
-193.20000000000002
 30
0.0
 40
6.3000001907348633
 41
0.0
 71
               4
 72
               1
  1
\W1.059;\A1;350
  0
MTEXT
  5
30F
100
AcDbEntity
  8
0
  6
CONTINUOUS
 62
               7
100
AcDbMText
 10
-30.388235538764821
 20
-204.40000000000001
 30
0.0
 40
6.3000001907348633
 41
0.0
 71
               4
 72
               1
  1
\W1.059;\A1;250
  0
LINE
  5
310
100
AcDbEntity
  8
0
  6
CONTINUOUS
 62
               7
100
AcDbLine
 10
-132.30000000000001
 20
-187.60000000000002
 30
0.0
 11
-132.30000000000001
 21
-210.0
 31
0.0
  0
LINE
  5
311
100
AcDbEntity
  8
0
  6
CONTINUOUS
 62
               7
100
AcDbLine
 10
-132.30000000000001
 20
-187.60000000000002
 30
0.0
 11
-132.30000000000001
 21
-210.0
 31
0.0
  0
LINE
  5
312
100
AcDbEntity
  8
0
  6
CONTINUOUS
 62
               7
100
AcDbLine
 10
-100.80000000000001
 20
-187.60000000000002
 30
0.0
 11
-100.80000000000001
 21
-210.0
 31
0.0
  0
LINE
  5
313
100
AcDbEntity
  8
0
  6
CONTINUOUS
 62
               7
100
AcDbLine
 10
-37.800000000000011
 20
-187.60000000000002
 30
0.0
 11
-37.800000000000011
 21
-210.0
 31
0.0
  0
LINE
  5
314
100
AcDbEntity
  8
0
  6
CONTINUOUS
 62
               7
100
AcDbLine
 10
-69.30000000000004
 20
-187.60000000000002
 30
0.0
 11
-69.30000000000004
 21
-210.0
 31
0.0
  0
LINE
  5
315
100
AcDbEntity
  8
0
  6
CONTINUOUS
 62
               7
100
AcDbLine
 10
25.199999999999989
 20
-187.60000000000002
 30
0.0
 11
25.199999999999989
 21
-210.0
 31
0.0
  0
LINE
  5
316
100
AcDbEntity
  8
0
  6
CONTINUOUS
 62
               7
100
AcDbLine
 10
-6.3000000000000114
 20
-187.60000000000002
 30
0.0
 11
-6.3000000000000114
 21
-210.0
 31
0.0
  0
LINE
  5
317
100
AcDbEntity
  8
0
  6
CONTINUOUS
 62
               7
100
AcDbLine
 10
88.199999999999932
 20
-187.60000000000002
 30
0.0
 11
88.199999999999932
 21
-210.0
 31
0.0
  0
LINE
  5
318
100
AcDbEntity
  8
0
  6
CONTINUOUS
 62
               7
100
AcDbLine
 10
56.699999999999989
 20
-187.60000000000002
 30
0.0
 11
56.699999999999989
 21
-210.0
 31
0.0
  0
MTEXT
  5
319
100
AcDbEntity
  8
0
  6
CONTINUOUS
 62
               7
100
AcDbMText
 10
1.1812497672624782
 20
-193.20000000000002
 30
0.0
 40
6.3000001907348633
 41
0.0
 71
               4
 72
               1
  1
\W1.125;\A1;400
  0
MTEXT
  5
31A
100
AcDbEntity
  8
0
  6
CONTINUOUS
 62
               7
100
AcDbMText
 10
1.1812497672624782
 20
-204.40000000000001
 30
0.0
 40
6.3000001907348633
 41
0.0
 71
               4
 72
               1
  1
\W1.125;\A1;300
  0
MTEXT
  5
31B
100
AcDbEntity
  8
0
  6
CONTINUOUS
 62
               7
100
AcDbMText
 10
32.611764461235182
 20
-193.20000000000002
 30
0.0
 40
6.3000001907348633
 41
0.0
 71
               4
 72
               1
  1
\W1.059;\A1;450
  0
MTEXT
  5
31C
100
AcDbEntity
  8
0
  6
CONTINUOUS
 62
               7
100
AcDbMText
 10
32.611764461235182
 20
-204.40000000000001
 30
0.0
 40
6.3000001907348633
 41
0.0
 71
               4
 72
               1
  1
\W1.059;\A1;350
  0
MTEXT
  5
31D
100
AcDbEntity
  8
0
  6
CONTINUOUS
 62
               7
100
AcDbMText
 10
64.181249767262443
 20
-193.20000000000002
 30
0.0
 40
6.3000001907348633
 41
0.0
 71
               4
 72
               1
  1
\W1.125;\A1;500
  0
MTEXT
  5
31E
100
AcDbEntity
  8
0
  6
CONTINUOUS
 62
               7
100
AcDbMText
 10
64.181249767262443
 20
-204.40000000000001
 30
0.0
 40
6.3000001907348633
 41
0.0
 71
               4
 72
               1
  1
\W1.125;\A1;400
  0
LINE
  5
31F
100
AcDbEntity
  8
0
  6
CONTINUOUS
 62
               7
100
AcDbLine
 10
119.69999999999999
 20
-187.60000000000002
 30
0.0
 11
119.69999999999999
 21
-210.0
 31
0.0
  0
MTEXT
  5
320
100
AcDbEntity
  8
0
  6
CONTINUOUS
 62
               7
100
AcDbMText
 10
95.681249767262528
 20
-193.20000000000002
 30
0.0
 40
6.3000001907348633
 41
0.0
 71
               4
 72
               1
  1
\W1.125;\A1;600
  0
MTEXT
  5
321
100
AcDbEntity
  8
0
  6
CONTINUOUS
 62
               7
100
AcDbMText
 10
95.681249767262528
 20
-204.40000000000001
 30
0.0
 40
6.3000001907348633
 41
0.0
 71
               4
 72
               1
  1
\W1.125;\A1;500
  0
LINE
  5
322
100
AcDbEntity
  8
0
  6
CONTINUOUS
 62
               7
100
AcDbLine
 10
151.19999999999999
 20
-187.60000000000002
 30
0.0
 11
151.19999999999999
 21
-210.0
 31
0.0
  0
MTEXT
  5
323
100
AcDbEntity
  8
0
  6
CONTINUOUS
 62
               7
100
AcDbMText
 10
-36.681657917256793
 20
-179.37707598096648
 30
0.0
 40
6.3000001907348633
 41
0.0
 71
               4
 72
               1
  1
\W1.065;\A1;STRETCH LIST
  0
MTEXT
  5
324
100
AcDbEntity
  8
0
  6
CONTINUOUS
 62
               7
100
AcDbMText
 10
158.68124976726253
 20
-204.40000000000001
 30
0.0
 40
6.3000001907348633
 41
0.0
 71
               4
 72
               1
  1
\W1.125;\A1;700
  0
MTEXT
  5
325
100
AcDbEntity
  8
0
  6
CONTINUOUS
 62
               7
100
AcDbMText
 10
158.68124976726253
 20
-193.20000000000002
 30
0.0
 40
6.3000001907348633
 41
0.0
 71
               4
 72
               1
  1
\W1.125;\A1;800
  0
LINE
  5
326
100
AcDbEntity
  8
0
  6
CONTINUOUS
 62
               7
100
AcDbLine
 10
182.69999999999999
 20
-187.60000000000002
 30
0.0
 11
182.69999999999999
 21
-210.0
 31
0.0
  0
MTEXT
  5
327
100
AcDbEntity
  8
0
  6
CONTINUOUS
 62
               7
100
AcDbMText
 10
163.63088200524155
 20
-182.53554807802374
 30
0.0
 40
6.3000001907348633
 41
0.0
 71
               4
 72
               1
  1
\W0.833;\A1;（ｍｍ）
  0
LINE
  5
328
100
AcDbEntity
  8
0
  6
CONTINUOUS
 62
               7
100
AcDbLine
 10
0.0
 20
276.5
 30
0.0
 11
0.0
 21
-160.0
 31
0.0
  0
INSERT
  5
329
100
AcDbEntity
  8
0
  6
ByBlock
100
AcDbBlockReference
  2
MRVS22-6
 10
138.49998500000001
 20
-50.0
 30
0.0
  0
INSERT
  5
32A
100
AcDbEntity
  8
0
  6
ByBlock
100
AcDbBlockReference
  2
MRVS22-5
 10
50.0
 20
110.0
 30
0.0
  0
INSERT
  5
32B
100
AcDbEntity
  8
0
  6
ByBlock
100
AcDbBlockReference
  2
MRVS22-4
 10
140.0
 20
110.0
 30
0.0
  0
INSERT
  5
32C
100
AcDbEntity
  8
0
  6
ByBlock
100
AcDbBlockReference
  2
MRVS22-3
 10
-250.0
 20
-50.0
 30
0.0
  0
INSERT
  5
32D
100
AcDbEntity
  8
0
  6
ByBlock
100
AcDbBlockReference
  2
MRVS22-2
 10
-340.0
 20
110.0
 30
0.0
  0
INSERT
  5
32E
100
AcDbEntity
  8
0
  6
ByBlock
100
AcDbBlockReference
  2
MRVS22-1
 10
-250.0
 20
110.0
 30
0.0
  0
MTEXT
  5
32F
100
AcDbEntity
  8
0
  6
CONTINUOUS
 62
               7
100
AcDbMText
 10
95.478706388133915
 20
217.99999904632568
 30
0.0
 40
9.0
 41
0.0
 71
               4
 72
               1
  1
\W1.079;\A1;(WITH SENSOR SWITCH)
  0
MTEXT
  5
330
100
AcDbEntity
  8
0
  6
CONTINUOUS
 62
               7
100
AcDbMText
 10
-325.87129447017298
 20
219.47499990463257
 30
0.0
 40
9.0
 41
0.0
 71
               4
 72
               1
  1
\W1.079;\A1;(WITH SENSOR SWITCH)
  0
MTEXT
  5
331
100
AcDbEntity
  8
0
  6
CONTINUOUS
 62
               3
100
AcDbMText
 10
209.58122382775358
 20
169.56379150530128
 30
0.0
 40
6.3000001907348633
 41
0.0
 71
               4
 72
               1
  1
\W1.065;\A1;STRETCH LINE
  0
MTEXT
  5
332
100
AcDbEntity
  8
0
  6
CONTINUOUS
 62
               7
100
AcDbMText
 10
37.598047860645536
 20
231.5
 30
0.0
 40
9.0
 41
0.0
 71
               4
 72
               1
  1
\W1.082;\A1;MODEL:MRVS22*ST(100)-M
  0
MTEXT
  5
333
100
AcDbEntity
  8
0
  6
CONTINUOUS
 62
               3
100
AcDbMText
 10
-177.97857985063493
 20
172.32948483203526
 30
0.0
 40
6.3000001907348633
 41
0.0
 71
               4
 72
               1
  1
\W1.065;\A1;STRETCH LINE
  0
LINE
  5
334
100
AcDbEntity
  8
0
  6
CONTINUOUS
 62
               7
100
AcDbLine
 10
0.0
 20
276.5
 30
0.0
 11
0.0
 21
-160.0
 31
0.0
  0
MTEXT
  5
335
100
AcDbEntity
  8
0
  6
CONTINUOUS
 62
               7
100
AcDbMText
 10
-345.10385514197259
 20
257.75
 30
0.0
 40
9.0
 41
0.0
 71
               4
 72
               1
  1
\W0.947;\A1;MRVS22
  0
MTEXT
  5
336
100
AcDbEntity
  8
0
  6
CONTINUOUS
 62
               7
100
AcDbMText
 10
-389.95286486967689
 20
270.25
 30
0.0
 40
9.0
 41
0.0
 71
               4
 72
               1
  1
\W1.048;\A1;RODLESS CYLINDER
  0
LINE
  5
337
100
AcDbEntity
  8
0
  6
CONTINUOUS
 62
               7
100
AcDbLine
 10
239.52490234375
 20
-251.5
 30
0.0
 11
239.52490234375
 21
-276.5
 31
0.0
  0
LINE
  5
338
100
AcDbEntity
  8
0
  6
CONTINUOUS
 62
               7
100
AcDbLine
 10
239.52490234375
 20
-251.5
 30
0.0
 11
399.52490234375
 21
-251.5
 31
0.0
  0
LINE
  5
339
100
AcDbEntity
  8
0
  6
CONTINUOUS
 62
               7
100
AcDbLine
 10
239.52490234375
 20
251.5
 30
0.0
 11
239.52490234375
 21
276.5
 31
0.0
  0
LINE
  5
33A
100
AcDbEntity
  8
0
  6
CONTINUOUS
 62
               7
100
AcDbLine
 10
239.52490234375
 20
251.5
 30
0.0
 11
399.52490234375
 21
251.5
 31
0.0
  0
LINE
  5
33B
100
AcDbEntity
  8
0
  6
CONTINUOUS
 62
               7
100
AcDbLine
 10
-239.52490234375
 20
251.5
 30
0.0
 11
-239.52490234375
 21
276.5
 31
0.0
  0
LINE
  5
33C
100
AcDbEntity
  8
0
  6
CONTINUOUS
 62
               7
100
AcDbLine
 10
-239.52490234375
 20
251.5
 30
0.0
 11
-399.52490234375
 21
251.5
 31
0.0
  0
MTEXT
  5
33D
100
AcDbEntity
  8
0
  6
CONTINUOUS
 62
               7
100
AcDbMText
 10
245.60966041118564
 20
-264.0
 30
0.0
 40
12.5
 41
0.0
 71
               4
 72
               1
  1
\W1.121;\A1;KOGANEI CORP.
  0
MTEXT
  5
33E
100
AcDbEntity
  8
0
  6
CONTINUOUS
 62
               7
100
AcDbMText
 10
285.49210822679424
 20
264.0
 30
0.0
 40
9.0
 41
0.0
 71
               4
 72
               1
  1
\W1.311;\A1;Ver. 1.0
  0
MTEXT
  5
33F
100
AcDbEntity
  8
0
  6
CONTINUOUS
 62
               7
100
AcDbMText
 10
-382.38853932047681
 20
231.5
 30
0.0
 40
9.0
 41
0.0
 71
               4
 72
               1
  1
\W1.091;\A1;MODEL:MRVS22*ST(100)
  0
LINE
  5
340
100
AcDbEntity
  8
0
  6
CONTINUOUS
 62
               7
100
AcDbLine
 10
-399.52490234375
 20
-276.5
 30
0.0
 11
399.52490234375
 21
-276.5
 31
0.0
  0
LINE
  5
341
100
AcDbEntity
  8
0
  6
CONTINUOUS
 62
               7
100
AcDbLine
 10
-399.52490234375
 20
276.5
 30
0.0
 11
399.52490234375
 21
276.5
 31
0.0
  0
LINE
  5
342
100
AcDbEntity
  8
0
  6
CONTINUOUS
 62
               7
100
AcDbLine
 10
-399.52490234375
 20
276.5
 30
0.0
 11
-399.52490234375
 21
-276.5
 31
0.0
  0
LINE
  5
343
100
AcDbEntity
  8
0
  6
CONTINUOUS
 62
               7
100
AcDbLine
 10
399.52490234375
 20
276.5
 30
0.0
 11
399.52490234375
 21
-276.5
 31
0.0
  0
ENDSEC
  0
SECTION
  2
OBJECTS
  0
DICTIONARY
  5
19
100
AcDbDictionary
  3
ACAD_GROUP
350
1A
  3
ACAD_MLINESTYLE
350
1B
  0
DICTIONARY
  5
1A
102
{ACAD_REACTORS
330
19
102
}
100
AcDbDictionary
  0
DICTIONARY
  5
1B
102
{ACAD_REACTORS
330
19
102
}
100
AcDbDictionary
  3
STANDARD
350
1C
  0
MLINESTYLE
  5
1C
102
{ACAD_REACTORS
330
1B
102
}
100
AcDbMlineStyle
  2
Standard
 70
               0
  3

 62
               0
 51
90.0
 52
90.0
 71
               2
 49
0.5
 62
             256
  6
ByLayer
 49
-0.5
 62
             256
  6
ByLayer
  0
ENDSEC
  0
EOF
