  0
SECTION
  2
HEADER
  0
ENDSEC
  0
SECTION
  2
TABLES
  0
TABLE
  2
LTYPE
 70
     4
  0
LTYPE
  2
CONTINUOUS
 70
    64
  3
Solid line
 72
    65
 73
     0
 40
0.000000
  0
LTYPE
  2
DASHED
 70
    64
  3
__ __ __ __ __ __ __ __ __ __ __ __ __ __ __
 72
    65
 73
     2
 40
3.500000
 49
2.000000
 49
-1.500000
  0
LTYPE
  2
CENTER
 70
    64
  3
____ _ ____ _ ____ _ ____ _ ____ _ ____ _ ____
 72
    65
 73
     4
 40
17.500000
 49
13.000000
 49
-1.500000
 49
1.500000
 49
-1.500000
  0
LTYPE
  2
PHANTOM
 70
    64
  3
_____ _ _ _____ _ _ _____ _ _ _____ _ _ ____  
 72
    65
 73
     6
 40
15.500000
 49
8.000000
 49
-1.500000
 49
1.500000
 49
-1.500000
 49
1.500000
 49
-1.500000
  0
LTYPE
  2
DASHED1
 70
    64
  3
__ __ __ __ __ __ __ __ __ __ __ __ __ __ __
 72
    65
 73
     2
 40
1.500000
 49
1.000000
 49
-0.500000
  0
LTYPE
  2
DASHED2
 70
    64
  3
__ __ __ __ __ __ __ __ __ __ __ __ __ __ __
 72
    65
 73
     2
 40
3.500000
 49
2.500000
 49
-1.000000
  0
LTYPE
  2
DASHED3
 70
    64
  3
__ __ __ __ __ __ __ __ __ __ __ __ __ __ __
 72
    65
 73
     2
 40
6.000000
 49
4.000000
 49
-2.000000
  0
LTYPE
  2
DASHED4
 70
    64
  3
__ __ __ __ __ __ __ __ __ __ __ __ __ __ __
 72
    65
 73
     2
 40
12.000000
 49
10.000000
 49
-2.000000
  0
LTYPE
  2
DASHED5
 70
    64
  3
__ __ __ __ __ __ __ __ __ __ __ __ __ __ __
 72
    65
 73
     2
 40
17.000000
 49
15.000000
 49
-2.000000
  0
LTYPE
  2
DASHED6
 70
    64
  3
__ __ __ __ __ __ __ __ __ __ __ __ __ __ __
 72
    65
 73
     2
 40
29.000000
 49
27.000000
 49
-2.000000
  0
LTYPE
  2
PHANTOM1
 70
    64
  3
_____ _ _ _____ _ _ _____ _ _ _____ _ _ ____  
 72
    65
 73
     6
 40
31.000000
 49
25.000000
 49
-1.500000
 49
1.000000
 49
-1.000000
 49
1.000000
 49
-1.500000
  0
LTYPE
  2
PHANTOM2
 70
    64
  3
_____ _ _ _____ _ _ _____ _ _ _____ _ _ ____  
 72
    65
 73
     6
 40
36.000000
 49
27.000000
 49
-1.500000
 49
2.500000
 49
-1.000000
 49
2.500000
 49
-1.500000
  0
LTYPE
  2
PHANTOM3
 70
    64
  3
_____ _ _ _____ _ _ _____ _ _ _____ _ _ ____  
 72
    65
 73
     6
 40
78.000000
 49
64.000000
 49
-2.000000
 49
4.000000
 49
-2.000000
 49
4.000000
 49
-2.000000
  0
LTYPE
  2
CENTER1
 70
    64
  3
____ _ ____ _ ____ _ ____ _ ____ _ ____ _ ____
 72
    65
 73
     4
 40
19.000000
 49
14.000000
 49
-1.000000
 49
3.000000
 49
-1.000000
  0
LTYPE
  2
CENTER2
 70
    64
  3
____ _ ____ _ ____ _ ____ _ ____ _ ____ _ ____
 72
    65
 73
     4
 40
28.500000
 49
25.000000
 49
-1.000000
 49
1.500000
 49
-1.000000
  0
LTYPE
  2
CENTER3
 70
    64
  3
____ _ ____ _ ____ _ ____ _ ____ _ ____ _ ____
 72
    65
 73
     4
 40
31.500000
 49
27.000000
 49
-1.000000
 49
2.500000
 49
-1.000000
  0
LTYPE
  2
CENTER4
 70
    64
  3
____ _ ____ _ ____ _ ____ _ ____ _ ____ _ ____
 72
    65
 73
     4
 40
50.000000
 49
45.000000
 49
-1.000000
 49
3.000000
 49
-1.000000
  0
LTYPE
  2
CENTER5
 70
    64
  3
____ _ ____ _ ____ _ ____ _ ____ _ ____ _ ____
 72
    65
 73
     4
 40
100.000000
 49
92.000000
 49
-2.000000
 49
4.000000
 49
-2.000000
  0
LTYPE
  2
SBK1
 70
    64
  3
______ _ _ _ ______ _ _ _ ______ _ _ _ _____  
 72
    65
 73
     8
 40
60.500000
 49
45.000000
 49
-2.000000
 49
2.500000
 49
-2.000000
 49
2.500000
 49
-2.000000
 49
2.500000
 49
-2.000000
  0
LTYPE
  2
SBK2
 70
    64
  3
______ _ _ _ ______ _ _ _ ______ _ _ _ _____  
 72
    65
 73
     8
 40
84.000000
 49
64.000000
 49
-2.000000
 49
4.000000
 49
-2.000000
 49
4.000000
 49
-2.000000
 49
4.000000
 49
-2.000000
  0
LTYPE
  2
STCH
 70
    64
  3
__ __ __ __ __ __ __ __ __ __ __ __ __ __ __
 72
    65
 73
     2
 40
3.000000
 49
1.000000
 49
-2.000000
  0
LTYPE
  2
MTCH
 70
    64
  3
_____ _ _ _____ _ _ _____ _ _ _____ _ _ ____  
 72
    65
 73
     6
 40
80.000000
 49
66.000000
 49
-2.000000
 49
4.000000
 49
-2.000000
 49
4.000000
 49
-2.000000
  0
ENDTAB
  0
TABLE
  2
LAYER
 70
     1
  0
LAYER
  2
0
 70
     0
 62
     7
  6
CONTINUOUS
  0
ENDTAB
  0
TABLE
  2
STYLE
 70
     1
  0
STYLE
  2
STANDARD
 70
     0
 40
0.000000
 41
1.000000
 50
0.000000
 71
     0
 42
0.200000
  3
txt
  4
BIGFONT
  0
ENDTAB
  0
TABLE
  2
VIEW
 70
     0
  0
ENDTAB
  0
ENDSEC
  0
SECTION
  2
BLOCKS
  0
ENDSEC
  0
SECTION
  2
ENTITIES
  0
LINE
  8
0
 10
-315.299316
 20
-147.703262
 11
-315.299316
 21
-88.703262
  0
LINE
  8
0
 10
-298.299316
 20
-88.703262
 11
-298.299316
 21
-147.703262
  0
LINE
  8
0
 10
284.690674
 20
-147.703262
 11
284.690674
 21
-88.703262
  0
LINE
  8
0
  6
CENTER
 62
     2
 10
-165.309326
 20
-153.533264
 11
-165.309326
 21
-74.523270
  0
LINE
  8
0
 10
267.690674
 20
-147.703262
 11
267.690674
 21
-88.703262
  0
LINE
  8
0
 62
     4
 10
-163.084518
 20
-108.439224
 11
-161.534515
 21
-109.979225
  0
LINE
  8
0
 62
     4
 10
-163.084518
 20
-109.979225
 11
-161.534515
 21
-108.439232
  0
LINE
  8
0
 62
     4
 10
-142.804504
 20
-108.019226
 11
-136.749512
 21
-108.019226
  0
LINE
  8
0
 62
     4
 10
-142.804504
 20
-110.399231
 11
-136.749512
 21
-110.399231
  0
LINE
  8
0
 62
     4
 10
-144.304520
 20
-107.609238
 11
-142.804520
 21
-108.019234
  0
LINE
  8
0
 62
     4
 10
-144.304520
 20
-110.809219
 11
-142.804520
 21
-110.399223
  0
LINE
  8
0
 62
     4
 10
-142.804504
 20
-110.399231
 11
-142.804504
 21
-108.019226
  0
LINE
  8
0
 62
     4
 10
-144.304504
 20
-110.809235
 11
-144.304504
 21
-107.609222
  0
LINE
  8
0
 62
     4
 10
-159.304504
 20
-110.809235
 11
-159.304504
 21
-107.609222
  0
LINE
  8
0
 62
     4
 10
-165.304504
 20
-110.809235
 11
-165.304504
 21
-107.609222
  0
LINE
  8
0
 62
     4
 10
126.915443
 20
-114.439217
 11
128.465332
 21
-115.979103
  0
LINE
  8
0
 62
     4
 10
126.915329
 20
-115.979263
 11
128.465393
 21
-114.439201
  0
LINE
  8
0
 62
     4
 10
147.195312
 20
-114.019226
 11
153.250488
 21
-114.019226
  0
LINE
  8
0
 62
     4
 10
147.195312
 20
-116.399231
 11
153.250488
 21
-116.399231
  0
LINE
  8
0
 62
     4
 10
145.695404
 20
-113.609200
 11
147.195297
 21
-114.019173
  0
LINE
  8
0
 62
     4
 10
145.695312
 20
-116.809273
 11
147.195450
 21
-116.399231
  0
LINE
  8
0
 62
     4
 10
147.195312
 20
-116.399231
 11
147.195312
 21
-114.019226
  0
LINE
  8
0
 62
     4
 10
145.695312
 20
-116.809235
 11
145.695312
 21
-113.609222
  0
LINE
  8
0
 62
     4
 10
130.695312
 20
-116.809235
 11
130.695312
 21
-113.609222
  0
LINE
  8
0
 62
     4
 10
124.695312
 20
-116.809235
 11
124.695312
 21
-113.609222
  0
LINE
  8
0
 10
232.690674
 20
-93.203262
 11
232.690674
 21
-104.703262
  0
LINE
  8
0
 10
190.690674
 20
-102.453262
 11
190.690674
 21
-104.703262
  0
LINE
  8
0
 10
267.690674
 20
-88.703262
 11
284.690674
 21
-88.703262
  0
LINE
  8
0
 10
-315.299316
 20
-88.703262
 11
-298.299316
 21
-88.703262
  0
LINE
  8
0
 10
-72.309326
 20
-91.903275
 11
267.690674
 21
-91.903275
  0
LINE
  8
0
 10
-298.299316
 20
-91.903275
 11
-258.299316
 21
-91.903275
  0
LINE
  8
0
 10
267.690674
 20
-123.703262
 11
284.690674
 21
-123.703262
  0
LINE
  8
0
 10
-298.299316
 20
-123.703262
 11
-315.299316
 21
-123.703262
  0
LINE
  8
0
 10
-298.299316
 20
-107.603271
 11
267.690674
 21
-107.603271
  0
LINE
  8
0
 10
-298.299316
 20
-110.803268
 11
267.690674
 21
-110.803268
  0
LINE
  8
0
 10
195.690674
 20
-102.453262
 11
190.690674
 21
-102.453262
  0
LINE
  8
0
 10
196.440674
 20
-101.703262
 11
196.440674
 21
-104.703262
  0
LINE
  8
0
 10
195.690674
 20
-102.453262
 11
195.690674
 21
-104.703262
  0
LINE
  8
0
 10
195.690460
 20
-102.453255
 11
196.440536
 21
-101.703171
  0
LINE
  8
0
 62
     2
 10
232.690674
 20
-102.453262
 11
195.690674
 21
-102.453262
  0
LINE
  8
0
 10
232.690674
 20
-101.703262
 11
196.440674
 21
-101.703262
  0
LINE
  8
0
 10
232.690674
 20
-93.203262
 11
267.690674
 21
-93.203262
  0
LINE
  8
0
 62
     2
 10
-263.299316
 20
-102.453262
 11
-258.299316
 21
-102.453262
  0
LINE
  8
0
 10
-263.299316
 20
-101.703262
 11
-258.299316
 21
-101.703262
  0
LINE
  8
0
 10
-263.299316
 20
-93.203262
 11
-263.299316
 21
-104.703262
  0
LINE
  8
0
 10
-298.299316
 20
-93.203262
 11
-263.299316
 21
-93.203262
  0
LINE
  8
0
 10
-75.309326
 20
-103.703262
 11
-75.309326
 21
-104.703262
  0
LINE
  8
0
 10
-158.309326
 20
-103.703262
 11
-158.309326
 21
-104.703262
  0
LINE
  8
0
 10
-255.299316
 20
-103.703262
 11
-255.299316
 21
-104.703262
  0
LINE
  8
0
 10
-172.309326
 20
-103.703262
 11
-172.309326
 21
-104.703262
  0
LINE
  8
0
 10
-298.299316
 20
-106.703262
 11
-315.299316
 21
-106.703262
  0
LINE
  8
0
 10
267.690674
 20
-106.703262
 11
284.690674
 21
-106.703262
  0
LINE
  8
0
 10
-298.299316
 20
-116.803268
 11
267.690674
 21
-116.803268
  0
LINE
  8
0
 10
-298.299316
 20
-113.603271
 11
267.690674
 21
-113.603271
  0
LINE
  8
0
 10
-72.309326
 20
-103.703262
 11
-258.299316
 21
-103.703262
  0
LINE
  8
0
 10
-258.299316
 20
-77.703262
 11
-258.299316
 21
-103.703262
  0
LINE
  8
0
 10
-72.309326
 20
-77.703262
 11
-72.309326
 21
-103.703262
  0
LINE
  8
0
 10
-258.299316
 20
-77.703262
 11
-72.309326
 21
-77.703262
  0
LINE
  8
0
 10
-298.299316
 20
-104.703262
 11
267.690674
 21
-104.703262
  0
LINE
  8
0
 10
-315.299316
 20
-147.703262
 11
284.690674
 21
-147.703262
  0
LINE
  8
0
  6
CENTER
 62
     2
 10
-307.299316
 20
-151.703262
 11
-307.299316
 21
-143.703262
  0
LINE
  8
0
  6
PHANTOM
 62
     3
 10
28.883789
 20
-172.024750
 11
28.883789
 21
-46.151245
  0
LINE
  8
0
  6
CENTER
 62
     2
 10
355.760437
 20
62.286743
 11
371.990417
 21
62.286743
  0
LINE
  8
0
  6
DASHED
 62
     2
 10
365.690430
 20
58.036743
 11
369.690430
 21
58.036743
  0
LINE
  8
0
  6
DASHED
 62
     2
 10
365.690430
 20
69.536743
 11
365.690430
 21
55.036743
  0
LINE
  8
0
  6
DASHED
 62
     2
 10
359.190430
 20
55.036743
 11
365.690430
 21
55.036743
  0
LINE
  8
0
  6
DASHED
 62
     2
 10
359.190430
 20
69.536743
 11
365.690430
 21
69.536743
  0
LINE
  8
0
  6
DASHED
 62
     2
 10
365.690430
 20
66.536743
 11
369.690430
 21
66.536743
  0
LINE
  8
0
  6
DASHED
 62
     2
 10
359.190430
 20
55.036743
 11
359.190430
 21
58.036743
  0
LINE
  8
0
  6
DASHED
 62
     2
 10
358.190430
 20
58.036743
 11
359.190430
 21
58.036743
  0
LINE
  8
0
  6
DASHED
 62
     2
 10
358.190430
 20
58.036743
 11
358.190430
 21
66.536743
  0
LINE
  8
0
  6
DASHED
 62
     2
 10
358.190430
 20
66.536743
 11
359.190430
 21
66.536743
  0
LINE
  8
0
  6
DASHED
 62
     2
 10
359.190430
 20
66.536743
 11
359.190430
 21
69.536743
  0
LINE
  8
0
  6
DASHED
 62
     2
 10
359.840424
 20
55.036743
 11
359.840424
 21
69.536743
  0
LINE
  8
0
  6
CENTER
 62
     2
 10
355.760437
 20
2.286728
 11
371.990417
 21
2.286728
  0
LINE
  8
0
  6
DASHED
 62
     2
 10
365.690430
 20
-1.963272
 11
369.690430
 21
-1.963272
  0
LINE
  8
0
  6
DASHED
 62
     2
 10
365.690430
 20
9.536728
 11
365.690430
 21
-4.963272
  0
LINE
  8
0
  6
DASHED
 62
     2
 10
359.190430
 20
-4.963272
 11
365.690430
 21
-4.963272
  0
LINE
  8
0
  6
DASHED
 62
     2
 10
359.190430
 20
9.536728
 11
365.690430
 21
9.536728
  0
LINE
  8
0
  6
DASHED
 62
     2
 10
365.690430
 20
6.536728
 11
369.690430
 21
6.536728
  0
LINE
  8
0
  6
DASHED
 62
     2
 10
359.190430
 20
-4.963272
 11
359.190430
 21
-1.963272
  0
LINE
  8
0
  6
DASHED
 62
     2
 10
358.190430
 20
-1.963272
 11
359.190430
 21
-1.963272
  0
LINE
  8
0
  6
DASHED
 62
     2
 10
358.190430
 20
-1.963272
 11
358.190430
 21
6.536728
  0
LINE
  8
0
  6
DASHED
 62
     2
 10
358.190430
 20
6.536728
 11
359.190430
 21
6.536728
  0
LINE
  8
0
  6
DASHED
 62
     2
 10
359.190430
 20
6.536728
 11
359.190430
 21
9.536728
  0
LINE
  8
0
  6
DASHED
 62
     2
 10
359.840424
 20
-4.963272
 11
359.840424
 21
9.536728
  0
LINE
  8
0
  6
DASHED
 62
     2
 10
369.040436
 20
12.936737
 11
369.040436
 21
51.636734
  0
LINE
  8
0
  6
DASHED
 62
     2
 10
369.690430
 20
52.286747
 11
369.040405
 21
51.636738
  0
LINE
  8
0
  6
DASHED
 62
     2
 10
369.690430
 20
12.286726
 11
369.040436
 21
12.936730
  0
LINE
  8
0
 10
299.690430
 20
92.286743
 11
299.690430
 21
-9.713272
  0
LINE
  8
0
 10
369.690430
 20
-9.713272
 11
338.790436
 21
-9.713272
  0
LINE
  8
0
 10
369.690430
 20
156.286728
 11
369.690430
 21
-9.713272
  0
LINE
  8
0
 10
299.690430
 20
92.286743
 11
310.690430
 21
92.286743
  0
LINE
  8
0
 62
     2
 10
332.690430
 20
69.286743
 11
332.690430
 21
41.286743
  0
LINE
  8
0
  6
CENTER
 62
     2
 10
346.690430
 20
55.286743
 11
317.250427
 21
55.286743
  0
LINE
  8
0
 10
335.590454
 20
-9.213272
 11
335.590454
 21
-9.713272
  0
LINE
  8
0
 10
335.090424
 20
-8.713276
 11
335.590424
 21
-9.213277
  0
LINE
  8
0
 10
335.090454
 20
-8.713272
 11
335.090454
 21
-7.113266
  0
LINE
  8
0
 10
339.290436
 20
-8.713277
 11
338.790466
 21
-9.213262
  0
LINE
  8
0
 10
338.790436
 20
-9.213272
 11
338.790436
 21
-9.713272
  0
LINE
  8
0
 10
328.690430
 20
-4.213272
 11
328.690430
 21
-9.713272
  0
LINE
  8
0
 10
310.690430
 20
156.286728
 11
369.690430
 21
156.286728
  0
LINE
  8
0
 10
329.090454
 20
-8.713272
 11
329.090454
 21
-7.113266
  0
LINE
  8
0
 10
329.090424
 20
-8.713261
 11
329.590424
 21
-9.213262
  0
LINE
  8
0
 10
329.590454
 20
-9.213272
 11
329.590454
 21
-9.713272
  0
LINE
  8
0
 10
332.790436
 20
-9.213272
 11
332.790436
 21
-9.713272
  0
LINE
  8
0
 10
333.290436
 20
-8.713244
 11
332.790436
 21
-9.213245
  0
LINE
  8
0
 10
333.290436
 20
-8.713272
 11
333.290436
 21
-7.113266
  0
LINE
  8
0
 10
339.290436
 20
-8.713272
 11
340.790436
 21
-8.713272
  0
LINE
  8
0
 10
338.910431
 20
-5.913269
 11
340.040436
 21
-5.913269
  0
LINE
  8
0
 10
343.790436
 20
-7.913269
 11
342.180420
 21
-7.913269
  0
LINE
  8
0
 10
343.790436
 20
-5.113266
 11
341.430420
 21
-5.113266
  0
LINE
  8
0
 10
340.790466
 20
-8.713264
 11
342.180420
 21
-7.913265
  0
LINE
  8
0
 10
340.040436
 20
-5.913268
 11
341.430450
 21
-5.113263
  0
LINE
  8
0
 10
345.690430
 20
-4.213272
 11
345.690430
 21
-9.713272
  0
LINE
  8
0
 10
345.690430
 20
-4.213272
 11
328.690430
 21
-4.213272
  0
LINE
  8
0
 10
335.590454
 20
-9.713272
 11
332.790436
 21
-9.713272
  0
LINE
  8
0
 10
329.590454
 20
-9.713272
 11
299.690430
 21
-9.713272
  0
LINE
  8
0
 10
332.040436
 20
65.266739
 11
332.040436
 21
45.306732
  0
LINE
  8
0
 10
333.340454
 20
65.266739
 11
333.340454
 21
45.306732
  0
LINE
  8
0
 10
310.690430
 20
156.286728
 11
310.690430
 21
-9.713272
  0
LINE
  8
0
  6
CENTER
 62
     1
 10
337.190430
 20
-0.833267
 11
337.190430
 21
-10.903259
  0
LINE
  8
0
  6
CENTER
 62
     1
 10
331.190430
 20
-0.833267
 11
331.190430
 21
-10.903259
  0
LINE
  8
0
 62
     4
 10
329.140442
 20
-8.743256
 11
329.690430
 21
-9.293262
  0
LINE
  8
0
 62
     4
 10
335.140442
 20
-8.743271
 11
335.140442
 21
-7.293259
  0
LINE
  8
0
 62
     4
 10
330.190430
 20
-5.263260
 11
330.940186
 21
-5.263260
  0
LINE
  8
0
 62
     4
 10
330.190430
 20
-10.263260
 11
332.190430
 21
-10.263260
  0
LINE
  8
0
 62
     4
 10
329.690430
 20
-9.843262
 11
332.690430
 21
-9.843262
  0
LINE
  8
0
  6
CENTER
 62
     1
 10
332.836884
 20
-7.493271
 11
329.547424
 21
-7.493271
  0
LINE
  8
0
  6
CENTER
 62
     1
 10
331.925720
 20
-7.043259
 11
330.438019
 21
-7.043259
  0
LINE
  8
0
  6
CENTER
 62
     1
 10
331.925720
 20
-7.943268
 11
330.438019
 21
-7.943268
  0
LINE
  8
0
 62
     4
 10
331.440674
 20
-5.263260
 11
332.190430
 21
-5.263260
  0
LINE
  8
0
 62
     1
 10
332.190430
 20
-5.508881
 11
332.190430
 21
-5.263260
  0
LINE
  8
0
 62
     4
 10
332.190430
 20
-5.263270
 11
332.440430
 21
-5.513263
  0
LINE
  8
0
 62
     4
 10
332.440430
 20
-5.673721
 11
332.440430
 21
-5.513260
  0
LINE
  8
0
 62
     4
 10
330.190430
 20
-5.263263
 11
329.940430
 21
-5.513266
  0
LINE
  8
0
 62
     4
 10
329.940430
 20
-5.673264
 11
329.940430
 21
-5.513260
  0
LINE
  8
0
 62
     1
 10
330.190430
 20
-5.508545
 11
330.190430
 21
-5.263260
  0
LINE
  8
0
 62
     4
 10
329.690430
 20
-9.793259
 11
329.690430
 21
-9.343262
  0
LINE
  8
0
 62
     4
 10
329.690430
 20
-9.843262
 11
329.690430
 21
-9.293259
  0
LINE
  8
0
 62
     4
 10
329.940430
 20
-10.013267
 11
330.190430
 21
-10.263275
  0
LINE
  8
0
 62
     4
 10
329.940430
 20
-10.013260
 11
329.940430
 21
-9.843262
  0
LINE
  8
0
 62
     1
 10
330.190430
 20
-10.263260
 11
330.190430
 21
-9.843262
  0
LINE
  8
0
 62
     4
 10
333.240417
 20
-8.743266
 11
332.690430
 21
-9.293261
  0
LINE
  8
0
 62
     4
 10
332.690430
 20
-9.793259
 11
332.690430
 21
-9.343262
  0
LINE
  8
0
 62
     4
 10
332.690430
 20
-9.843262
 11
332.690430
 21
-9.293259
  0
LINE
  8
0
 62
     4
 10
332.440430
 20
-10.013247
 11
332.190430
 21
-10.263256
  0
LINE
  8
0
 62
     4
 10
332.440430
 20
-10.013260
 11
332.440430
 21
-9.843262
  0
LINE
  8
0
 62
     1
 10
332.190430
 20
-10.263260
 11
332.190430
 21
-9.843262
  0
LINE
  8
0
 62
     4
 10
333.240417
 20
-8.743271
 11
333.240417
 21
-7.293259
  0
LINE
  8
0
 62
     4
 10
337.440674
 20
-5.263260
 11
338.190430
 21
-5.263260
  0
LINE
  8
0
 62
     4
 10
339.240417
 20
-8.743271
 11
339.240417
 21
-7.293259
  0
LINE
  8
0
 62
     4
 10
338.440430
 20
-5.673721
 11
338.440430
 21
-5.513260
  0
LINE
  8
0
 62
     1
 10
338.190430
 20
-5.508881
 11
338.190430
 21
-5.263260
  0
LINE
  8
0
 62
     1
 10
336.190430
 20
-5.508545
 11
336.190430
 21
-5.263260
  0
LINE
  8
0
 62
     4
 10
335.940430
 20
-5.673264
 11
335.940430
 21
-5.513260
  0
LINE
  8
0
 62
     4
 10
336.190430
 20
-5.263258
 11
335.940430
 21
-5.513267
  0
LINE
  8
0
 62
     4
 10
338.190430
 20
-5.263253
 11
338.440430
 21
-5.513262
  0
LINE
  8
0
 62
     4
 10
336.190430
 20
-5.263260
 11
336.940186
 21
-5.263260
  0
LINE
  8
0
 62
     1
 10
336.190430
 20
-10.263260
 11
336.190430
 21
-9.843262
  0
LINE
  8
0
 62
     1
 10
338.190430
 20
-10.263260
 11
338.190430
 21
-9.843262
  0
LINE
  8
0
 62
     4
 10
335.940430
 20
-10.013260
 11
335.940430
 21
-9.843262
  0
LINE
  8
0
 62
     4
 10
335.940430
 20
-10.013265
 11
336.190430
 21
-10.263257
  0
LINE
  8
0
 62
     4
 10
338.440430
 20
-10.013260
 11
338.440430
 21
-9.843262
  0
LINE
  8
0
 62
     4
 10
338.440430
 20
-10.013258
 11
338.190430
 21
-10.263250
  0
LINE
  8
0
 62
     4
 10
336.190430
 20
-10.263260
 11
338.190430
 21
-10.263260
  0
LINE
  8
0
 62
     4
 10
339.240417
 20
-8.743268
 11
338.690430
 21
-9.293262
  0
LINE
  8
0
 62
     4
 10
338.690430
 20
-9.843262
 11
338.690430
 21
-9.293259
  0
LINE
  8
0
 62
     4
 10
335.690430
 20
-9.843262
 11
338.690430
 21
-9.843262
  0
LINE
  8
0
 62
     4
 10
335.690430
 20
-9.843262
 11
335.690430
 21
-9.293259
  0
LINE
  8
0
  6
CENTER
 62
     1
 10
338.836884
 20
-7.493271
 11
335.547424
 21
-7.493271
  0
LINE
  8
0
  6
CENTER
 62
     1
 10
337.925720
 20
-7.043259
 11
336.438019
 21
-7.043259
  0
LINE
  8
0
  6
CENTER
 62
     1
 10
337.925720
 20
-7.943268
 11
336.438019
 21
-7.943268
  0
LINE
  8
0
 62
     4
 10
338.690430
 20
-9.793259
 11
338.690430
 21
-9.343262
  0
LINE
  8
0
 62
     4
 10
335.690430
 20
-9.793259
 11
335.690430
 21
-9.343262
  0
LINE
  8
0
 62
     4
 10
335.140411
 20
-8.743260
 11
335.690430
 21
-9.293261
  0
LINE
  8
0
 62
     4
 10
329.140442
 20
-8.743271
 11
329.140442
 21
-7.293259
  0
LINE
  8
0
  6
CENTER
 62
     2
 10
365.690430
 20
148.286728
 11
373.690430
 21
148.286728
  0
LINE
  8
0
 62
     4
 10
-352.049316
 20
-8.043259
 11
-352.049316
 21
-7.943268
  0
LINE
  8
0
 62
     4
 10
-349.549316
 20
-8.043259
 11
-349.549316
 21
-7.943268
  0
LINE
  8
0
 62
     4
 10
-352.049316
 20
-10.013260
 11
-352.049316
 21
-9.843262
  0
LINE
  8
0
 62
     1
 10
-351.799316
 20
-8.043259
 11
-351.799316
 21
-7.943268
  0
LINE
  8
0
 62
     1
 10
-349.799316
 20
-8.043259
 11
-349.799316
 21
-7.943268
  0
LINE
  8
0
 62
     4
 10
-349.549316
 20
-10.013260
 11
-349.549316
 21
-9.843262
  0
LINE
  8
0
 62
     4
 10
-352.049316
 20
-7.243271
 11
-352.049316
 21
-5.513260
  0
LINE
  8
0
 62
     1
 10
-351.799316
 20
-7.243271
 11
-351.799316
 21
-5.263260
  0
LINE
  8
0
 62
     1
 10
-349.799316
 20
-7.243271
 11
-349.799316
 21
-5.263260
  0
LINE
  8
0
 62
     4
 10
-349.549316
 20
-7.243271
 11
-349.549316
 21
-5.513260
  0
LINE
  8
0
 62
     4
 10
-349.799347
 20
-5.263263
 11
-349.549316
 21
-5.513267
  0
LINE
  8
0
 62
     4
 10
-352.049286
 20
-10.013238
 11
-351.799286
 21
-10.263247
  0
LINE
  8
0
 62
     4
 10
-351.799316
 20
-5.263269
 11
-352.049316
 21
-5.513262
  0
LINE
  8
0
 62
     4
 10
-349.549316
 20
-10.013265
 11
-349.799316
 21
-10.263273
  0
LINE
  8
0
 62
     4
 10
-349.799316
 20
-5.263260
 11
-351.799316
 21
-5.263260
  0
LINE
  8
0
 62
     4
 10
-349.799316
 20
-10.263260
 11
-351.799316
 21
-10.263260
  0
LINE
  8
0
 62
     1
 10
-349.799316
 20
-10.263260
 11
-349.799316
 21
-9.843262
  0
LINE
  8
0
 62
     1
 10
-351.799316
 20
-10.263260
 11
-351.799316
 21
-9.843262
  0
LINE
  8
0
 62
     4
 10
-348.899323
 20
-7.243271
 11
-352.699341
 21
-7.243271
  0
LINE
  8
0
 62
     4
 10
-348.799316
 20
-7.843262
 11
-348.799316
 21
-7.343262
  0
LINE
  8
0
 62
     4
 10
-352.799316
 20
-7.843262
 11
-352.799316
 21
-7.343262
  0
LINE
  8
0
 62
     4
 10
-348.899323
 20
-7.943268
 11
-352.699341
 21
-7.943268
  0
LINE
  8
0
 62
     4
 10
-348.749329
 20
-8.043259
 11
-352.849304
 21
-8.043259
  0
LINE
  8
0
 62
     4
 10
-352.849304
 20
-8.743267
 11
-352.299316
 21
-9.293262
  0
LINE
  8
0
 62
     4
 10
-348.749329
 20
-8.743261
 11
-349.299316
 21
-9.293267
  0
LINE
  8
0
 62
     4
 10
-352.299316
 20
-9.843262
 11
-352.299316
 21
-9.293259
  0
LINE
  8
0
 62
     4
 10
-349.299316
 20
-9.843262
 11
-349.299316
 21
-9.293259
  0
LINE
  8
0
 62
     4
 10
-348.749329
 20
-8.743271
 11
-348.749329
 21
-7.293259
  0
LINE
  8
0
 62
     4
 10
-352.849304
 20
-8.743271
 11
-352.849304
 21
-7.293259
  0
LINE
  8
0
 62
     4
 10
-349.299316
 20
-9.843262
 11
-352.299316
 21
-9.843262
  0
LINE
  8
0
 62
     4
 10
-358.049316
 20
-8.043259
 11
-358.049316
 21
-7.943268
  0
LINE
  8
0
 62
     4
 10
-355.549316
 20
-8.043259
 11
-355.549316
 21
-7.943268
  0
LINE
  8
0
 62
     4
 10
-358.049316
 20
-10.013260
 11
-358.049316
 21
-9.843262
  0
LINE
  8
0
 62
     1
 10
-357.799316
 20
-8.043259
 11
-357.799316
 21
-7.943268
  0
LINE
  8
0
 62
     1
 10
-355.799316
 20
-8.043259
 11
-355.799316
 21
-7.943268
  0
LINE
  8
0
 62
     4
 10
-355.549316
 20
-10.013260
 11
-355.549316
 21
-9.843262
  0
LINE
  8
0
 62
     4
 10
-358.049316
 20
-7.243271
 11
-358.049316
 21
-5.513260
  0
LINE
  8
0
 62
     1
 10
-357.799316
 20
-7.243271
 11
-357.799316
 21
-5.263260
  0
LINE
  8
0
 62
     1
 10
-355.799316
 20
-7.243271
 11
-355.799316
 21
-5.263260
  0
LINE
  8
0
 62
     4
 10
-355.549316
 20
-7.243271
 11
-355.549316
 21
-5.513260
  0
LINE
  8
0
 62
     4
 10
-355.799316
 20
-5.263260
 11
-355.549316
 21
-5.513269
  0
LINE
  8
0
 62
     4
 10
-358.049316
 20
-10.013261
 11
-357.799316
 21
-10.263254
  0
LINE
  8
0
 62
     4
 10
-357.799316
 20
-5.263262
 11
-358.049316
 21
-5.513260
  0
LINE
  8
0
 62
     4
 10
-355.549316
 20
-10.013272
 11
-355.799316
 21
-10.263265
  0
LINE
  8
0
 62
     4
 10
-355.799316
 20
-5.263260
 11
-357.799316
 21
-5.263260
  0
LINE
  8
0
 62
     4
 10
-355.799316
 20
-10.263260
 11
-357.799316
 21
-10.263260
  0
LINE
  8
0
 62
     1
 10
-355.799316
 20
-10.263260
 11
-355.799316
 21
-9.843262
  0
LINE
  8
0
 62
     1
 10
-357.799316
 20
-10.263260
 11
-357.799316
 21
-9.843262
  0
LINE
  8
0
 62
     4
 10
-354.899323
 20
-7.243271
 11
-358.699341
 21
-7.243271
  0
LINE
  8
0
 62
     4
 10
-354.799316
 20
-7.843262
 11
-354.799316
 21
-7.343262
  0
LINE
  8
0
 62
     4
 10
-358.799316
 20
-7.843262
 11
-358.799316
 21
-7.343262
  0
LINE
  8
0
 62
     1
 10
-354.899323
 20
-7.943268
 11
-358.699341
 21
-7.943268
  0
LINE
  8
0
 62
     4
 10
-354.749329
 20
-8.043259
 11
-358.849304
 21
-8.043259
  0
LINE
  8
0
 62
     4
 10
-358.849304
 20
-8.743269
 11
-358.299316
 21
-9.293263
  0
LINE
  8
0
 62
     4
 10
-354.749298
 20
-8.743266
 11
-355.299316
 21
-9.293266
  0
LINE
  8
0
 62
     4
 10
-358.299316
 20
-9.843262
 11
-358.299316
 21
-9.293259
  0
LINE
  8
0
 62
     4
 10
-355.299316
 20
-9.843262
 11
-355.299316
 21
-9.293259
  0
LINE
  8
0
 62
     4
 10
-354.749329
 20
-8.743271
 11
-354.749329
 21
-7.293259
  0
LINE
  8
0
 62
     4
 10
-358.849304
 20
-8.743271
 11
-358.849304
 21
-7.293259
  0
LINE
  8
0
 62
     4
 10
-355.299316
 20
-9.843262
 11
-358.299316
 21
-9.843262
  0
LINE
  8
0
 10
-330.299316
 20
156.286728
 11
-330.299316
 21
-9.713272
  0
LINE
  8
0
 10
-352.949341
 20
65.266739
 11
-352.949341
 21
45.306732
  0
LINE
  8
0
 10
-351.649323
 20
65.266739
 11
-351.649323
 21
45.306732
  0
LINE
  8
0
 10
-349.199341
 20
-9.713272
 11
-319.299316
 21
-9.713272
  0
LINE
  8
0
 10
-355.199341
 20
-9.713272
 11
-352.399323
 21
-9.713272
  0
LINE
  8
0
 10
-365.299316
 20
-4.213272
 11
-348.299316
 21
-4.213272
  0
LINE
  8
0
  6
CENTER
 62
     2
 10
-354.299316
 20
122.286728
 11
-354.299316
 21
100.206741
  0
LINE
  8
0
  6
CENTER
 62
     2
 10
-363.299316
 20
113.286728
 11
-345.299316
 21
113.286728
  0
LINE
  8
0
  6
CENTER
 62
     2
 10
-370.799316
 20
75.286743
 11
-370.799316
 21
56.956741
  0
LINE
  8
0
 10
-365.299316
 20
-4.213272
 11
-365.299316
 21
-9.713272
  0
LINE
  8
0
 10
-359.649323
 20
-5.913267
 11
-361.039337
 21
-5.113261
  0
LINE
  8
0
 10
-360.399323
 20
-8.713262
 11
-361.789307
 21
-7.913263
  0
LINE
  8
0
 10
-363.399323
 20
-5.113266
 11
-361.039307
 21
-5.113266
  0
LINE
  8
0
 10
-363.399323
 20
-7.913269
 11
-361.789307
 21
-7.913269
  0
LINE
  8
0
 10
-358.519318
 20
-5.913269
 11
-359.649323
 21
-5.913269
  0
LINE
  8
0
 10
-358.899323
 20
-8.713272
 11
-360.399323
 21
-8.713272
  0
LINE
  8
0
 10
-352.899323
 20
-8.713272
 11
-352.899323
 21
-7.113266
  0
LINE
  8
0
 10
-352.899323
 20
-8.713258
 11
-352.399323
 21
-9.213259
  0
LINE
  8
0
 10
-352.399323
 20
-9.213272
 11
-352.399323
 21
-9.713272
  0
LINE
  8
0
 10
-349.199341
 20
-9.213272
 11
-349.199341
 21
-9.713272
  0
LINE
  8
0
 10
-348.699310
 20
-8.713269
 11
-349.199310
 21
-9.213270
  0
LINE
  8
0
 10
-348.699341
 20
-8.713272
 11
-348.699341
 21
-7.113266
  0
LINE
  8
0
 10
-330.299316
 20
156.286728
 11
-389.299316
 21
156.286728
  0
LINE
  8
0
  6
CENTER
 62
     2
 10
-379.299316
 20
66.286743
 11
-362.299316
 21
66.286743
  0
LINE
  8
0
 10
-348.299316
 20
-4.213272
 11
-348.299316
 21
-9.713272
  0
LINE
  8
0
 10
-358.399323
 20
-9.213272
 11
-358.399323
 21
-9.713272
  0
LINE
  8
0
 10
-358.899323
 20
-8.713266
 11
-358.399323
 21
-9.213251
  0
LINE
  8
0
 10
-354.699341
 20
-8.713272
 11
-354.699341
 21
-7.113266
  0
LINE
  8
0
 10
-354.699310
 20
-8.713265
 11
-355.199310
 21
-9.213277
  0
LINE
  8
0
 10
-355.199341
 20
-9.213272
 11
-355.199341
 21
-9.713272
  0
LINE
  8
0
  6
CENTER
 62
     2
 10
-366.299316
 20
55.286743
 11
-336.859314
 21
55.286743
  0
LINE
  8
0
  6
CENTER
 62
     2
 10
-352.299316
 20
69.286743
 11
-352.299316
 21
41.286743
  0
LINE
  8
0
 10
-319.299316
 20
92.286743
 11
-330.299316
 21
92.286743
  0
LINE
  8
0
 10
-389.299316
 20
156.286728
 11
-389.299316
 21
-9.713272
  0
LINE
  8
0
 10
-389.299316
 20
-9.713272
 11
-358.399323
 21
-9.713272
  0
LINE
  8
0
 10
-319.299316
 20
92.286743
 11
-319.299316
 21
-9.713272
  0
LINE
  8
0
  6
DASHED
 62
     2
 10
-389.299316
 20
12.286748
 11
-388.649353
 21
12.936742
  0
LINE
  8
0
  6
DASHED
 62
     2
 10
-389.299316
 20
52.286751
 11
-388.649323
 21
51.636742
  0
LINE
  8
0
  6
DASHED
 62
     2
 10
-388.649323
 20
12.936737
 11
-388.649323
 21
51.636734
  0
LINE
  8
0
  6
DASHED
 62
     2
 10
-379.449310
 20
-4.963272
 11
-379.449310
 21
9.536728
  0
LINE
  8
0
  6
DASHED
 62
     2
 10
-378.799316
 20
6.536728
 11
-378.799316
 21
9.536728
  0
LINE
  8
0
  6
DASHED
 62
     2
 10
-377.799316
 20
6.536728
 11
-378.799316
 21
6.536728
  0
LINE
  8
0
  6
DASHED
 62
     2
 10
-377.799316
 20
-1.963272
 11
-377.799316
 21
6.536728
  0
LINE
  8
0
  6
DASHED
 62
     2
 10
-377.799316
 20
-1.963272
 11
-378.799316
 21
-1.963272
  0
LINE
  8
0
  6
DASHED
 62
     2
 10
-378.799316
 20
-4.963272
 11
-378.799316
 21
-1.963272
  0
LINE
  8
0
  6
DASHED
 62
     2
 10
-385.299316
 20
6.536728
 11
-389.299316
 21
6.536728
  0
LINE
  8
0
  6
DASHED
 62
     2
 10
-378.799316
 20
9.536728
 11
-385.299316
 21
9.536728
  0
LINE
  8
0
  6
DASHED
 62
     2
 10
-378.799316
 20
-4.963272
 11
-385.299316
 21
-4.963272
  0
LINE
  8
0
  6
DASHED
 62
     2
 10
-385.299316
 20
9.536728
 11
-385.299316
 21
-4.963272
  0
LINE
  8
0
  6
DASHED
 62
     2
 10
-385.299316
 20
-1.963272
 11
-389.299316
 21
-1.963272
  0
LINE
  8
0
  6
CENTER
 62
     2
 10
-375.369324
 20
2.286728
 11
-391.599304
 21
2.286728
  0
LINE
  8
0
  6
DASHED
 62
     2
 10
-379.449310
 20
55.036743
 11
-379.449310
 21
69.536743
  0
LINE
  8
0
  6
DASHED
 62
     2
 10
-378.799316
 20
66.536743
 11
-378.799316
 21
69.536743
  0
LINE
  8
0
  6
DASHED
 62
     2
 10
-377.799316
 20
66.536743
 11
-378.799316
 21
66.536743
  0
LINE
  8
0
  6
DASHED
 62
     2
 10
-377.799316
 20
58.036743
 11
-377.799316
 21
66.536743
  0
LINE
  8
0
  6
DASHED
 62
     2
 10
-377.799316
 20
58.036743
 11
-378.799316
 21
58.036743
  0
LINE
  8
0
  6
DASHED
 62
     2
 10
-378.799316
 20
55.036743
 11
-378.799316
 21
58.036743
  0
LINE
  8
0
  6
DASHED
 62
     2
 10
-385.299316
 20
66.536743
 11
-389.299316
 21
66.536743
  0
LINE
  8
0
  6
DASHED
 62
     2
 10
-378.799316
 20
69.536743
 11
-385.299316
 21
69.536743
  0
LINE
  8
0
  6
DASHED
 62
     2
 10
-378.799316
 20
55.036743
 11
-385.299316
 21
55.036743
  0
LINE
  8
0
  6
DASHED
 62
     2
 10
-385.299316
 20
69.536743
 11
-385.299316
 21
55.036743
  0
LINE
  8
0
  6
DASHED
 62
     2
 10
-385.299316
 20
58.036743
 11
-389.299316
 21
58.036743
  0
LINE
  8
0
  6
CENTER
 62
     2
 10
-375.369324
 20
62.286743
 11
-391.599304
 21
62.286743
  0
LINE
  8
0
  6
CENTER
 62
     2
 10
-393.299316
 20
148.286728
 11
-385.299316
 21
148.286728
  0
LINE
  8
0
  6
CENTER
 62
     1
 10
-356.799316
 20
-3.073257
 11
-356.799316
 21
-11.883270
  0
LINE
  8
0
  6
CENTER
 62
     1
 10
-350.799316
 20
-3.073257
 11
-350.799316
 21
-11.883270
  0
LINE
  8
0
  6
DASHED
 10
-298.299316
 20
46.536743
 11
-298.299316
 21
54.636734
  0
LINE
  8
0
 62
     4
 10
-161.309326
 20
83.286743
 11
-161.309326
 21
81.286743
  0
LINE
  8
0
 62
     4
 10
-169.309326
 20
83.286743
 11
-169.309326
 21
81.286743
  0
LINE
  8
0
 10
174.690674
 20
52.286743
 11
190.690674
 21
52.286743
  0
LINE
  8
0
 10
174.690674
 20
58.286743
 11
190.690674
 21
58.286743
  0
LINE
  8
0
 10
174.690674
 20
58.286743
 11
174.690674
 21
52.286743
  0
LINE
  8
0
  6
CENTER
 62
     1
 10
-171.249329
 20
81.286743
 11
-159.529327
 21
81.286743
  0
LINE
  8
0
  6
CENTER
 62
     1
 10
-171.319321
 20
83.286743
 11
-159.529327
 21
83.286743
  0
LINE
  8
0
 10
-72.309326
 20
-3.213272
 11
267.690674
 21
-3.213272
  0
LINE
  8
0
 10
-275.304504
 20
37.560776
 11
-272.304504
 21
35.830780
  0
LINE
  8
0
 10
-272.304474
 20
42.750778
 11
-269.304504
 21
41.020786
  0
LINE
  8
0
 10
-272.304504
 20
35.830769
 11
-269.304504
 21
37.560780
  0
LINE
  8
0
 10
-275.304504
 20
41.020767
 11
-272.304504
 21
42.750767
  0
LINE
  8
0
 10
-269.304504
 20
41.020782
 11
-269.304504
 21
37.560776
  0
LINE
  8
0
 10
-275.304504
 20
41.020782
 11
-275.304504
 21
37.560776
  0
LINE
  8
0
 10
-292.304504
 20
37.560780
 11
-289.304504
 21
35.830780
  0
LINE
  8
0
 10
-289.304504
 20
42.750782
 11
-286.304504
 21
41.020779
  0
LINE
  8
0
 10
-289.304504
 20
35.830780
 11
-286.304504
 21
37.560787
  0
LINE
  8
0
 10
-292.304504
 20
41.020779
 11
-289.304504
 21
42.750790
  0
LINE
  8
0
 10
-286.304504
 20
41.020782
 11
-286.304504
 21
37.560776
  0
LINE
  8
0
 10
-292.304504
 20
41.020782
 11
-292.304504
 21
37.560776
  0
LINE
  8
0
 10
-283.804504
 20
71.560776
 11
-280.804504
 21
69.830780
  0
LINE
  8
0
 10
-280.804504
 20
76.750778
 11
-277.804504
 21
75.020782
  0
LINE
  8
0
 10
-280.804504
 20
69.830765
 11
-277.804504
 21
71.560760
  0
LINE
  8
0
 10
-283.804504
 20
75.020775
 11
-280.804504
 21
76.750771
  0
LINE
  8
0
 10
-277.804504
 20
75.020782
 11
-277.804504
 21
71.560776
  0
LINE
  8
0
 10
-283.804504
 20
75.020782
 11
-283.804504
 21
71.560776
  0
LINE
  8
0
 10
255.695206
 20
37.560810
 11
258.695251
 21
35.830784
  0
LINE
  8
0
 10
258.695160
 20
42.750835
 11
261.695221
 21
41.020805
  0
LINE
  8
0
 10
258.695068
 20
35.830776
 11
261.695129
 21
37.560799
  0
LINE
  8
0
 10
255.695129
 20
41.020760
 11
258.695190
 21
42.750793
  0
LINE
  8
0
 10
261.695068
 20
41.020782
 11
261.695068
 21
37.560776
  0
LINE
  8
0
 10
255.695068
 20
41.020782
 11
255.695068
 21
37.560776
  0
LINE
  8
0
 10
238.695206
 20
37.560822
 11
241.695236
 21
35.830803
  0
LINE
  8
0
 10
241.695160
 20
42.750858
 11
244.695206
 21
41.020828
  0
LINE
  8
0
 10
241.695068
 20
35.830742
 11
244.695114
 21
37.560772
  0
LINE
  8
0
 10
238.695145
 20
41.020733
 11
241.695175
 21
42.750759
  0
LINE
  8
0
 10
244.695068
 20
41.020782
 11
244.695068
 21
37.560776
  0
LINE
  8
0
 10
238.695068
 20
41.020782
 11
238.695068
 21
37.560776
  0
LINE
  8
0
 10
247.195114
 20
71.560860
 11
250.195175
 21
69.830826
  0
LINE
  8
0
 10
250.195099
 20
76.750885
 11
253.195145
 21
75.020859
  0
LINE
  8
0
 10
250.195190
 20
69.830727
 11
253.195236
 21
71.560753
  0
LINE
  8
0
 10
247.195114
 20
75.020927
 11
250.194962
 21
76.750839
  0
LINE
  8
0
 10
253.195068
 20
75.020782
 11
253.195068
 21
71.560776
  0
LINE
  8
0
 10
247.195068
 20
75.020782
 11
247.195068
 21
71.560776
  0
LINE
  8
0
 10
232.690674
 20
65.786743
 11
267.690674
 21
65.786743
  0
LINE
  8
0
 10
-263.299316
 20
65.786743
 11
-298.299316
 21
65.786743
  0
LINE
  8
0
 10
-263.299316
 20
80.786743
 11
-263.299316
 21
5.286728
  0
LINE
  8
0
 10
-216.309326
 20
134.086731
 11
-298.299316
 21
134.086731
  0
LINE
  8
0
 10
267.690674
 20
92.486740
 11
-298.299316
 21
92.486740
  0
LINE
  8
0
 10
267.690674
 20
134.086731
 11
-114.309326
 21
134.086731
  0
LINE
  8
0
 10
-216.309326
 20
145.286728
 11
-114.309326
 21
145.286728
  0
LINE
  8
0
 10
-114.309326
 20
145.286728
 11
-114.309326
 21
92.486740
  0
LINE
  8
0
 10
-216.309326
 20
145.286728
 11
-216.309326
 21
92.486740
  0
LINE
  8
0
  6
CENTER
 62
     2
 10
-303.962097
 20
113.286728
 11
272.674561
 21
113.286728
  0
LINE
  8
0
 10
-72.309326
 20
57.786743
 11
174.690674
 21
57.786743
  0
LINE
  8
0
 10
-72.309326
 20
63.786743
 11
190.690674
 21
63.786743
  0
LINE
  8
0
 10
-72.309326
 20
82.286743
 11
267.690674
 21
82.286743
  0
LINE
  8
0
 10
-298.299316
 20
82.286743
 11
-258.299316
 21
82.286743
  0
LINE
  8
0
 62
     2
 10
195.690674
 20
64.536743
 11
232.690674
 21
64.536743
  0
LINE
  8
0
 62
     2
 10
195.690674
 20
46.036743
 11
232.690674
 21
46.036743
  0
LINE
  8
0
 10
195.940674
 20
45.286743
 11
232.690674
 21
45.286743
  0
LINE
  8
0
 10
195.190506
 20
46.036602
 11
195.940430
 21
45.286682
  0
LINE
  8
0
 10
195.940674
 20
65.286743
 11
195.940674
 21
45.286743
  0
LINE
  8
0
 10
195.190491
 20
64.536697
 11
195.940598
 21
65.286789
  0
LINE
  8
0
 10
195.940674
 20
65.286743
 11
232.690674
 21
65.286743
  0
LINE
  8
0
 10
195.190674
 20
64.536743
 11
195.190674
 21
46.036743
  0
LINE
  8
0
 10
190.690674
 20
46.036743
 11
195.690674
 21
46.036743
  0
LINE
  8
0
 10
190.690674
 20
64.536743
 11
195.690674
 21
64.536743
  0
LINE
  8
0
 10
190.690674
 20
64.536743
 11
190.690674
 21
46.036743
  0
LINE
  8
0
 10
-263.299316
 20
45.286743
 11
-258.299316
 21
45.286743
  0
LINE
  8
0
 62
     2
 10
-263.299316
 20
46.036743
 11
-258.299316
 21
46.036743
  0
LINE
  8
0
 10
-263.299316
 20
65.286743
 11
-258.299316
 21
65.286743
  0
LINE
  8
0
 62
     2
 10
-263.299316
 20
64.536743
 11
-258.299316
 21
64.536743
  0
LINE
  8
0
 10
267.690674
 20
156.286728
 11
267.690674
 21
-9.713272
  0
LINE
  8
0
 10
-315.299316
 20
156.286728
 11
-298.299316
 21
156.286728
  0
LINE
  8
0
  6
CENTER
 62
     2
 10
268.690674
 20
148.286728
 11
284.446045
 21
148.286728
  0
LINE
  8
0
 10
267.690674
 20
156.286728
 11
284.690674
 21
156.286728
  0
LINE
  8
0
  6
CENTER
 62
     2
 10
166.560547
 20
55.286743
 11
287.710449
 21
55.286743
  0
LINE
  8
0
  6
CENTER
 62
     2
 10
285.690674
 20
10.286728
 11
267.690674
 21
10.286728
  0
LINE
  8
0
  6
CENTER
 62
     2
 10
276.690674
 20
157.286728
 11
276.690674
 21
-2.522705
  0
LINE
  8
0
  6
CENTER
 62
     2
 10
-316.299316
 20
10.286728
 11
-298.299316
 21
10.286728
  0
LINE
  8
0
  6
CENTER
 62
     2
 10
-316.299316
 20
148.286728
 11
-298.299316
 21
148.286728
  0
LINE
  8
0
  6
CENTER
 62
     2
 10
-307.299316
 20
157.706726
 11
-307.299316
 21
-0.957077
  0
LINE
  8
0
  6
CENTER
 62
     2
 10
134.690674
 20
-17.243271
 11
134.690674
 21
141.026733
  0
LINE
  8
0
 10
-258.299316
 20
35.036743
 11
-263.299316
 21
35.036743
  0
LINE
  8
0
 10
-258.299316
 20
43.536743
 11
-263.299316
 21
43.536743
  0
LINE
  8
0
 10
232.690674
 20
35.036743
 11
-72.309326
 21
35.036743
  0
LINE
  8
0
 10
232.690674
 20
43.536743
 11
-72.309326
 21
43.536743
  0
LINE
  8
0
 10
-72.309326
 20
73.286743
 11
232.690674
 21
73.286743
  0
LINE
  8
0
 10
-263.299316
 20
73.286743
 11
-258.299316
 21
73.286743
  0
LINE
  8
0
  6
DASHED
 10
267.690674
 20
10.286728
 11
267.690674
 21
30.286743
  0
LINE
  8
0
 10
232.690674
 20
80.786743
 11
267.690674
 21
80.786743
  0
LINE
  8
0
 10
232.690674
 20
80.786743
 11
232.690674
 21
5.286728
  0
LINE
  8
0
 10
232.690674
 20
5.286728
 11
267.690674
 21
5.286728
  0
LINE
  8
0
  6
CENTER
 62
     2
 10
-85.309326
 20
88.786743
 11
-85.309326
 21
-6.436798
  0
LINE
  8
0
  6
CENTER
 62
     2
 10
-245.299316
 20
88.786743
 11
-245.299316
 21
-6.436798
  0
LINE
  8
0
  6
CENTER
 62
     2
 10
-78.809326
 20
0.286728
 11
-253.119324
 21
0.286728
  0
LINE
  8
0
  6
CENTER
 62
     2
 10
-78.809326
 20
82.286743
 11
-252.919327
 21
82.286743
  0
LINE
  8
0
 10
-263.299316
 20
80.786743
 11
-298.299316
 21
80.786743
  0
LINE
  8
0
 10
-263.299316
 20
5.286728
 11
-298.299316
 21
5.286728
  0
LINE
  8
0
 10
-258.299316
 20
10.286728
 11
-263.299316
 21
10.286728
  0
LINE
  8
0
 10
232.690674
 20
10.286728
 11
-72.309326
 21
10.286728
  0
LINE
  8
0
 10
-258.299316
 20
30.286743
 11
-263.299316
 21
30.286743
  0
LINE
  8
0
 10
232.690674
 20
30.286743
 11
-72.309326
 21
30.286743
  0
LINE
  8
0
 10
-298.299316
 20
-3.213272
 11
-258.299316
 21
-3.213272
  0
LINE
  8
0
 10
-258.299316
 20
-9.713272
 11
-258.299316
 21
92.486740
  0
LINE
  8
0
 10
-72.309326
 20
-9.713272
 11
-72.309326
 21
92.486740
  0
LINE
  8
0
  6
CENTER
 62
     2
 10
-165.309326
 20
-17.243271
 11
-165.309326
 21
155.986725
  0
LINE
  8
0
 10
-298.299316
 20
-9.713272
 11
-298.299316
 21
156.286728
  0
LINE
  8
0
 10
284.690674
 20
156.286728
 11
284.690674
 21
-9.713272
  0
LINE
  8
0
 10
-315.299316
 20
-9.713272
 11
284.690674
 21
-9.713272
  0
LINE
  8
0
 10
-315.299316
 20
-9.713272
 11
-315.299316
 21
156.286728
  0
LINE
  8
0
  6
PHANTOM
 62
     3
 10
28.883789
 20
-46.151245
 11
28.883789
 21
156.382065
  0
LINE
  8
0
 10
-379.250000
 20
-256.750000
 11
-90.250000
 21
-256.750000
  0
LINE
  8
0
 10
-379.250000
 20
-236.750000
 11
-90.250000
 21
-236.750000
  0
LINE
  8
0
 10
-379.250000
 20
-246.750000
 11
-90.250000
 21
-246.750000
  0
LINE
  8
0
 10
-90.250000
 20
-256.750000
 11
-90.250000
 21
-236.750000
  0
LINE
  8
0
 10
-118.250000
 20
-236.750000
 11
-118.250000
 21
-256.750000
  0
LINE
  8
0
 10
-147.250000
 20
-236.750000
 11
-147.250000
 21
-256.750000
  0
LINE
  8
0
 10
-175.250000
 20
-236.750000
 11
-175.250000
 21
-256.750000
  0
LINE
  8
0
 10
-203.250000
 20
-236.750000
 11
-203.250000
 21
-256.750000
  0
LINE
  8
0
 10
-379.250000
 20
-236.750000
 11
-379.250000
 21
-256.750000
  0
LINE
  8
0
 10
-315.250000
 20
-236.750000
 11
-315.250000
 21
-256.750000
  0
LINE
  8
0
 10
-287.250000
 20
-236.750000
 11
-287.250000
 21
-256.750000
  0
LINE
  8
0
 10
-259.250000
 20
-236.750000
 11
-259.250000
 21
-256.750000
  0
LINE
  8
0
 10
-231.250000
 20
-236.750000
 11
-231.250000
 21
-256.750000
  0
LINE
  8
0
 10
399.799805
 20
276.250000
 11
399.799805
 21
-276.750000
  0
LINE
  8
0
 10
-399.250000
 20
276.250000
 11
-399.250000
 21
-276.750000
  0
LINE
  8
0
 10
-399.250000
 20
276.250000
 11
399.799805
 21
276.250000
  0
LINE
  8
0
 10
-399.250000
 20
-276.750000
 11
399.799805
 21
-276.750000
  0
LINE
  8
0
 10
239.799988
 20
-251.750000
 11
399.799805
 21
-251.750000
  0
LINE
  8
0
 10
239.799988
 20
251.250000
 11
399.799805
 21
251.250000
  0
LINE
  8
0
 10
-399.250000
 20
251.250000
 11
-239.250000
 21
251.250000
  0
LINE
  8
0
 10
239.799988
 20
-251.750000
 11
239.799988
 21
-276.750000
  0
LINE
  8
0
 10
239.799988
 20
251.250000
 11
239.799988
 21
276.250000
  0
LINE
  8
0
 10
-239.250000
 20
276.250000
 11
-239.250000
 21
251.250000
  0
ARC
  8
0
 62
     1
 10
-137.510803
 20
-109.804230
 40
0.966225
 50
321.989960
 51
38.010052
  0
ARC
  8
0
 62
     1
 10
-135.989090
 20
-108.614227
 40
0.965540
 50
141.958160
 51
218.041840
  0
ARC
  8
0
 62
     1
 10
152.489502
 20
-115.804230
 40
0.965973
 50
321.978241
 51
38.021755
  0
ARC
  8
0
 62
     1
 10
154.013184
 20
-114.614227
 40
0.967488
 50
142.048370
 51
217.951065
  0
CIRCLE
  8
0
 62
     4
 10
-162.304504
 20
-109.209229
 40
1.500000
  0
CIRCLE
  8
0
 62
     4
 10
127.695312
 20
-115.209229
 40
1.500000
  0
ARC
  8
0
 10
337.188354
 20
-7.111496
 40
2.097932
 50
34.830547
 51
180.048111
  0
CIRCLE
  8
0
 10
332.695618
 20
55.290771
 40
10.000000
  0
CIRCLE
  8
0
 62
     2
 10
332.695618
 20
55.290771
 40
9.250000
  0
CIRCLE
  8
0
 10
332.695618
 20
55.290771
 40
11.500000
  0
ARC
  8
0
 10
331.190430
 20
-7.113266
 40
2.100006
 50
0.000000
 51
179.999954
  0
ARC
  8
0
 10
343.790436
 20
-6.513260
 40
1.400009
 50
270.000000
 51
90.000000
  0
ARC
  8
0
 10
334.695618
 20
113.291809
 40
32.003166
 50
138.597916
 51
221.021576
  0
ARC
  8
0
 62
     4
 10
331.190430
 20
-7.297928
 40
2.049988
 50
0.000000
 51
179.999954
  0
CIRCLE
  8
0
 62
     4
 10
331.190430
 20
-7.043259
 40
0.450000
  0
CIRCLE
  8
0
 62
     4
 10
331.190430
 20
-7.943268
 40
0.450000
  0
CIRCLE
  8
0
 62
     4
 10
331.190430
 20
-7.493271
 40
1.299999
  0
CIRCLE
  8
0
 62
     4
 10
331.190430
 20
-7.043259
 40
0.250000
  0
CIRCLE
  8
0
 62
     4
 10
331.190430
 20
-7.943268
 40
0.250000
  0
CIRCLE
  8
0
 62
     4
 10
337.190430
 20
-7.043259
 40
0.450000
  0
CIRCLE
  8
0
 62
     4
 10
337.190430
 20
-7.943268
 40
0.450000
  0
CIRCLE
  8
0
 62
     4
 10
337.190430
 20
-7.493271
 40
1.299999
  0
CIRCLE
  8
0
 62
     4
 10
337.190430
 20
-7.043259
 40
0.250000
  0
CIRCLE
  8
0
 62
     4
 10
337.190430
 20
-7.943268
 40
0.250000
  0
ARC
  8
0
 62
     4
 10
337.190430
 20
-7.297928
 40
2.049988
 50
0.000000
 51
179.999954
  0
ARC
  8
0
 62
     4
 10
-348.900024
 20
-7.343948
 40
0.100680
 50
0.385881
 51
89.617920
  0
ARC
  8
0
 62
     4
 10
-348.903961
 20
-7.838623
 40
0.104742
 50
272.538269
 51
357.461609
  0
ARC
  8
0
 62
     4
 10
-350.799988
 20
-7.298416
 40
2.050696
 50
0.143925
 51
52.419106
  0
ARC
  8
0
 62
     4
 10
-350.807007
 20
-7.294281
 40
2.042307
 50
127.465767
 51
179.971542
  0
ARC
  8
0
 62
     4
 10
-352.699768
 20
-7.843719
 40
0.099549
 50
179.737076
 51
270.263489
  0
ARC
  8
0
 62
     4
 10
-352.703949
 20
-7.338638
 40
0.095483
 50
87.215401
 51
182.779526
  0
ARC
  8
0
 62
     4
 10
-354.900024
 20
-7.343948
 40
0.100680
 50
0.385881
 51
89.617920
  0
ARC
  8
0
 62
     4
 10
-354.903961
 20
-7.838623
 40
0.104742
 50
272.538269
 51
357.461609
  0
ARC
  8
0
 62
     4
 10
-356.799988
 20
-7.298416
 40
2.050696
 50
0.143925
 51
52.419106
  0
ARC
  8
0
 62
     4
 10
-356.807007
 20
-7.294281
 40
2.042307
 50
127.465767
 51
179.971542
  0
ARC
  8
0
 62
     4
 10
-358.699768
 20
-7.843719
 40
0.099549
 50
179.737076
 51
270.263489
  0
ARC
  8
0
 62
     4
 10
-358.703949
 20
-7.338638
 40
0.095483
 50
87.215401
 51
182.779526
  0
ARC
  8
0
 10
-354.304504
 20
113.291809
 40
32.003185
 50
318.978424
 51
41.402012
  0
CIRCLE
  8
0
 10
-354.304504
 20
113.290771
 40
5.500000
  0
CIRCLE
  8
0
 62
     2
 10
-354.304504
 20
113.290771
 40
6.500000
  0
ARC
  8
0
 10
-363.399323
 20
-6.513260
 40
1.400009
 50
90.000000
 51
270.000000
  0
ARC
  8
0
 10
-350.799316
 20
-7.113266
 40
2.100006
 50
0.000000
 51
179.999954
  0
CIRCLE
  8
0
 10
-352.304504
 20
55.290771
 40
11.500000
  0
CIRCLE
  8
0
 62
     2
 10
-352.304504
 20
55.290771
 40
9.250000
  0
CIRCLE
  8
0
 10
-352.304504
 20
55.290771
 40
10.000000
  0
CIRCLE
  8
0
 62
     2
 10
-370.804504
 20
66.290771
 40
6.500000
  0
CIRCLE
  8
0
 10
-370.804504
 20
66.290771
 40
5.500000
  0
ARC
  8
0
 10
-356.797241
 20
-7.111496
 40
2.097932
 50
359.951843
 51
145.169418
  0
CIRCLE
  8
0
 10
-245.299316
 20
82.286743
 40
3.323500
  0
CIRCLE
  8
0
 10
-245.299316
 20
0.286728
 40
3.323500
  0
CIRCLE
  8
0
 10
-85.309326
 20
0.286728
 40
3.323500
  0
CIRCLE
  8
0
 10
-85.309326
 20
82.286743
 40
3.323500
  0
CIRCLE
  8
0
 62
     4
 10
-165.304504
 20
0.290771
 40
4.000000
  0
ARC
  8
0
 62
     4
 10
-165.309326
 20
81.286743
 40
4.000000
 50
180.000000
 51
0.000000
  0
ARC
  8
0
 62
     4
 10
-165.309326
 20
83.286743
 40
4.000000
 50
0.000000
 51
180.000000
  0
CIRCLE
  8
0
 10
-272.304504
 20
39.290771
 40
5.460770
  0
CIRCLE
  8
0
 10
-272.304504
 20
39.290771
 40
6.500000
  0
CIRCLE
  8
0
 10
-289.304504
 20
39.290771
 40
5.460770
  0
CIRCLE
  8
0
 10
-289.304504
 20
39.290771
 40
6.500000
  0
CIRCLE
  8
0
 10
-280.804504
 20
73.290771
 40
5.460770
  0
CIRCLE
  8
0
 10
-280.804504
 20
73.290771
 40
6.500000
  0
CIRCLE
  8
0
 10
258.695068
 20
39.290771
 40
5.460770
  0
CIRCLE
  8
0
 10
258.695068
 20
39.290771
 40
6.500000
  0
CIRCLE
  8
0
 10
241.695068
 20
39.290771
 40
5.460770
  0
CIRCLE
  8
0
 10
241.695068
 20
39.290771
 40
6.500000
  0
CIRCLE
  8
0
 10
250.195068
 20
73.290771
 40
5.460770
  0
CIRCLE
  8
0
 10
250.195068
 20
73.290771
 40
6.500000
  0
CIRCLE
  8
0
 10
276.695068
 20
10.290771
 40
4.500000
  0
CIRCLE
  8
0
 10
276.695068
 20
10.290771
 40
7.000000
  0
CIRCLE
  8
0
 10
276.695068
 20
148.290771
 40
4.500000
  0
CIRCLE
  8
0
 10
276.695068
 20
148.290771
 40
7.000000
  0
CIRCLE
  8
0
 10
-307.304504
 20
10.290771
 40
4.500000
  0
CIRCLE
  8
0
 10
-307.304504
 20
10.290771
 40
7.000000
  0
CIRCLE
  8
0
 10
-307.304504
 20
148.290771
 40
7.000000
  0
CIRCLE
  8
0
 10
-307.304504
 20
148.290771
 40
4.500000
  0
CIRCLE
  8
0
 10
250.195068
 20
73.290771
 40
6.500000
  0
CIRCLE
  8
0
 10
-280.804504
 20
73.290771
 40
6.500000
  0
CIRCLE
  8
0
 62
     2
 10
-85.304504
 20
0.290771
 40
4.000000
  0
CIRCLE
  8
0
 62
     2
 10
-245.304504
 20
0.290771
 40
4.000000
  0
CIRCLE
  8
0
 62
     2
 10
-85.304504
 20
82.290771
 40
4.000000
  0
CIRCLE
  8
0
 62
     2
 10
-245.304504
 20
82.290771
 40
4.000000
  0
TEXT
  8
0
 10
-117.499718
 20
-234.419998
 40
6.300000
  1
（ｍｍ）
 50
0.000000
 41
0.833333
 51
0.000000
  7
STANDARD
  0
TEXT
  8
0
 10
-384.484375
 20
210.649994
 40
9.000000
  1
(WITH SENSOR SWITCH)
 50
0.000000
 41
1.052632
 51
0.000000
  7
STANDARD
  0
TEXT
  8
0
 10
-367.949707
 20
-256.420013
 40
6.300000
  1
STRETCH
 50
0.000000
 41
1.052632
 51
0.000000
  7
STANDARD
  0
TEXT
  8
0
 10
-114.349716
 20
-256.420013
 40
6.300000
  1
700
 50
0.000000
 41
1.052632
 51
0.000000
  7
STANDARD
  0
TEXT
  8
0
 10
-142.349716
 20
-256.420013
 40
6.300000
  1
600
 50
0.000000
 41
1.052632
 51
0.000000
  7
STANDARD
  0
TEXT
  8
0
 10
-142.349716
 20
-246.419998
 40
6.300000
  1
900
 50
0.000000
 41
1.052632
 51
0.000000
  7
STANDARD
  0
TEXT
  8
0
 10
-171.349716
 20
-256.420013
 40
6.300000
  1
500
 50
0.000000
 41
1.052632
 51
0.000000
  7
STANDARD
  0
TEXT
  8
0
 10
-171.349716
 20
-246.419998
 40
6.300000
  1
800
 50
0.000000
 41
1.052632
 51
0.000000
  7
STANDARD
  0
TEXT
  8
0
 10
-199.349716
 20
-256.420013
 40
6.300000
  1
400
 50
0.000000
 41
1.052632
 51
0.000000
  7
STANDARD
  0
TEXT
  8
0
 10
-199.349716
 20
-246.419998
 40
6.300000
  1
700
 50
0.000000
 41
1.052632
 51
0.000000
  7
STANDARD
  0
TEXT
  8
0
 10
-227.349716
 20
-256.420013
 40
6.300000
  1
300
 50
0.000000
 41
1.052632
 51
0.000000
  7
STANDARD
  0
TEXT
  8
0
 10
-227.349716
 20
-246.419998
 40
6.300000
  1
600
 50
0.000000
 41
1.052632
 51
0.000000
  7
STANDARD
  0
TEXT
  8
0
 10
-364.799713
 20
-246.419998
 40
6.300000
  1
STROKE
 50
0.000000
 41
1.052632
 51
0.000000
  7
STANDARD
  0
TEXT
  8
0
 10
-311.349731
 20
-246.419998
 40
6.300000
  1
300
 50
0.000000
 41
1.052632
 51
0.000000
  7
STANDARD
  0
TEXT
  8
0
 10
-283.349731
 20
-246.419998
 40
6.300000
  1
400
 50
0.000000
 41
1.052632
 51
0.000000
  7
STANDARD
  0
TEXT
  8
0
 10
-255.349716
 20
-246.419998
 40
6.300000
  1
500
 50
0.000000
 41
1.052632
 51
0.000000
  7
STANDARD
  0
TEXT
  8
0
 10
-305.049713
 20
-256.420013
 40
6.300000
  1
0
 50
0.000000
 41
1.052632
 51
0.000000
  7
STANDARD
  0
TEXT
  8
0
 10
-283.349731
 20
-256.420013
 40
6.300000
  1
100
 50
0.000000
 41
1.052632
 51
0.000000
  7
STANDARD
  0
TEXT
  8
0
 10
-255.349716
 20
-256.420013
 40
6.300000
  1
200
 50
0.000000
 41
1.052632
 51
0.000000
  7
STANDARD
  0
TEXT
  8
0
 10
-273.199707
 20
-234.419998
 40
6.300000
  1
STRETCH LIST
 50
0.000000
 41
1.052632
 51
0.000000
  7
STANDARD
  0
TEXT
  8
0
 10
-117.499718
 20
-246.419998
 40
6.300000
  1
1000
 50
0.000000
 41
1.052632
 51
0.000000
  7
STANDARD
  0
TEXT
  8
0
 62
     3
 10
-2.487926
 20
166.514267
 40
6.300000
  1
STRETCH LINE
 50
0.000000
 41
1.052632
 51
0.000000
  7
STANDARD
  0
TEXT
  8
0
 10
-392.285309
 20
256.649994
 40
9.000000
  1
RODLESS CYLINDER
 50
0.000000
 41
1.052632
 51
0.000000
  7
STANDARD
  0
TEXT
  8
0
 10
242.014633
 20
-274.500000
 40
12.500000
  1
KOGANEI CORP.
 50
0.000000
 41
1.052632
 51
0.000000
  7
STANDARD
  0
TEXT
  8
0
 10
282.764496
 20
256.649994
 40
9.000000
  1
Ｖｅｒ．　１．０
 50
0.000000
 41
0.833333
 51
0.000000
  7
STANDARD
  0
TEXT
  8
0
 10
-384.785309
 20
224.149994
 40
9.000000
  1
MODEL:MRS40*ST(300)
 50
0.000000
 41
1.052632
 51
0.000000
  7
STANDARD
  0
ENDSEC
  0
EOF
