  0
SECTION
  2
HEADER
  9
$ACADVER
  1
AC1015
  9
$ACADMAINTVER
 70
    20
  9
$DWGCODEPAGE
  3
ANSI_932
  9
$INSBASE
 10
0.0
 20
0.0
 30
0.0
  9
$EXTMIN
 10
-399.25
 20
-276.75
 30
0.0
  9
$EXTMAX
 10
399.799805
 20
276.25
 30
0.0
  9
$LIMMIN
 10
0.0
 20
0.0
  9
$LIMMAX
 10
12.0
 20
9.0
  9
$ORTHOMODE
 70
     0
  9
$REGENMODE
 70
     1
  9
$FILLMODE
 70
     1
  9
$QTEXTMODE
 70
     0
  9
$MIRRTEXT
 70
     0
  9
$LTSCALE
 40
1.0
  9
$ATTMODE
 70
     1
  9
$TEXTSIZE
 40
0.2
  9
$TRACEWID
 40
0.05
  9
$TEXTSTYLE
  7
STANDARD
  9
$CLAYER
  8
0
  9
$CELTYPE
  6
CONTINUOUS
  9
$CECOLOR
 62
   256
  9
$CELTSCALE
 40
1.0
  9
$DISPSILH
 70
     0
  9
$DIMSCALE
 40
1.0
  9
$DIMASZ
 40
0.18
  9
$DIMEXO
 40
0.0625
  9
$DIMDLI
 40
0.38
  9
$DIMRND
 40
0.0
  9
$DIMDLE
 40
0.0
  9
$DIMEXE
 40
0.18
  9
$DIMTP
 40
0.0
  9
$DIMTM
 40
0.0
  9
$DIMTXT
 40
0.18
  9
$DIMCEN
 40
0.09
  9
$DIMTSZ
 40
0.0
  9
$DIMTOL
 70
     0
  9
$DIMLIM
 70
     0
  9
$DIMTIH
 70
     1
  9
$DIMTOH
 70
     1
  9
$DIMSE1
 70
     0
  9
$DIMSE2
 70
     0
  9
$DIMTAD
 70
     0
  9
$DIMZIN
 70
     0
  9
$DIMBLK
  1

  9
$DIMASO
 70
     1
  9
$DIMSHO
 70
     1
  9
$DIMPOST
  1

  9
$DIMAPOST
  1

  9
$DIMALT
 70
     0
  9
$DIMALTD
 70
     2
  9
$DIMALTF
 40
25.4
  9
$DIMLFAC
 40
1.0
  9
$DIMTOFL
 70
     0
  9
$DIMTVP
 40
0.0
  9
$DIMTIX
 70
     0
  9
$DIMSOXD
 70
     0
  9
$DIMSAH
 70
     0
  9
$DIMBLK1
  1

  9
$DIMBLK2
  1

  9
$DIMSTYLE
  2
Standard
  9
$DIMCLRD
 70
     0
  9
$DIMCLRE
 70
     0
  9
$DIMCLRT
 70
     0
  9
$DIMTFAC
 40
1.0
  9
$DIMGAP
 40
0.09
  9
$DIMJUST
 70
     0
  9
$DIMSD1
 70
     0
  9
$DIMSD2
 70
     0
  9
$DIMTOLJ
 70
     1
  9
$DIMTZIN
 70
     0
  9
$DIMALTZ
 70
     0
  9
$DIMALTTZ
 70
     0
  9
$DIMUPT
 70
     0
  9
$DIMDEC
 70
     4
  9
$DIMTDEC
 70
     4
  9
$DIMALTU
 70
     2
  9
$DIMALTTD
 70
     2
  9
$DIMTXSTY
  7
STANDARD
  9
$DIMAUNIT
 70
     0
  9
$DIMADEC
 70
     0
  9
$DIMALTRND
 40
0.0
  9
$DIMAZIN
 70
     0
  9
$DIMDSEP
 70
    46
  9
$DIMATFIT
 70
     3
  9
$DIMFRAC
 70
     0
  9
$DIMLDRBLK
  1

  9
$DIMLUNIT
 70
     2
  9
$DIMLWD
 70
    -2
  9
$DIMLWE
 70
    -2
  9
$DIMTMOVE
 70
     0
  9
$LUNITS
 70
     2
  9
$LUPREC
 70
     4
  9
$SKETCHINC
 40
0.1
  9
$FILLETRAD
 40
0.0
  9
$AUNITS
 70
     0
  9
$AUPREC
 70
     0
  9
$MENU
  1
.
  9
$ELEVATION
 40
0.0
  9
$PELEVATION
 40
0.0
  9
$THICKNESS
 40
0.0
  9
$LIMCHECK
 70
     0
  9
$CHAMFERA
 40
0.0
  9
$CHAMFERB
 40
0.0
  9
$CHAMFERC
 40
0.0
  9
$CHAMFERD
 40
0.0
  9
$SKPOLY
 70
     0
  9
$TDCREATE
 40
2454160.466145648
  9
$TDUCREATE
 40
2454160.091145648
  9
$TDUPDATE
 40
2454160.470164016
  9
$TDUUPDATE
 40
2454160.095164017
  9
$TDINDWG
 40
0.0022665278
  9
$TDUSRTIMER
 40
0.0022661690
  9
$USRTIMER
 70
     1
  9
$ANGBASE
 50
0.0
  9
$ANGDIR
 70
     0
  9
$PDMODE
 70
     0
  9
$PDSIZE
 40
0.0
  9
$PLINEWID
 40
0.0
  9
$SPLFRAME
 70
     0
  9
$SPLINETYPE
 70
     6
  9
$SPLINESEGS
 70
     8
  9
$HANDSEED
  5
2BD
  9
$SURFTAB1
 70
     6
  9
$SURFTAB2
 70
     6
  9
$SURFTYPE
 70
     6
  9
$SURFU
 70
     6
  9
$SURFV
 70
     6
  9
$UCSBASE
  2

  9
$UCSNAME
  2

  9
$UCSORG
 10
0.0
 20
0.0
 30
0.0
  9
$UCSXDIR
 10
1.0
 20
0.0
 30
0.0
  9
$UCSYDIR
 10
0.0
 20
1.0
 30
0.0
  9
$UCSORTHOREF
  2

  9
$UCSORTHOVIEW
 70
     0
  9
$UCSORGTOP
 10
0.0
 20
0.0
 30
0.0
  9
$UCSORGBOTTOM
 10
0.0
 20
0.0
 30
0.0
  9
$UCSORGLEFT
 10
0.0
 20
0.0
 30
0.0
  9
$UCSORGRIGHT
 10
0.0
 20
0.0
 30
0.0
  9
$UCSORGFRONT
 10
0.0
 20
0.0
 30
0.0
  9
$UCSORGBACK
 10
0.0
 20
0.0
 30
0.0
  9
$PUCSBASE
  2

  9
$PUCSNAME
  2

  9
$PUCSORG
 10
0.0
 20
0.0
 30
0.0
  9
$PUCSXDIR
 10
1.0
 20
0.0
 30
0.0
  9
$PUCSYDIR
 10
0.0
 20
1.0
 30
0.0
  9
$PUCSORTHOREF
  2

  9
$PUCSORTHOVIEW
 70
     0
  9
$PUCSORGTOP
 10
0.0
 20
0.0
 30
0.0
  9
$PUCSORGBOTTOM
 10
0.0
 20
0.0
 30
0.0
  9
$PUCSORGLEFT
 10
0.0
 20
0.0
 30
0.0
  9
$PUCSORGRIGHT
 10
0.0
 20
0.0
 30
0.0
  9
$PUCSORGFRONT
 10
0.0
 20
0.0
 30
0.0
  9
$PUCSORGBACK
 10
0.0
 20
0.0
 30
0.0
  9
$USERI1
 70
     0
  9
$USERI2
 70
     0
  9
$USERI3
 70
     0
  9
$USERI4
 70
     0
  9
$USERI5
 70
     0
  9
$USERR1
 40
0.0
  9
$USERR2
 40
0.0
  9
$USERR3
 40
0.0
  9
$USERR4
 40
0.0
  9
$USERR5
 40
0.0
  9
$WORLDVIEW
 70
     1
  9
$SHADEDGE
 70
     3
  9
$SHADEDIF
 70
    70
  9
$TILEMODE
 70
     1
  9
$MAXACTVP
 70
    64
  9
$PINSBASE
 10
0.0
 20
0.0
 30
0.0
  9
$PLIMCHECK
 70
     0
  9
$PEXTMIN
 10
1.130750010332723
 20
0.7880833242821881
 30
0.0
  9
$PEXTMAX
 10
10.17675009299451
 20
7.092749918539691
 30
0.0
  9
$PLIMMIN
 10
-0.1912502979669045
 20
-0.1912499975970411
  9
$PLIMMAX
 10
11.50208240418922
 20
8.075416444793459
  9
$UNITMODE
 70
     0
  9
$VISRETAIN
 70
     1
  9
$PLINEGEN
 70
     0
  9
$PSLTSCALE
 70
     1
  9
$TREEDEPTH
 70
  3020
  9
$CMLSTYLE
  2
Standard
  9
$CMLJUST
 70
     0
  9
$CMLSCALE
 40
1.0
  9
$PROXYGRAPHICS
 70
     1
  9
$MEASUREMENT
 70
     0
  9
$CELWEIGHT
370
    -1
  9
$ENDCAPS
280
     0
  9
$JOINSTYLE
280
     0
  9
$LWDISPLAY
290
     0
  9
$INSUNITS
 70
     0
  9
$HYPERLINKBASE
  1

  9
$STYLESHEET
  1

  9
$XEDIT
290
     1
  9
$CEPSNTYPE
380
     0
  9
$PSTYLEMODE
290
     1
  9
$FINGERPRINTGUID
  2
{70C71FE1-072E-497D-8037-F544921725C4}
  9
$VERSIONGUID
  2
{108F8595-F6C0-4E85-8FAE-9D94ED9BA5CE}
  9
$EXTNAMES
290
     1
  9
$PSVPSCALE
 40
0.0
  9
$OLESTARTUP
290
     0
  0
ENDSEC
  0
SECTION
  2
CLASSES
  0
CLASS
  1
ACDBDICTIONARYWDFLT
  2
AcDbDictionaryWithDefault
  3
ObjectDBX Classes
 90
        0
280
     0
281
     0
  0
CLASS
  1
TABLESTYLE
  2
AcDbTableStyle
  3
ObjectDBX Classes
 90
     2047
280
     0
281
     0
  0
CLASS
  1
DICTIONARYVAR
  2
AcDbDictionaryVar
  3
ObjectDBX Classes
 90
        0
280
     0
281
     0
  0
CLASS
  1
ACDBPLACEHOLDER
  2
AcDbPlaceHolder
  3
ObjectDBX Classes
 90
        0
280
     0
281
     0
  0
CLASS
  1
LAYOUT
  2
AcDbLayout
  3
ObjectDBX Classes
 90
        0
280
     0
281
     0
  0
ENDSEC
  0
SECTION
  2
TABLES
  0
TABLE
  2
VPORT
  5
8
330
0
100
AcDbSymbolTable
 70
     2
  0
VPORT
  5
2B4
330
8
100
AcDbSymbolTableRecord
100
AcDbViewportTableRecord
  2
*Active
 70
     0
 10
0.0
 20
0.0
 11
1.0
 21
1.0
 12
112.9072105817803
 22
74.97774876308461
 13
0.0
 23
0.0
 14
1.0
 24
1.0
 15
0.0
 25
0.0
 16
0.0
 26
0.0
 36
1.0
 17
0.0
 27
0.0
 37
0.0
 40
493.9451176877198
 41
1.165871121718377
 42
50.0
 43
0.0
 44
0.0
 50
0.0
 51
0.0
 71
     0
 72
   100
 73
     1
 74
     1
 75
     0
 76
     0
 77
     0
 78
     0
281
     0
 65
     1
110
0.0
120
0.0
130
0.0
111
1.0
121
0.0
131
0.0
112
0.0
122
1.0
132
0.0
 79
     0
146
0.0
  0
ENDTAB
  0
TABLE
  2
LTYPE
  5
5
330
0
100
AcDbSymbolTable
 70
    22
  0
LTYPE
  5
13
330
5
100
AcDbSymbolTableRecord
100
AcDbLinetypeTableRecord
  2
ByBlock
 70
     0
  3

 72
    65
 73
     0
 40
0.0
  0
LTYPE
  5
14
330
5
100
AcDbSymbolTableRecord
100
AcDbLinetypeTableRecord
  2
ByLayer
 70
     0
  3

 72
    65
 73
     0
 40
0.0
  0
LTYPE
  5
15
330
5
100
AcDbSymbolTableRecord
100
AcDbLinetypeTableRecord
  2
CONTINUOUS
 70
     0
  3
Solid line
 72
    65
 73
     0
 40
0.0
  0
LTYPE
  5
26
330
5
100
AcDbSymbolTableRecord
100
AcDbLinetypeTableRecord
  2
DASHED
 70
     0
  3
__ __ __ __ __ __ __ __ __ __ __ __ __ __ __
 72
    65
 73
     2
 40
3.5
 49
2.0
 74
     0
 49
-1.5
 74
     0
  0
LTYPE
  5
27
330
5
100
AcDbSymbolTableRecord
100
AcDbLinetypeTableRecord
  2
CENTER
 70
     0
  3
____ _ ____ _ ____ _ ____ _ ____ _ ____ _ ____
 72
    65
 73
     4
 40
17.5
 49
13.0
 74
     0
 49
-1.5
 74
     0
 49
1.5
 74
     0
 49
-1.5
 74
     0
  0
LTYPE
  5
28
330
5
100
AcDbSymbolTableRecord
100
AcDbLinetypeTableRecord
  2
PHANTOM
 70
     0
  3
_____ _ _ _____ _ _ _____ _ _ _____ _ _ ____  
 72
    65
 73
     6
 40
15.5
 49
8.0
 74
     0
 49
-1.5
 74
     0
 49
1.5
 74
     0
 49
-1.5
 74
     0
 49
1.5
 74
     0
 49
-1.5
 74
     0
  0
LTYPE
  5
29
330
5
100
AcDbSymbolTableRecord
100
AcDbLinetypeTableRecord
  2
DASHED1
 70
     0
  3
__ __ __ __ __ __ __ __ __ __ __ __ __ __ __
 72
    65
 73
     2
 40
1.5
 49
1.0
 74
     0
 49
-0.5
 74
     0
  0
LTYPE
  5
2A
330
5
100
AcDbSymbolTableRecord
100
AcDbLinetypeTableRecord
  2
DASHED2
 70
     0
  3
__ __ __ __ __ __ __ __ __ __ __ __ __ __ __
 72
    65
 73
     2
 40
3.5
 49
2.5
 74
     0
 49
-1.0
 74
     0
  0
LTYPE
  5
2B
330
5
100
AcDbSymbolTableRecord
100
AcDbLinetypeTableRecord
  2
DASHED3
 70
     0
  3
__ __ __ __ __ __ __ __ __ __ __ __ __ __ __
 72
    65
 73
     2
 40
6.0
 49
4.0
 74
     0
 49
-2.0
 74
     0
  0
LTYPE
  5
2C
330
5
100
AcDbSymbolTableRecord
100
AcDbLinetypeTableRecord
  2
DASHED4
 70
     0
  3
__ __ __ __ __ __ __ __ __ __ __ __ __ __ __
 72
    65
 73
     2
 40
12.0
 49
10.0
 74
     0
 49
-2.0
 74
     0
  0
LTYPE
  5
2D
330
5
100
AcDbSymbolTableRecord
100
AcDbLinetypeTableRecord
  2
DASHED5
 70
     0
  3
__ __ __ __ __ __ __ __ __ __ __ __ __ __ __
 72
    65
 73
     2
 40
17.0
 49
15.0
 74
     0
 49
-2.0
 74
     0
  0
LTYPE
  5
2E
330
5
100
AcDbSymbolTableRecord
100
AcDbLinetypeTableRecord
  2
DASHED6
 70
     0
  3
__ __ __ __ __ __ __ __ __ __ __ __ __ __ __
 72
    65
 73
     2
 40
29.0
 49
27.0
 74
     0
 49
-2.0
 74
     0
  0
LTYPE
  5
2F
330
5
100
AcDbSymbolTableRecord
100
AcDbLinetypeTableRecord
  2
PHANTOM1
 70
     0
  3
_____ _ _ _____ _ _ _____ _ _ _____ _ _ ____  
 72
    65
 73
     6
 40
31.0
 49
25.0
 74
     0
 49
-1.5
 74
     0
 49
1.0
 74
     0
 49
-1.0
 74
     0
 49
1.0
 74
     0
 49
-1.5
 74
     0
  0
LTYPE
  5
30
330
5
100
AcDbSymbolTableRecord
100
AcDbLinetypeTableRecord
  2
PHANTOM2
 70
     0
  3
_____ _ _ _____ _ _ _____ _ _ _____ _ _ ____  
 72
    65
 73
     6
 40
36.0
 49
27.0
 74
     0
 49
-1.5
 74
     0
 49
2.5
 74
     0
 49
-1.0
 74
     0
 49
2.5
 74
     0
 49
-1.5
 74
     0
  0
LTYPE
  5
31
330
5
100
AcDbSymbolTableRecord
100
AcDbLinetypeTableRecord
  2
PHANTOM3
 70
     0
  3
_____ _ _ _____ _ _ _____ _ _ _____ _ _ ____  
 72
    65
 73
     6
 40
78.0
 49
64.0
 74
     0
 49
-2.0
 74
     0
 49
4.0
 74
     0
 49
-2.0
 74
     0
 49
4.0
 74
     0
 49
-2.0
 74
     0
  0
LTYPE
  5
32
330
5
100
AcDbSymbolTableRecord
100
AcDbLinetypeTableRecord
  2
CENTER1
 70
     0
  3
____ _ ____ _ ____ _ ____ _ ____ _ ____ _ ____
 72
    65
 73
     4
 40
19.0
 49
14.0
 74
     0
 49
-1.0
 74
     0
 49
3.0
 74
     0
 49
-1.0
 74
     0
  0
LTYPE
  5
33
330
5
100
AcDbSymbolTableRecord
100
AcDbLinetypeTableRecord
  2
CENTER2
 70
     0
  3
____ _ ____ _ ____ _ ____ _ ____ _ ____ _ ____
 72
    65
 73
     4
 40
28.5
 49
25.0
 74
     0
 49
-1.0
 74
     0
 49
1.5
 74
     0
 49
-1.0
 74
     0
  0
LTYPE
  5
34
330
5
100
AcDbSymbolTableRecord
100
AcDbLinetypeTableRecord
  2
CENTER3
 70
     0
  3
____ _ ____ _ ____ _ ____ _ ____ _ ____ _ ____
 72
    65
 73
     4
 40
31.5
 49
27.0
 74
     0
 49
-1.0
 74
     0
 49
2.5
 74
     0
 49
-1.0
 74
     0
  0
LTYPE
  5
35
330
5
100
AcDbSymbolTableRecord
100
AcDbLinetypeTableRecord
  2
CENTER4
 70
     0
  3
____ _ ____ _ ____ _ ____ _ ____ _ ____ _ ____
 72
    65
 73
     4
 40
50.0
 49
45.0
 74
     0
 49
-1.0
 74
     0
 49
3.0
 74
     0
 49
-1.0
 74
     0
  0
LTYPE
  5
36
330
5
100
AcDbSymbolTableRecord
100
AcDbLinetypeTableRecord
  2
CENTER5
 70
     0
  3
____ _ ____ _ ____ _ ____ _ ____ _ ____ _ ____
 72
    65
 73
     4
 40
100.0
 49
92.0
 74
     0
 49
-2.0
 74
     0
 49
4.0
 74
     0
 49
-2.0
 74
     0
  0
LTYPE
  5
37
330
5
100
AcDbSymbolTableRecord
100
AcDbLinetypeTableRecord
  2
SBK1
 70
     0
  3
______ _ _ _ ______ _ _ _ ______ _ _ _ _____  
 72
    65
 73
     8
 40
60.5
 49
45.0
 74
     0
 49
-2.0
 74
     0
 49
2.5
 74
     0
 49
-2.0
 74
     0
 49
2.5
 74
     0
 49
-2.0
 74
     0
 49
2.5
 74
     0
 49
-2.0
 74
     0
  0
LTYPE
  5
38
330
5
100
AcDbSymbolTableRecord
100
AcDbLinetypeTableRecord
  2
SBK2
 70
     0
  3
______ _ _ _ ______ _ _ _ ______ _ _ _ _____  
 72
    65
 73
     8
 40
84.0
 49
64.0
 74
     0
 49
-2.0
 74
     0
 49
4.0
 74
     0
 49
-2.0
 74
     0
 49
4.0
 74
     0
 49
-2.0
 74
     0
 49
4.0
 74
     0
 49
-2.0
 74
     0
  0
LTYPE
  5
39
330
5
100
AcDbSymbolTableRecord
100
AcDbLinetypeTableRecord
  2
STCH
 70
     0
  3
__ __ __ __ __ __ __ __ __ __ __ __ __ __ __
 72
    65
 73
     2
 40
3.0
 49
1.0
 74
     0
 49
-2.0
 74
     0
  0
LTYPE
  5
3A
330
5
100
AcDbSymbolTableRecord
100
AcDbLinetypeTableRecord
  2
MTCH
 70
     0
  3
_____ _ _ _____ _ _ _____ _ _ _____ _ _ ____  
 72
    65
 73
     6
 40
80.0
 49
66.0
 74
     0
 49
-2.0
 74
     0
 49
4.0
 74
     0
 49
-2.0
 74
     0
 49
4.0
 74
     0
 49
-2.0
 74
     0
  0
ENDTAB
  0
TABLE
  2
LAYER
  5
2
102
{ACAD_XDICTIONARY
360
28B
102
}
330
0
100
AcDbSymbolTable
 70
     1
  0
LAYER
  5
10
330
2
100
AcDbSymbolTableRecord
100
AcDbLayerTableRecord
  2
0
 70
     0
 62
     7
  6
CONTINUOUS
370
    -3
390
F
  0
ENDTAB
  0
TABLE
  2
STYLE
  5
3
330
0
100
AcDbSymbolTable
 70
     1
  0
STYLE
  5
11
330
3
100
AcDbSymbolTableRecord
100
AcDbTextStyleTableRecord
  2
STANDARD
 70
     0
 40
0.0
 41
1.0
 50
0.0
 71
     0
 42
0.2
  3
txt
  4
BIGFONT
  0
ENDTAB
  0
TABLE
  2
VIEW
  5
6
330
0
100
AcDbSymbolTable
 70
     0
  0
ENDTAB
  0
TABLE
  2
UCS
  5
7
330
0
100
AcDbSymbolTable
 70
     0
  0
ENDTAB
  0
TABLE
  2
APPID
  5
9
330
0
100
AcDbSymbolTable
 70
     3
  0
APPID
  5
12
330
9
100
AcDbSymbolTableRecord
100
AcDbRegAppTableRecord
  2
ACAD
 70
     0
  0
APPID
  5
285
330
9
100
AcDbSymbolTableRecord
100
AcDbRegAppTableRecord
  2
ACAD_PSEXT
 70
     0
  0
APPID
  5
292
330
9
100
AcDbSymbolTableRecord
100
AcDbRegAppTableRecord
  2
ACAD_EXEMPT_FROM_CAD_STANDARDS
 70
     0
  0
ENDTAB
  0
TABLE
  2
DIMSTYLE
  5
A
330
0
100
AcDbSymbolTable
 70
     1
100
AcDbDimStyleTable
 71
     1
340
27F
  0
DIMSTYLE
105
27F
330
A
100
AcDbSymbolTableRecord
100
AcDbDimStyleTableRecord
  2
Standard
 70
     0
340
11
  0
ENDTAB
  0
TABLE
  2
BLOCK_RECORD
  5
1
330
0
100
AcDbSymbolTable
 70
     0
  0
BLOCK_RECORD
  5
22
330
1
100
AcDbSymbolTableRecord
100
AcDbBlockTableRecord
  2
*Model_Space
340
25
  0
BLOCK_RECORD
  5
1E
330
1
100
AcDbSymbolTableRecord
100
AcDbBlockTableRecord
  2
*Paper_Space
340
21
  0
ENDTAB
  0
ENDSEC
  0
SECTION
  2
BLOCKS
  0
BLOCK
  5
23
330
22
100
AcDbEntity
  8
0
100
AcDbBlockBegin
  2
*Model_Space
 70
     0
 10
0.0
 20
0.0
 30
0.0
  3
*Model_Space
  1

  0
ENDBLK
  5
24
330
22
100
AcDbEntity
  8
0
100
AcDbBlockEnd
  0
BLOCK
  5
1F
330
1E
100
AcDbEntity
 67
     1
  8
0
100
AcDbBlockBegin
  2
*Paper_Space
 70
     0
 10
0.0
 20
0.0
 30
0.0
  3
*Paper_Space
  1

  0
ENDBLK
  5
20
330
1E
100
AcDbEntity
 67
     1
  8
0
100
AcDbBlockEnd
  0
ENDSEC
  0
SECTION
  2
ENTITIES
  0
LINE
  5
3E
330
22
100
AcDbEntity
  8
0
 62
     4
100
AcDbLine
 10
-82.865707
 20
-108.144516
 30
0.0
 11
-82.865707
 21
-104.944504
 31
0.0
  0
LINE
  5
3F
330
22
100
AcDbEntity
  8
0
 62
     4
100
AcDbLine
 10
-76.865707
 20
-108.144516
 30
0.0
 11
-76.865707
 21
-104.944504
 31
0.0
  0
LINE
  5
40
330
22
100
AcDbEntity
  8
0
 62
     4
100
AcDbLine
 10
-61.86570699999999
 20
-108.144516
 30
0.0
 11
-61.86570699999999
 21
-104.944504
 31
0.0
  0
LINE
  5
41
330
22
100
AcDbEntity
  8
0
 62
     4
100
AcDbLine
 10
-60.36570699999999
 20
-107.734512
 30
0.0
 11
-60.36570699999999
 21
-105.354507
 31
0.0
  0
LINE
  5
42
330
22
100
AcDbEntity
  8
0
 62
     4
100
AcDbLine
 10
-61.865711
 20
-108.144508
 30
0.0
 11
-60.365715
 21
-107.734505
 31
0.0
  0
LINE
  5
43
330
22
100
AcDbEntity
  8
0
 62
     4
100
AcDbLine
 10
-61.86572299999999
 20
-104.944519
 30
0.0
 11
-60.36572299999999
 21
-105.354523
 31
0.0
  0
LINE
  5
44
330
22
100
AcDbEntity
  8
0
 62
     4
100
AcDbLine
 10
-60.36570699999999
 20
-107.734512
 30
0.0
 11
-55.03393599999998
 21
-107.734512
 31
0.0
  0
LINE
  5
45
330
22
100
AcDbEntity
  8
0
 62
     4
100
AcDbLine
 10
-60.36570699999999
 20
-105.354507
 30
0.0
 11
-53.659851
 21
-105.354507
 31
0.0
  0
LINE
  5
46
330
22
100
AcDbEntity
  8
0
 62
     4
100
AcDbLine
 10
-80.645714
 20
-107.314499
 30
0.0
 11
-79.09571800000001
 21
-105.774506
 31
0.0
  0
LINE
  5
47
330
22
100
AcDbEntity
  8
0
 62
     4
100
AcDbLine
 10
-80.645714
 20
-105.774498
 30
0.0
 11
-79.09571800000001
 21
-107.314499
 31
0.0
  0
LINE
  5
48
330
22
100
AcDbEntity
  8
0
 62
     4
100
AcDbLine
 10
14.134293
 20
-114.144516
 30
0.0
 11
14.134293
 21
-110.944504
 31
0.0
  0
LINE
  5
49
330
22
100
AcDbEntity
  8
0
 62
     4
100
AcDbLine
 10
20.134293
 20
-114.144516
 30
0.0
 11
20.134293
 21
-110.944504
 31
0.0
  0
LINE
  5
4A
330
22
100
AcDbEntity
  8
0
 62
     4
100
AcDbLine
 10
35.134293
 20
-114.144516
 30
0.0
 11
35.134293
 21
-110.944504
 31
0.0
  0
LINE
  5
4B
330
22
100
AcDbEntity
  8
0
 62
     4
100
AcDbLine
 10
36.634293
 20
-113.734512
 30
0.0
 11
36.634293
 21
-111.354507
 31
0.0
  0
LINE
  5
4C
330
22
100
AcDbEntity
  8
0
 62
     4
100
AcDbLine
 10
35.134289
 20
-114.144508
 30
0.0
 11
36.634289
 21
-113.734512
 31
0.0
  0
LINE
  5
4D
330
22
100
AcDbEntity
  8
0
 62
     4
100
AcDbLine
 10
35.13427700000001
 20
-110.944511
 30
0.0
 11
36.634289
 21
-111.354515
 31
0.0
  0
LINE
  5
4E
330
22
100
AcDbEntity
  8
0
 62
     4
100
AcDbLine
 10
36.634293
 20
-113.734512
 30
0.0
 11
41.966064
 21
-113.734512
 31
0.0
  0
LINE
  5
4F
330
22
100
AcDbEntity
  8
0
 62
     4
100
AcDbLine
 10
36.634293
 20
-111.354507
 30
0.0
 11
43.34014899999998
 21
-111.354507
 31
0.0
  0
LINE
  5
50
330
22
100
AcDbEntity
  8
0
 62
     4
100
AcDbLine
 10
16.354275
 20
-113.314507
 30
0.0
 11
17.904284
 21
-111.774498
 31
0.0
  0
LINE
  5
51
330
22
100
AcDbEntity
  8
0
 62
     4
100
AcDbLine
 10
16.35428
 20
-111.774506
 30
0.0
 11
17.90428
 21
-113.314499
 31
0.0
  0
LINE
  5
52
330
22
100
AcDbEntity
  8
0
100
AcDbLine
 10
168.129471
 20
-93.53854400000001
 30
0.0
 11
182.129471
 21
-93.53854400000001
 31
0.0
  0
LINE
  5
53
330
22
100
AcDbEntity
  8
0
100
AcDbLine
 10
-197.860519
 20
-93.53854400000001
 30
0.0
 11
-183.860519
 21
-93.53854400000001
 31
0.0
  0
LINE
  5
54
330
22
100
AcDbEntity
  8
0
100
AcDbLine
 10
108.129471
 20
-101.288544
 30
0.0
 11
112.629471
 21
-101.288544
 31
0.0
  0
LINE
  5
55
330
22
100
AcDbEntity
  8
0
100
AcDbLine
 10
108.129471
 20
-101.288544
 30
0.0
 11
108.129471
 21
-102.038544
 31
0.0
  0
LINE
  5
56
330
22
100
AcDbEntity
  8
0
100
AcDbLine
 10
-183.860519
 20
-104.938553
 30
0.0
 11
168.129471
 21
-104.938553
 31
0.0
  0
LINE
  5
57
330
22
100
AcDbEntity
  8
0
  6
CENTER
 62
     2
100
AcDbLine
 10
-187.240524
 20
-106.538544
 30
0.0
 11
171.489334
 21
-106.538544
 31
0.0
  0
LINE
  5
58
330
22
100
AcDbEntity
  8
0
100
AcDbLine
 10
-183.860519
 20
-108.13855
 30
0.0
 11
168.129471
 21
-108.13855
 31
0.0
  0
LINE
  5
59
330
22
100
AcDbEntity
  8
0
100
AcDbLine
 10
113.379471
 20
-100.538544
 30
0.0
 11
113.379471
 21
-102.038544
 31
0.0
  0
LINE
  5
5A
330
22
100
AcDbEntity
  8
0
100
AcDbLine
 10
112.629471
 20
-101.288544
 30
0.0
 11
112.629471
 21
-102.038544
 31
0.0
  0
LINE
  5
5B
330
22
100
AcDbEntity
  8
0
100
AcDbLine
 10
112.629463
 20
-101.288544
 30
0.0
 11
113.379471
 21
-100.538536
 31
0.0
  0
LINE
  5
5C
330
22
100
AcDbEntity
  8
0
 62
     2
100
AcDbLine
 10
142.129471
 20
-101.288544
 30
0.0
 11
112.629471
 21
-101.288544
 31
0.0
  0
LINE
  5
5D
330
22
100
AcDbEntity
  8
0
100
AcDbLine
 10
142.129471
 20
-100.538544
 30
0.0
 11
113.379471
 21
-100.538544
 31
0.0
  0
LINE
  5
5E
330
22
100
AcDbEntity
  8
0
 62
     2
100
AcDbLine
 10
-152.860519
 20
-101.288544
 30
0.0
 11
-157.860519
 21
-101.288544
 31
0.0
  0
LINE
  5
5F
330
22
100
AcDbEntity
  8
0
100
AcDbLine
 10
-152.860519
 20
-100.538544
 30
0.0
 11
-157.860519
 21
-100.538544
 31
0.0
  0
LINE
  5
60
330
22
100
AcDbEntity
  8
0
100
AcDbLine
 10
-152.860519
 20
-101.038544
 30
0.0
 11
-12.870529
 21
-101.038544
 31
0.0
  0
LINE
  5
61
330
22
100
AcDbEntity
  8
0
100
AcDbLine
 10
-181.8605189999999
 20
-95.03854399999999
 30
0.0
 11
-171.860519
 21
-95.03854399999999
 31
0.0
  0
LINE
  5
62
330
22
100
AcDbEntity
  8
0
100
AcDbLine
 10
144.129471
 20
-95.03854399999999
 30
0.0
 11
154.129471
 21
-95.03854399999999
 31
0.0
  0
LINE
  5
63
330
22
100
AcDbEntity
  8
0
100
AcDbLine
 10
150.129471
 20
-93.38855
 30
0.0
 11
150.129471
 21
-95.03854399999999
 31
0.0
  0
LINE
  5
64
330
22
100
AcDbEntity
  8
0
100
AcDbLine
 10
150.129471
 20
-93.38855
 30
0.0
 11
160.129471
 21
-93.38855
 31
0.0
  0
LINE
  5
65
330
22
100
AcDbEntity
  8
0
100
AcDbLine
 10
160.129471
 20
-93.38855
 30
0.0
 11
160.129471
 21
-95.03854399999999
 31
0.0
  0
LINE
  5
66
330
22
100
AcDbEntity
  8
0
100
AcDbLine
 10
166.129471
 20
-95.03854399999999
 30
0.0
 11
166.129471
 21
-96.03854400000001
 31
0.0
  0
LINE
  5
67
330
22
100
AcDbEntity
  8
0
100
AcDbLine
 10
156.129471
 20
-95.03854399999999
 30
0.0
 11
156.129471
 21
-96.03854400000001
 31
0.0
  0
LINE
  5
68
330
22
100
AcDbEntity
  8
0
100
AcDbLine
 10
144.129471
 20
-95.03854399999999
 30
0.0
 11
144.129471
 21
-96.03854400000001
 31
0.0
  0
LINE
  5
69
330
22
100
AcDbEntity
  8
0
100
AcDbLine
 10
154.129471
 20
-95.03854399999999
 30
0.0
 11
154.129471
 21
-96.03854400000001
 31
0.0
  0
LINE
  5
6A
330
22
100
AcDbEntity
  8
0
100
AcDbLine
 10
156.129471
 20
-95.03854399999999
 30
0.0
 11
166.129471
 21
-95.03854399999999
 31
0.0
  0
LINE
  5
6B
330
22
100
AcDbEntity
  8
0
100
AcDbLine
 10
-169.860519
 20
-95.03854399999999
 30
0.0
 11
-159.8605189999999
 21
-95.03854399999999
 31
0.0
  0
LINE
  5
6C
330
22
100
AcDbEntity
  8
0
100
AcDbLine
 10
-165.860519
 20
-93.38855
 30
0.0
 11
-175.860519
 21
-93.38855
 31
0.0
  0
LINE
  5
6D
330
22
100
AcDbEntity
  8
0
100
AcDbLine
 10
-175.860519
 20
-93.38855
 30
0.0
 11
-175.860519
 21
-95.03854399999999
 31
0.0
  0
LINE
  5
6E
330
22
100
AcDbEntity
  8
0
100
AcDbLine
 10
-165.860519
 20
-93.38855
 30
0.0
 11
-165.860519
 21
-95.03854399999999
 31
0.0
  0
LINE
  5
6F
330
22
100
AcDbEntity
  8
0
100
AcDbLine
 10
-159.8605189999999
 20
-96.03854400000001
 30
0.0
 11
-159.8605189999999
 21
-95.03854399999999
 31
0.0
  0
LINE
  5
70
330
22
100
AcDbEntity
  8
0
100
AcDbLine
 10
-169.860519
 20
-96.03854400000001
 30
0.0
 11
-169.860519
 21
-95.03854399999999
 31
0.0
  0
LINE
  5
71
330
22
100
AcDbEntity
  8
0
100
AcDbLine
 10
-181.8605189999999
 20
-96.03854400000001
 30
0.0
 11
-181.8605189999999
 21
-95.03854399999999
 31
0.0
  0
LINE
  5
72
330
22
100
AcDbEntity
  8
0
100
AcDbLine
 10
-171.860519
 20
-96.03854400000001
 30
0.0
 11
-171.860519
 21
-95.03854399999999
 31
0.0
  0
LINE
  5
73
330
22
100
AcDbEntity
  8
0
100
AcDbLine
 10
-183.860519
 20
-96.03854400000001
 30
0.0
 11
-157.860519
 21
-96.03854400000001
 31
0.0
  0
LINE
  5
74
330
22
100
AcDbEntity
  8
0
100
AcDbLine
 10
142.129471
 20
-96.03854400000001
 30
0.0
 11
168.129471
 21
-96.03854400000001
 31
0.0
  0
LINE
  5
75
330
22
100
AcDbEntity
  8
0
100
AcDbLine
 10
168.129471
 20
-118.038544
 30
0.0
 11
182.129471
 21
-118.038544
 31
0.0
  0
LINE
  5
76
330
22
100
AcDbEntity
  8
0
100
AcDbLine
 10
168.129471
 20
-104.038544
 30
0.0
 11
182.129471
 21
-104.038544
 31
0.0
  0
LINE
  5
77
330
22
100
AcDbEntity
  8
0
  6
CENTER
 62
     2
100
AcDbLine
 10
-187.240524
 20
-112.538544
 30
0.0
 11
171.489334
 21
-112.538544
 31
0.0
  0
LINE
  5
78
330
22
100
AcDbEntity
  8
0
100
AcDbLine
 10
-183.860519
 20
-114.13855
 30
0.0
 11
168.129471
 21
-114.13855
 31
0.0
  0
LINE
  5
79
330
22
100
AcDbEntity
  8
0
100
AcDbLine
 10
-183.860519
 20
-110.938553
 30
0.0
 11
168.129471
 21
-110.938553
 31
0.0
  0
LINE
  5
7A
330
22
100
AcDbEntity
  8
0
100
AcDbLine
 10
-197.860519
 20
-118.038544
 30
0.0
 11
-183.860519
 21
-118.038544
 31
0.0
  0
LINE
  5
7B
330
22
100
AcDbEntity
  8
0
100
AcDbLine
 10
-197.860519
 20
-104.038544
 30
0.0
 11
-183.860519
 21
-104.038544
 31
0.0
  0
LINE
  5
7C
330
22
100
AcDbEntity
  8
0
100
AcDbLine
 10
142.129471
 20
-96.03854400000001
 30
0.0
 11
142.129471
 21
-102.038544
 31
0.0
  0
LINE
  5
7D
330
22
100
AcDbEntity
  8
0
100
AcDbLine
 10
-157.860519
 20
-96.03854400000001
 30
0.0
 11
-157.860519
 21
-102.038544
 31
0.0
  0
LINE
  5
7E
330
22
100
AcDbEntity
  8
0
100
AcDbLine
 10
-18.870529
 20
-102.038544
 30
0.0
 11
-18.870529
 21
-101.038544
 31
0.0
  0
LINE
  5
7F
330
22
100
AcDbEntity
  8
0
100
AcDbLine
 10
-68.870529
 20
-102.038544
 30
0.0
 11
-68.870529
 21
-101.038544
 31
0.0
  0
LINE
  5
80
330
22
100
AcDbEntity
  8
0
100
AcDbLine
 10
-96.87052900000001
 20
-102.038544
 30
0.0
 11
-96.87052900000001
 21
-101.038544
 31
0.0
  0
LINE
  5
81
330
22
100
AcDbEntity
  8
0
100
AcDbLine
 10
-146.860519
 20
-102.038544
 30
0.0
 11
-146.860519
 21
-101.038544
 31
0.0
  0
LINE
  5
82
330
22
100
AcDbEntity
  8
0
100
AcDbLine
 10
-183.860519
 20
-102.038544
 30
0.0
 11
168.129471
 21
-102.038544
 31
0.0
  0
LINE
  5
83
330
22
100
AcDbEntity
  8
0
100
AcDbLine
 10
-12.870529
 20
-91.53854399999998
 30
0.0
 11
-12.870529
 21
-101.038544
 31
0.0
  0
LINE
  5
84
330
22
100
AcDbEntity
  8
0
100
AcDbLine
 10
-152.860519
 20
-91.53854399999998
 30
0.0
 11
-152.860519
 21
-101.038544
 31
0.0
  0
LINE
  5
85
330
22
100
AcDbEntity
  8
0
100
AcDbLine
 10
-152.860519
 20
-91.53854399999998
 30
0.0
 11
-12.870529
 21
-91.53854399999998
 31
0.0
  0
LINE
  5
86
330
22
100
AcDbEntity
  8
0
  6
CENTER
 62
     2
100
AcDbLine
 10
-82.870529
 20
-86.28059399999997
 30
0.0
 11
-82.870529
 21
-136.198547
 31
0.0
  0
LINE
  5
87
330
22
100
AcDbEntity
  8
0
100
AcDbLine
 10
168.129471
 20
-93.53854400000001
 30
0.0
 11
168.129471
 21
-131.538544
 31
0.0
  0
LINE
  5
88
330
22
100
AcDbEntity
  8
0
100
AcDbLine
 10
182.129471
 20
-93.53854400000001
 30
0.0
 11
182.129471
 21
-131.538544
 31
0.0
  0
LINE
  5
89
330
22
100
AcDbEntity
  8
0
100
AcDbLine
 10
-183.860519
 20
-93.53854400000001
 30
0.0
 11
-183.860519
 21
-131.538544
 31
0.0
  0
LINE
  5
8A
330
22
100
AcDbEntity
  8
0
100
AcDbLine
 10
-197.860519
 20
-93.53854400000001
 30
0.0
 11
-197.860519
 21
-131.538544
 31
0.0
  0
LINE
  5
8B
330
22
100
AcDbEntity
  8
0
100
AcDbLine
 10
-197.860519
 20
-131.538544
 30
0.0
 11
182.129471
 21
-131.538544
 31
0.0
  0
LINE
  5
8C
330
22
100
AcDbEntity
  8
0
 62
     1
100
AcDbLine
 10
-55.03393599999998
 20
-107.734489
 30
0.0
 11
-53.659843
 21
-105.354492
 31
0.0
  0
LINE
  5
8D
330
22
100
AcDbEntity
  8
0
 62
     1
100
AcDbLine
 10
41.966068
 20
-113.734489
 30
0.0
 11
43.34016
 21
-111.354492
 31
0.0
  0
LINE
  5
8E
330
22
100
AcDbEntity
  8
0
  6
CENTER
 62
     2
100
AcDbLine
 10
-190.860519
 20
-136.538544
 30
0.0
 11
-190.860519
 21
-126.538544
 31
0.0
  0
LINE
  5
8F
330
22
100
AcDbEntity
  8
0
  6
PHANTOM
 62
     3
100
AcDbLine
 10
3.465713999999998
 20
-141.246811
 30
0.0
 11
3.465713999999998
 21
-21.638977
 31
0.0
  0
LINE
  5
90
330
22
100
AcDbEntity
  8
0
100
AcDbLine
 10
292.479401
 20
86.911453
 30
0.0
 11
292.479401
 21
72.98144499999998
 31
0.0
  0
LINE
  5
91
330
22
100
AcDbEntity
  8
0
100
AcDbLine
 10
293.779419
 20
86.911453
 30
0.0
 11
293.779419
 21
72.98144499999998
 31
0.0
  0
LINE
  5
92
330
22
100
AcDbEntity
  8
0
100
AcDbLine
 10
289.629395
 20
23.951447
 30
0.0
 11
289.629395
 21
18.451447
 31
0.0
  0
LINE
  5
93
330
22
100
AcDbEntity
  8
0
100
AcDbLine
 10
289.629395
 20
23.951447
 30
0.0
 11
303.6293950000001
 21
23.951447
 31
0.0
  0
LINE
  5
94
330
22
100
AcDbEntity
  8
0
100
AcDbLine
 10
303.6293950000001
 20
23.951447
 30
0.0
 11
303.6293950000001
 21
18.451447
 31
0.0
  0
LINE
  5
95
330
22
100
AcDbEntity
  8
0
100
AcDbLine
 10
317.129395
 20
148.451447
 30
0.0
 11
279.129395
 21
148.451447
 31
0.0
  0
LINE
  5
96
330
22
100
AcDbEntity
  8
0
100
AcDbLine
 10
277.129395
 20
112.451447
 30
0.0
 11
277.129395
 21
18.451447
 31
0.0
  0
LINE
  5
97
330
22
100
AcDbEntity
  8
0
100
AcDbLine
 10
317.129395
 20
18.951456
 30
0.0
 11
316.629395
 21
18.451456
 31
0.0
  0
LINE
  5
98
330
22
100
AcDbEntity
  8
0
100
AcDbLine
 10
299.729401
 20
18.451447
 30
0.0
 11
316.629395
 21
18.451447
 31
0.0
  0
LINE
  5
99
330
22
100
AcDbEntity
  8
0
100
AcDbLine
 10
290.029419
 20
19.451447
 30
0.0
 11
290.029419
 21
21.051453
 31
0.0
  0
LINE
  5
9A
330
22
100
AcDbEntity
  8
0
100
AcDbLine
 10
290.029388
 20
19.451458
 30
0.0
 11
290.529388
 21
18.951456
 31
0.0
  0
LINE
  5
9B
330
22
100
AcDbEntity
  8
0
100
AcDbLine
 10
290.529419
 20
18.951447
 30
0.0
 11
290.529419
 21
18.451447
 31
0.0
  0
LINE
  5
9C
330
22
100
AcDbEntity
  8
0
100
AcDbLine
 10
293.729401
 20
18.951447
 30
0.0
 11
293.729401
 21
18.451447
 31
0.0
  0
LINE
  5
9D
330
22
100
AcDbEntity
  8
0
100
AcDbLine
 10
294.229401
 20
19.451445
 30
0.0
 11
293.729401
 21
18.951443
 31
0.0
  0
LINE
  5
9E
330
22
100
AcDbEntity
  8
0
100
AcDbLine
 10
294.229401
 20
19.451447
 30
0.0
 11
294.229401
 21
21.051453
 31
0.0
  0
LINE
  5
9F
330
22
100
AcDbEntity
  8
0
100
AcDbLine
 10
299.729401
 20
18.951447
 30
0.0
 11
299.729401
 21
18.451447
 31
0.0
  0
LINE
  5
A0
330
22
100
AcDbEntity
  8
0
100
AcDbLine
 10
300.229401
 20
19.451445
 30
0.0
 11
299.729401
 21
18.951443
 31
0.0
  0
LINE
  5
A1
330
22
100
AcDbEntity
  8
0
100
AcDbLine
 10
300.229401
 20
19.451447
 30
0.0
 11
301.729401
 21
19.451447
 31
0.0
  0
LINE
  5
A2
330
22
100
AcDbEntity
  8
0
100
AcDbLine
 10
301.729401
 20
22.25145
 30
0.0
 11
299.849396
 21
22.25145
 31
0.0
  0
LINE
  5
A3
330
22
100
AcDbEntity
  8
0
100
AcDbLine
 10
296.029419
 20
19.451447
 30
0.0
 11
296.029419
 21
21.051453
 31
0.0
  0
LINE
  5
A4
330
22
100
AcDbEntity
  8
0
100
AcDbLine
 10
296.029388
 20
19.451447
 30
0.0
 11
296.529388
 21
18.951445
 31
0.0
  0
LINE
  5
A5
330
22
100
AcDbEntity
  8
0
100
AcDbLine
 10
296.529419
 20
18.951447
 30
0.0
 11
296.529419
 21
18.451447
 31
0.0
  0
LINE
  5
A6
330
22
100
AcDbEntity
  8
0
100
AcDbLine
 10
279.129395
 20
148.451447
 30
0.0
 11
279.129395
 21
18.451447
 31
0.0
  0
LINE
  5
A7
330
22
100
AcDbEntity
  8
0
100
AcDbLine
 10
277.129395
 20
112.451447
 30
0.0
 11
279.129395
 21
112.451447
 31
0.0
  0
LINE
  5
A8
330
22
100
AcDbEntity
  8
0
100
AcDbLine
 10
293.729401
 20
18.451447
 30
0.0
 11
296.529419
 21
18.451447
 31
0.0
  0
LINE
  5
A9
330
22
100
AcDbEntity
  8
0
  6
DASHED
 62
     2
100
AcDbLine
 10
309.279388
 20
81.201447
 30
0.0
 11
309.279388
 21
91.70144699999999
 31
0.0
  0
LINE
  5
AA
330
22
100
AcDbEntity
  8
0
  6
DASHED
 62
     2
100
AcDbLine
 10
309.279388
 20
29.201447
 30
0.0
 11
309.279388
 21
39.701447
 31
0.0
  0
LINE
  5
AB
330
22
100
AcDbEntity
  8
0
  6
DASHED
 62
     2
100
AcDbLine
 10
317.129395
 20
44.45145
 30
0.0
 11
316.629395
 21
44.95144999999999
 31
0.0
  0
LINE
  5
AC
330
22
100
AcDbEntity
  8
0
  6
DASHED
100
AcDbLine
 10
317.129395
 20
76.451439
 30
0.0
 11
316.629395
 21
75.95145399999998
 31
0.0
  0
LINE
  5
AD
330
22
100
AcDbEntity
  8
0
  6
DASHED
 62
     2
100
AcDbLine
 10
316.629395
 20
75.951447
 30
0.0
 11
316.629395
 21
44.95144699999999
 31
0.0
  0
LINE
  5
AE
330
22
100
AcDbEntity
  8
0
100
AcDbLine
 10
277.129395
 20
18.451447
 30
0.0
 11
290.529419
 21
18.451447
 31
0.0
  0
LINE
  5
AF
330
22
100
AcDbEntity
  8
0
  6
CENTER
 62
     2
100
AcDbLine
 10
305.639404
 20
34.451447
 30
0.0
 11
320.539398
 21
34.451447
 31
0.0
  0
LINE
  5
B0
330
22
100
AcDbEntity
  8
0
  6
DASHED
 62
     2
100
AcDbLine
 10
308.629395
 20
39.701447
 30
0.0
 11
314.1293950000001
 21
39.701447
 31
0.0
  0
LINE
  5
B1
330
22
100
AcDbEntity
  8
0
  6
DASHED
 62
     2
100
AcDbLine
 10
308.629395
 20
37.70144699999999
 30
0.0
 11
308.629395
 21
39.701447
 31
0.0
  0
LINE
  5
B2
330
22
100
AcDbEntity
  8
0
  6
DASHED
 62
     2
100
AcDbLine
 10
307.6293950000001
 20
37.70144699999999
 30
0.0
 11
308.629395
 21
37.70144699999999
 31
0.0
  0
LINE
  5
B3
330
22
100
AcDbEntity
  8
0
  6
DASHED
 62
     2
100
AcDbLine
 10
307.6293950000001
 20
31.201447
 30
0.0
 11
307.6293950000001
 21
37.70144699999999
 31
0.0
  0
LINE
  5
B4
330
22
100
AcDbEntity
  8
0
  6
DASHED
 62
     2
100
AcDbLine
 10
307.6293950000001
 20
31.201447
 30
0.0
 11
308.629395
 21
31.201447
 31
0.0
  0
LINE
  5
B5
330
22
100
AcDbEntity
  8
0
  6
DASHED
 62
     2
100
AcDbLine
 10
308.629395
 20
29.201447
 30
0.0
 11
308.629395
 21
31.201447
 31
0.0
  0
LINE
  5
B6
330
22
100
AcDbEntity
  8
0
  6
DASHED
 62
     2
100
AcDbLine
 10
308.629395
 20
29.201447
 30
0.0
 11
314.1293950000001
 21
29.201447
 31
0.0
  0
LINE
  5
B7
330
22
100
AcDbEntity
  8
0
  6
DASHED
 62
     2
100
AcDbLine
 10
314.1293950000001
 20
39.701447
 30
0.0
 11
314.1293950000001
 21
29.201447
 31
0.0
  0
LINE
  5
B8
330
22
100
AcDbEntity
  8
0
  6
DASHED
 62
     2
100
AcDbLine
 10
314.1293950000001
 20
31.201447
 30
0.0
 11
317.129395
 21
31.201447
 31
0.0
  0
LINE
  5
B9
330
22
100
AcDbEntity
  8
0
  6
DASHED
 62
     2
100
AcDbLine
 10
314.1293950000001
 20
37.70144699999999
 30
0.0
 11
317.129395
 21
37.70144699999999
 31
0.0
  0
LINE
  5
BA
330
22
100
AcDbEntity
  8
0
  6
DASHED
 62
     2
100
AcDbLine
 10
308.629395
 20
89.701447
 30
0.0
 11
308.629395
 21
91.70144699999999
 31
0.0
  0
LINE
  5
BB
330
22
100
AcDbEntity
  8
0
  6
DASHED
 62
     2
100
AcDbLine
 10
307.6293950000001
 20
89.701447
 30
0.0
 11
308.629395
 21
89.701447
 31
0.0
  0
LINE
  5
BC
330
22
100
AcDbEntity
  8
0
  6
DASHED
 62
     2
100
AcDbLine
 10
307.6293950000001
 20
83.201447
 30
0.0
 11
307.6293950000001
 21
89.701447
 31
0.0
  0
LINE
  5
BD
330
22
100
AcDbEntity
  8
0
  6
DASHED
 62
     2
100
AcDbLine
 10
307.6293950000001
 20
83.201447
 30
0.0
 11
308.629395
 21
83.201447
 31
0.0
  0
LINE
  5
BE
330
22
100
AcDbEntity
  8
0
  6
DASHED
 62
     2
100
AcDbLine
 10
308.629395
 20
81.201447
 30
0.0
 11
308.629395
 21
83.201447
 31
0.0
  0
LINE
  5
BF
330
22
100
AcDbEntity
  8
0
  6
DASHED
 62
     2
100
AcDbLine
 10
308.629395
 20
91.70144699999999
 30
0.0
 11
314.1293950000001
 21
91.70144699999999
 31
0.0
  0
LINE
  5
C0
330
22
100
AcDbEntity
  8
0
  6
DASHED
 62
     2
100
AcDbLine
 10
308.629395
 20
81.201447
 30
0.0
 11
314.1293950000001
 21
81.201447
 31
0.0
  0
LINE
  5
C1
330
22
100
AcDbEntity
  8
0
  6
DASHED
 62
     2
100
AcDbLine
 10
314.1293950000001
 20
91.70144699999999
 30
0.0
 11
314.1293950000001
 21
81.201447
 31
0.0
  0
LINE
  5
C2
330
22
100
AcDbEntity
  8
0
  6
DASHED
 62
     2
100
AcDbLine
 10
314.1293950000001
 20
89.701447
 30
0.0
 11
317.129395
 21
89.701447
 31
0.0
  0
LINE
  5
C3
330
22
100
AcDbEntity
  8
0
  6
CENTER
 62
     2
100
AcDbLine
 10
305.299408
 20
86.45144700000001
 30
0.0
 11
320.029388
 21
86.45144700000001
 31
0.0
  0
LINE
  5
C4
330
22
100
AcDbEntity
  8
0
  6
DASHED
 62
     2
100
AcDbLine
 10
314.1293950000001
 20
83.201447
 30
0.0
 11
317.129395
 21
83.201447
 31
0.0
  0
LINE
  5
C5
330
22
100
AcDbEntity
  8
0
100
AcDbLine
 10
317.129395
 20
18.951447
 30
0.0
 11
317.129395
 21
148.451447
 31
0.0
  0
LINE
  5
C6
330
22
100
AcDbEntity
  8
0
  6
CENTER
 62
     1
100
AcDbLine
 10
292.129395
 20
27.331451
 30
0.0
 11
292.129395
 21
17.261444
 31
0.0
  0
LINE
  5
C7
330
22
100
AcDbEntity
  8
0
 62
     4
100
AcDbLine
 10
290.0793759999999
 20
19.421453
 30
0.0
 11
290.6293950000001
 21
18.871452
 31
0.0
  0
LINE
  5
C8
330
22
100
AcDbEntity
  8
0
 62
     4
100
AcDbLine
 10
291.1293950000001
 20
22.901443
 30
0.0
 11
291.87915
 21
22.901443
 31
0.0
  0
LINE
  5
C9
330
22
100
AcDbEntity
  8
0
 62
     4
100
AcDbLine
 10
291.1293950000001
 20
17.901443
 30
0.0
 11
293.129395
 21
17.901443
 31
0.0
  0
LINE
  5
CA
330
22
100
AcDbEntity
  8
0
 62
     4
100
AcDbLine
 10
290.6293950000001
 20
18.321442
 30
0.0
 11
293.6293950000001
 21
18.321442
 31
0.0
  0
LINE
  5
CB
330
22
100
AcDbEntity
  8
0
  6
CENTER
 62
     1
100
AcDbLine
 10
293.775848
 20
20.671448
 30
0.0
 11
290.4863890000001
 21
20.671448
 31
0.0
  0
LINE
  5
CC
330
22
100
AcDbEntity
  8
0
  6
CENTER
 62
     1
100
AcDbLine
 10
292.864685
 20
21.121445
 30
0.0
 11
291.376984
 21
21.121445
 31
0.0
  0
LINE
  5
CD
330
22
100
AcDbEntity
  8
0
  6
CENTER
 62
     1
100
AcDbLine
 10
292.864685
 20
20.221451
 30
0.0
 11
291.376984
 21
20.221451
 31
0.0
  0
LINE
  5
CE
330
22
100
AcDbEntity
  8
0
 62
     4
100
AcDbLine
 10
292.379639
 20
22.901443
 30
0.0
 11
293.129395
 21
22.901443
 31
0.0
  0
LINE
  5
CF
330
22
100
AcDbEntity
  8
0
 62
     1
100
AcDbLine
 10
293.129395
 20
22.655838
 30
0.0
 11
293.129395
 21
22.901443
 31
0.0
  0
LINE
  5
D0
330
22
100
AcDbEntity
  8
0
 62
     4
100
AcDbLine
 10
293.129395
 20
22.901455
 30
0.0
 11
293.379395
 21
22.651451
 31
0.0
  0
LINE
  5
D1
330
22
100
AcDbEntity
  8
0
 62
     4
100
AcDbLine
 10
293.379395
 20
22.490997
 30
0.0
 11
293.379395
 21
22.651443
 31
0.0
  0
LINE
  5
D2
330
22
100
AcDbEntity
  8
0
 62
     4
100
AcDbLine
 10
291.1293950000001
 20
22.901464
 30
0.0
 11
290.8793950000001
 21
22.651457
 31
0.0
  0
LINE
  5
D3
330
22
100
AcDbEntity
  8
0
 62
     4
100
AcDbLine
 10
290.8793950000001
 20
22.491455
 30
0.0
 11
290.8793950000001
 21
22.651443
 31
0.0
  0
LINE
  5
D4
330
22
100
AcDbEntity
  8
0
 62
     1
100
AcDbLine
 10
291.1293950000001
 20
22.656158
 30
0.0
 11
291.1293950000001
 21
22.901443
 31
0.0
  0
LINE
  5
D5
330
22
100
AcDbEntity
  8
0
 62
     4
100
AcDbLine
 10
290.6293950000001
 20
18.371445
 30
0.0
 11
290.6293950000001
 21
18.821442
 31
0.0
  0
LINE
  5
D6
330
22
100
AcDbEntity
  8
0
 62
     4
100
AcDbLine
 10
290.6293950000001
 20
18.321442
 30
0.0
 11
290.6293950000001
 21
18.871445
 31
0.0
  0
LINE
  5
D7
330
22
100
AcDbEntity
  8
0
 62
     4
100
AcDbLine
 10
290.8793950000001
 20
18.151451
 30
0.0
 11
291.1293950000001
 21
17.901442
 31
0.0
  0
LINE
  5
D8
330
22
100
AcDbEntity
  8
0
 62
     4
100
AcDbLine
 10
290.8793950000001
 20
18.151443
 30
0.0
 11
290.8793950000001
 21
18.321442
 31
0.0
  0
LINE
  5
D9
330
22
100
AcDbEntity
  8
0
 62
     1
100
AcDbLine
 10
291.1293950000001
 20
17.901443
 30
0.0
 11
291.1293950000001
 21
18.321442
 31
0.0
  0
LINE
  5
DA
330
22
100
AcDbEntity
  8
0
 62
     4
100
AcDbLine
 10
294.179382
 20
19.42145
 30
0.0
 11
293.6293950000001
 21
18.871454
 31
0.0
  0
LINE
  5
DB
330
22
100
AcDbEntity
  8
0
 62
     4
100
AcDbLine
 10
293.6293950000001
 20
18.371445
 30
0.0
 11
293.6293950000001
 21
18.821442
 31
0.0
  0
LINE
  5
DC
330
22
100
AcDbEntity
  8
0
 62
     4
100
AcDbLine
 10
293.6293950000001
 20
18.321442
 30
0.0
 11
293.6293950000001
 21
18.871445
 31
0.0
  0
LINE
  5
DD
330
22
100
AcDbEntity
  8
0
 62
     4
100
AcDbLine
 10
293.379395
 20
18.151443
 30
0.0
 11
293.129395
 21
17.901451
 31
0.0
  0
LINE
  5
DE
330
22
100
AcDbEntity
  8
0
 62
     4
100
AcDbLine
 10
293.379395
 20
18.151443
 30
0.0
 11
293.379395
 21
18.321442
 31
0.0
  0
LINE
  5
DF
330
22
100
AcDbEntity
  8
0
 62
     1
100
AcDbLine
 10
293.129395
 20
17.901443
 30
0.0
 11
293.129395
 21
18.321442
 31
0.0
  0
LINE
  5
E0
330
22
100
AcDbEntity
  8
0
 62
     4
100
AcDbLine
 10
294.179382
 20
19.421448
 30
0.0
 11
294.179382
 21
20.871445
 31
0.0
  0
LINE
  5
E1
330
22
100
AcDbEntity
  8
0
 62
     4
100
AcDbLine
 10
290.079407
 20
19.421448
 30
0.0
 11
290.079407
 21
20.871445
 31
0.0
  0
LINE
  5
E2
330
22
100
AcDbEntity
  8
0
  6
CENTER
 62
     1
100
AcDbLine
 10
298.129395
 20
27.331451
 30
0.0
 11
298.129395
 21
17.261444
 31
0.0
  0
LINE
  5
E3
330
22
100
AcDbEntity
  8
0
 62
     4
100
AcDbLine
 10
296.079407
 20
19.42145
 30
0.0
 11
296.629395
 21
18.871454
 31
0.0
  0
LINE
  5
E4
330
22
100
AcDbEntity
  8
0
 62
     4
100
AcDbLine
 10
297.1293950000001
 20
22.901443
 30
0.0
 11
297.87915
 21
22.901443
 31
0.0
  0
LINE
  5
E5
330
22
100
AcDbEntity
  8
0
 62
     4
100
AcDbLine
 10
297.1293950000001
 20
17.901443
 30
0.0
 11
299.1293950000001
 21
17.901443
 31
0.0
  0
LINE
  5
E6
330
22
100
AcDbEntity
  8
0
 62
     4
100
AcDbLine
 10
296.629395
 20
18.321442
 30
0.0
 11
299.629395
 21
18.321442
 31
0.0
  0
LINE
  5
E7
330
22
100
AcDbEntity
  8
0
  6
CENTER
 62
     1
100
AcDbLine
 10
299.775848
 20
20.671448
 30
0.0
 11
296.486389
 21
20.671448
 31
0.0
  0
LINE
  5
E8
330
22
100
AcDbEntity
  8
0
  6
CENTER
 62
     1
100
AcDbLine
 10
298.864685
 20
21.121445
 30
0.0
 11
297.376984
 21
21.121445
 31
0.0
  0
LINE
  5
E9
330
22
100
AcDbEntity
  8
0
  6
CENTER
 62
     1
100
AcDbLine
 10
298.864685
 20
20.221451
 30
0.0
 11
297.376984
 21
20.221451
 31
0.0
  0
LINE
  5
EA
330
22
100
AcDbEntity
  8
0
 62
     4
100
AcDbLine
 10
298.379639
 20
22.901443
 30
0.0
 11
299.1293950000001
 21
22.901443
 31
0.0
  0
LINE
  5
EB
330
22
100
AcDbEntity
  8
0
 62
     1
100
AcDbLine
 10
299.1293950000001
 20
22.655838
 30
0.0
 11
299.1293950000001
 21
22.901443
 31
0.0
  0
LINE
  5
EC
330
22
100
AcDbEntity
  8
0
 62
     4
100
AcDbLine
 10
299.1293950000001
 20
22.901453
 30
0.0
 11
299.379395
 21
22.651443
 31
0.0
  0
LINE
  5
ED
330
22
100
AcDbEntity
  8
0
 62
     4
100
AcDbLine
 10
299.379395
 20
22.490997
 30
0.0
 11
299.379395
 21
22.651443
 31
0.0
  0
LINE
  5
EE
330
22
100
AcDbEntity
  8
0
 62
     4
100
AcDbLine
 10
297.1293950000001
 20
22.901432
 30
0.0
 11
296.8793950000001
 21
22.65144
 31
0.0
  0
LINE
  5
EF
330
22
100
AcDbEntity
  8
0
 62
     4
100
AcDbLine
 10
296.8793950000001
 20
22.491455
 30
0.0
 11
296.8793950000001
 21
22.651443
 31
0.0
  0
LINE
  5
F0
330
22
100
AcDbEntity
  8
0
 62
     1
100
AcDbLine
 10
297.1293950000001
 20
22.656158
 30
0.0
 11
297.1293950000001
 21
22.901443
 31
0.0
  0
LINE
  5
F1
330
22
100
AcDbEntity
  8
0
 62
     4
100
AcDbLine
 10
296.629395
 20
18.371445
 30
0.0
 11
296.629395
 21
18.821442
 31
0.0
  0
LINE
  5
F2
330
22
100
AcDbEntity
  8
0
 62
     4
100
AcDbLine
 10
296.629395
 20
18.321442
 30
0.0
 11
296.629395
 21
18.871445
 31
0.0
  0
LINE
  5
F3
330
22
100
AcDbEntity
  8
0
 62
     4
100
AcDbLine
 10
296.8793950000001
 20
18.151455
 30
0.0
 11
297.1293950000001
 21
17.901464
 31
0.0
  0
LINE
  5
F4
330
22
100
AcDbEntity
  8
0
 62
     4
100
AcDbLine
 10
296.8793950000001
 20
18.151443
 30
0.0
 11
296.8793950000001
 21
18.321442
 31
0.0
  0
LINE
  5
F5
330
22
100
AcDbEntity
  8
0
 62
     1
100
AcDbLine
 10
297.1293950000001
 20
17.901443
 30
0.0
 11
297.1293950000001
 21
18.321442
 31
0.0
  0
LINE
  5
F6
330
22
100
AcDbEntity
  8
0
 62
     4
100
AcDbLine
 10
300.179382
 20
19.421448
 30
0.0
 11
299.629395
 21
18.871452
 31
0.0
  0
LINE
  5
F7
330
22
100
AcDbEntity
  8
0
 62
     4
100
AcDbLine
 10
299.629395
 20
18.371445
 30
0.0
 11
299.629395
 21
18.821442
 31
0.0
  0
LINE
  5
F8
330
22
100
AcDbEntity
  8
0
 62
     4
100
AcDbLine
 10
299.629395
 20
18.321442
 30
0.0
 11
299.629395
 21
18.871445
 31
0.0
  0
LINE
  5
F9
330
22
100
AcDbEntity
  8
0
 62
     4
100
AcDbLine
 10
299.379395
 20
18.15144
 30
0.0
 11
299.1293950000001
 21
17.901447
 31
0.0
  0
LINE
  5
FA
330
22
100
AcDbEntity
  8
0
 62
     4
100
AcDbLine
 10
299.379395
 20
18.151443
 30
0.0
 11
299.379395
 21
18.321442
 31
0.0
  0
LINE
  5
FB
330
22
100
AcDbEntity
  8
0
 62
     1
100
AcDbLine
 10
299.1293950000001
 20
17.901443
 30
0.0
 11
299.1293950000001
 21
18.321442
 31
0.0
  0
LINE
  5
FC
330
22
100
AcDbEntity
  8
0
 62
     4
100
AcDbLine
 10
300.179382
 20
19.421448
 30
0.0
 11
300.179382
 21
20.871445
 31
0.0
  0
LINE
  5
FD
330
22
100
AcDbEntity
  8
0
 62
     4
100
AcDbLine
 10
296.079407
 20
19.421448
 30
0.0
 11
296.079407
 21
20.871445
 31
0.0
  0
LINE
  5
FE
330
22
100
AcDbEntity
  8
0
  6
CENTER
 62
     2
100
AcDbLine
 10
303.135376
 20
79.96084599999997
 30
0.0
 11
283.1353759999999
 21
79.96084599999997
 31
0.0
  0
LINE
  5
FF
330
22
100
AcDbEntity
  8
0
  6
CENTER
 62
     2
100
AcDbLine
 10
293.135376
 20
89.96084599999997
 30
0.0
 11
293.135376
 21
69.96084599999999
 31
0.0
  0
LINE
  5
100
330
22
100
AcDbEntity
  8
0
  6
CENTER
 62
     2
100
AcDbLine
 10
310.635376
 20
92.46084600000001
 30
0.0
 11
295.6353759999999
 21
92.46084600000001
 31
0.0
  0
LINE
  5
101
330
22
100
AcDbEntity
  8
0
  6
CENTER
 62
     2
100
AcDbLine
 10
303.135376
 20
99.96084600000001
 30
0.0
 11
303.135376
 21
84.96084599999997
 31
0.0
  0
LINE
  5
102
330
22
100
AcDbEntity
  8
0
  6
CENTER
 62
     2
100
AcDbLine
 10
304.635376
 20
121.460861
 30
0.0
 11
289.635376
 21
121.460861
 31
0.0
  0
LINE
  5
103
330
22
100
AcDbEntity
  8
0
  6
CENTER
 62
     2
100
AcDbLine
 10
297.1353759999999
 20
128.960861
 30
0.0
 11
297.1353759999999
 21
113.960861
 31
0.0
  0
LINE
  5
104
330
22
100
AcDbEntity
  8
0
  6
CENTER
 62
     2
100
AcDbLine
 10
312.129395
 20
141.4614409999999
 30
0.0
 11
322.1293950000001
 21
141.4614409999999
 31
0.0
  0
LINE
  5
105
330
22
100
AcDbEntity
  8
0
 62
     1
100
AcDbLine
 10
-308.860352
 20
20.921448
 30
0.0
 11
-308.860352
 21
22.901443
 31
0.0
  0
LINE
  5
106
330
22
100
AcDbEntity
  8
0
 62
     4
100
AcDbLine
 10
-312.360352
 20
18.321442
 30
0.0
 11
-312.360352
 21
18.871445
 31
0.0
  0
LINE
  5
107
330
22
100
AcDbEntity
  8
0
 62
     1
100
AcDbLine
 10
-312.860352
 20
17.901443
 30
0.0
 11
-312.860352
 21
18.321442
 31
0.0
  0
LINE
  5
108
330
22
100
AcDbEntity
  8
0
 62
     4
100
AcDbLine
 10
-312.610352
 20
18.151453
 30
0.0
 11
-312.860352
 21
17.901461
 31
0.0
  0
LINE
  5
109
330
22
100
AcDbEntity
  8
0
 62
     4
100
AcDbLine
 10
-312.610352
 20
18.151443
 30
0.0
 11
-312.610352
 21
18.321442
 31
0.0
  0
LINE
  5
10A
330
22
100
AcDbEntity
  8
0
 62
     4
100
AcDbLine
 10
-315.360352
 20
18.321442
 30
0.0
 11
-315.360352
 21
18.871445
 31
0.0
  0
LINE
  5
10B
330
22
100
AcDbEntity
  8
0
 62
     1
100
AcDbLine
 10
-314.860352
 20
17.901443
 30
0.0
 11
-314.860352
 21
18.321442
 31
0.0
  0
LINE
  5
10C
330
22
100
AcDbEntity
  8
0
 62
     4
100
AcDbLine
 10
-315.110352
 20
18.151442
 30
0.0
 11
-314.860352
 21
17.901451
 31
0.0
  0
LINE
  5
10D
330
22
100
AcDbEntity
  8
0
 62
     4
100
AcDbLine
 10
-315.110352
 20
18.151443
 30
0.0
 11
-315.110352
 21
18.321442
 31
0.0
  0
LINE
  5
10E
330
22
100
AcDbEntity
  8
0
 62
     4
100
AcDbLine
 10
-312.860352
 20
17.901443
 30
0.0
 11
-314.860352
 21
17.901443
 31
0.0
  0
LINE
  5
10F
330
22
100
AcDbEntity
  8
0
 62
     4
100
AcDbLine
 10
-312.360352
 20
18.321442
 30
0.0
 11
-315.360352
 21
18.321442
 31
0.0
  0
LINE
  5
110
330
22
100
AcDbEntity
  8
0
 62
     4
100
AcDbLine
 10
-306.360352
 20
18.321442
 30
0.0
 11
-306.360352
 21
18.871445
 31
0.0
  0
LINE
  5
111
330
22
100
AcDbEntity
  8
0
 62
     1
100
AcDbLine
 10
-306.860352
 20
17.901443
 30
0.0
 11
-306.860352
 21
18.321442
 31
0.0
  0
LINE
  5
112
330
22
100
AcDbEntity
  8
0
 62
     4
100
AcDbLine
 10
-306.610352
 20
18.151453
 30
0.0
 11
-306.860352
 21
17.901445
 31
0.0
  0
LINE
  5
113
330
22
100
AcDbEntity
  8
0
 62
     4
100
AcDbLine
 10
-306.610352
 20
18.151443
 30
0.0
 11
-306.610352
 21
18.321442
 31
0.0
  0
LINE
  5
114
330
22
100
AcDbEntity
  8
0
 62
     4
100
AcDbLine
 10
-309.360352
 20
18.321442
 30
0.0
 11
-309.360352
 21
18.871445
 31
0.0
  0
LINE
  5
115
330
22
100
AcDbEntity
  8
0
 62
     1
100
AcDbLine
 10
-308.860352
 20
17.901443
 30
0.0
 11
-308.860352
 21
18.321442
 31
0.0
  0
LINE
  5
116
330
22
100
AcDbEntity
  8
0
 62
     4
100
AcDbLine
 10
-309.110352
 20
18.151447
 30
0.0
 11
-308.860352
 21
17.901455
 31
0.0
  0
LINE
  5
117
330
22
100
AcDbEntity
  8
0
 62
     4
100
AcDbLine
 10
-309.110352
 20
18.151443
 30
0.0
 11
-309.110352
 21
18.321442
 31
0.0
  0
LINE
  5
118
330
22
100
AcDbEntity
  8
0
 62
     4
100
AcDbLine
 10
-306.860352
 20
17.901443
 30
0.0
 11
-308.860352
 21
17.901443
 31
0.0
  0
LINE
  5
119
330
22
100
AcDbEntity
  8
0
 62
     4
100
AcDbLine
 10
-306.360352
 20
18.321442
 30
0.0
 11
-309.360352
 21
18.321442
 31
0.0
  0
LINE
  5
11A
330
22
100
AcDbEntity
  8
0
 62
     4
100
AcDbLine
 10
-308.860352
 20
22.901455
 30
0.0
 11
-309.110352
 21
22.651451
 31
0.0
  0
LINE
  5
11B
330
22
100
AcDbEntity
  8
0
 62
     4
100
AcDbLine
 10
-306.860352
 20
22.901463
 30
0.0
 11
-306.610352
 21
22.651453
 31
0.0
  0
LINE
  5
11C
330
22
100
AcDbEntity
  8
0
 62
     4
100
AcDbLine
 10
-306.860352
 20
22.901443
 30
0.0
 11
-308.860352
 21
22.901443
 31
0.0
  0
LINE
  5
11D
330
22
100
AcDbEntity
  8
0
 62
     4
100
AcDbLine
 10
-312.860352
 20
22.901436
 30
0.0
 11
-312.610352
 21
22.651443
 31
0.0
  0
LINE
  5
11E
330
22
100
AcDbEntity
  8
0
 62
     4
100
AcDbLine
 10
-312.860352
 20
22.901443
 30
0.0
 11
-314.860352
 21
22.901443
 31
0.0
  0
LINE
  5
11F
330
22
100
AcDbEntity
  8
0
 62
     4
100
AcDbLine
 10
-314.860352
 20
22.901445
 30
0.0
 11
-315.110352
 21
22.651447
 31
0.0
  0
LINE
  5
120
330
22
100
AcDbEntity
  8
0
 62
     4
100
AcDbLine
 10
-315.910339
 20
19.421448
 30
0.0
 11
-315.910339
 21
20.871445
 31
0.0
  0
LINE
  5
121
330
22
100
AcDbEntity
  8
0
 62
     4
100
AcDbLine
 10
-311.810364
 20
19.421448
 30
0.0
 11
-311.810364
 21
20.871445
 31
0.0
  0
LINE
  5
122
330
22
100
AcDbEntity
  8
0
 62
     4
100
AcDbLine
 10
-311.810364
 20
20.121445
 30
0.0
 11
-315.910339
 21
20.121445
 31
0.0
  0
LINE
  5
123
330
22
100
AcDbEntity
  8
0
 62
     4
100
AcDbLine
 10
-311.960358
 20
20.221451
 30
0.0
 11
-315.760376
 21
20.221451
 31
0.0
  0
LINE
  5
124
330
22
100
AcDbEntity
  8
0
 62
     4
100
AcDbLine
 10
-315.860352
 20
20.321442
 30
0.0
 11
-315.860352
 21
20.821442
 31
0.0
  0
LINE
  5
125
330
22
100
AcDbEntity
  8
0
 62
     4
100
AcDbLine
 10
-311.860352
 20
20.321442
 30
0.0
 11
-311.860352
 21
20.821442
 31
0.0
  0
LINE
  5
126
330
22
100
AcDbEntity
  8
0
 62
     4
100
AcDbLine
 10
-311.960358
 20
20.921448
 30
0.0
 11
-315.760376
 21
20.921448
 31
0.0
  0
LINE
  5
127
330
22
100
AcDbEntity
  8
0
 62
     1
100
AcDbLine
 10
-312.860352
 20
20.121445
 30
0.0
 11
-312.860352
 21
20.221451
 31
0.0
  0
LINE
  5
128
330
22
100
AcDbEntity
  8
0
 62
     1
100
AcDbLine
 10
-314.860352
 20
20.121445
 30
0.0
 11
-314.860352
 21
20.221451
 31
0.0
  0
LINE
  5
129
330
22
100
AcDbEntity
  8
0
 62
     4
100
AcDbLine
 10
-312.610352
 20
20.121445
 30
0.0
 11
-312.610352
 21
20.221451
 31
0.0
  0
LINE
  5
12A
330
22
100
AcDbEntity
  8
0
 62
     4
100
AcDbLine
 10
-315.110352
 20
20.121445
 30
0.0
 11
-315.110352
 21
20.221451
 31
0.0
  0
LINE
  5
12B
330
22
100
AcDbEntity
  8
0
 62
     4
100
AcDbLine
 10
-309.910339
 20
19.421448
 30
0.0
 11
-309.910339
 21
20.871445
 31
0.0
  0
LINE
  5
12C
330
22
100
AcDbEntity
  8
0
 62
     4
100
AcDbLine
 10
-305.810364
 20
19.421448
 30
0.0
 11
-305.810364
 21
20.871445
 31
0.0
  0
LINE
  5
12D
330
22
100
AcDbEntity
  8
0
 62
     4
100
AcDbLine
 10
-305.810364
 20
20.121445
 30
0.0
 11
-309.910339
 21
20.121445
 31
0.0
  0
LINE
  5
12E
330
22
100
AcDbEntity
  8
0
 62
     4
100
AcDbLine
 10
-305.960358
 20
20.221451
 30
0.0
 11
-309.760376
 21
20.221451
 31
0.0
  0
LINE
  5
12F
330
22
100
AcDbEntity
  8
0
 62
     4
100
AcDbLine
 10
-309.860352
 20
20.321442
 30
0.0
 11
-309.860352
 21
20.821442
 31
0.0
  0
LINE
  5
130
330
22
100
AcDbEntity
  8
0
 62
     4
100
AcDbLine
 10
-305.860352
 20
20.321442
 30
0.0
 11
-305.860352
 21
20.821442
 31
0.0
  0
LINE
  5
131
330
22
100
AcDbEntity
  8
0
 62
     4
100
AcDbLine
 10
-305.960358
 20
20.921448
 30
0.0
 11
-309.760376
 21
20.921448
 31
0.0
  0
LINE
  5
132
330
22
100
AcDbEntity
  8
0
 62
     1
100
AcDbLine
 10
-306.860352
 20
20.121445
 30
0.0
 11
-306.860352
 21
20.221451
 31
0.0
  0
LINE
  5
133
330
22
100
AcDbEntity
  8
0
 62
     1
100
AcDbLine
 10
-308.860352
 20
20.121445
 30
0.0
 11
-308.860352
 21
20.221451
 31
0.0
  0
LINE
  5
134
330
22
100
AcDbEntity
  8
0
 62
     4
100
AcDbLine
 10
-306.610352
 20
20.121445
 30
0.0
 11
-306.610352
 21
20.221451
 31
0.0
  0
LINE
  5
135
330
22
100
AcDbEntity
  8
0
 62
     4
100
AcDbLine
 10
-309.110352
 20
20.121445
 30
0.0
 11
-309.110352
 21
20.221451
 31
0.0
  0
LINE
  5
136
330
22
100
AcDbEntity
  8
0
 62
     4
100
AcDbLine
 10
-309.110352
 20
20.921448
 30
0.0
 11
-309.110352
 21
22.651443
 31
0.0
  0
LINE
  5
137
330
22
100
AcDbEntity
  8
0
 62
     1
100
AcDbLine
 10
-306.860352
 20
20.921448
 30
0.0
 11
-306.860352
 21
22.901443
 31
0.0
  0
LINE
  5
138
330
22
100
AcDbEntity
  8
0
 62
     4
100
AcDbLine
 10
-306.610352
 20
20.921448
 30
0.0
 11
-306.610352
 21
22.651443
 31
0.0
  0
LINE
  5
139
330
22
100
AcDbEntity
  8
0
 62
     4
100
AcDbLine
 10
-309.910339
 20
19.421457
 30
0.0
 11
-309.360352
 21
18.871452
 31
0.0
  0
LINE
  5
13A
330
22
100
AcDbEntity
  8
0
 62
     4
100
AcDbLine
 10
-305.810333
 20
19.421452
 30
0.0
 11
-306.360352
 21
18.871449
 31
0.0
  0
LINE
  5
13B
330
22
100
AcDbEntity
  8
0
 62
     4
100
AcDbLine
 10
-315.110352
 20
20.921448
 30
0.0
 11
-315.110352
 21
22.651443
 31
0.0
  0
LINE
  5
13C
330
22
100
AcDbEntity
  8
0
 62
     1
100
AcDbLine
 10
-314.860352
 20
20.921448
 30
0.0
 11
-314.860352
 21
22.901443
 31
0.0
  0
LINE
  5
13D
330
22
100
AcDbEntity
  8
0
 62
     1
100
AcDbLine
 10
-312.860352
 20
20.921448
 30
0.0
 11
-312.860352
 21
22.901443
 31
0.0
  0
LINE
  5
13E
330
22
100
AcDbEntity
  8
0
 62
     4
100
AcDbLine
 10
-312.610352
 20
20.921448
 30
0.0
 11
-312.610352
 21
22.651443
 31
0.0
  0
LINE
  5
13F
330
22
100
AcDbEntity
  8
0
 62
     4
100
AcDbLine
 10
-315.910339
 20
19.421455
 30
0.0
 11
-315.360352
 21
18.87146
 31
0.0
  0
LINE
  5
140
330
22
100
AcDbEntity
  8
0
 62
     4
100
AcDbLine
 10
-311.810364
 20
19.421453
 30
0.0
 11
-312.360352
 21
18.871458
 31
0.0
  0
LINE
  5
141
330
22
100
AcDbEntity
  8
0
100
AcDbLine
 10
-308.210358
 20
86.911453
 30
0.0
 11
-308.210358
 21
72.98144499999998
 31
0.0
  0
LINE
  5
142
330
22
100
AcDbEntity
  8
0
100
AcDbLine
 10
-309.510376
 20
86.911453
 30
0.0
 11
-309.510376
 21
72.98144499999998
 31
0.0
  0
LINE
  5
143
330
22
100
AcDbEntity
  8
0
100
AcDbLine
 10
-332.860352
 20
148.461441
 30
0.0
 11
-294.860352
 21
148.461441
 31
0.0
  0
LINE
  5
144
330
22
100
AcDbEntity
  8
0
100
AcDbLine
 10
-294.860352
 20
148.461441
 30
0.0
 11
-294.860352
 21
18.451447
 31
0.0
  0
LINE
  5
145
330
22
100
AcDbEntity
  8
0
  6
CENTER
 62
     2
100
AcDbLine
 10
-308.860352
 20
90.851456
 30
0.0
 11
-308.860352
 21
68.951447
 31
0.0
  0
LINE
  5
146
330
22
100
AcDbEntity
  8
0
  6
CENTER
 62
     2
100
AcDbLine
 10
-322.860352
 20
91.151443
 30
0.0
 11
-314.860352
 21
91.151443
 31
0.0
  0
LINE
  5
147
330
22
100
AcDbEntity
  8
0
  6
CENTER
 62
     2
100
AcDbLine
 10
-325.860352
 20
92.451447
 30
0.0
 11
-311.860352
 21
92.451447
 31
0.0
  0
LINE
  5
148
330
22
100
AcDbEntity
  8
0
  6
CENTER
 62
     2
100
AcDbLine
 10
-318.860352
 20
99.46144099999999
 30
0.0
 11
-318.860352
 21
84.10145599999998
 31
0.0
  0
LINE
  5
149
330
22
100
AcDbEntity
  8
0
100
AcDbLine
 10
-315.460358
 20
18.451447
 30
0.0
 11
-332.860352
 21
18.451447
 31
0.0
  0
LINE
  5
14A
330
22
100
AcDbEntity
  8
0
100
AcDbLine
 10
-309.960358
 20
19.451447
 30
0.0
 11
-309.960358
 21
21.051453
 31
0.0
  0
LINE
  5
14B
330
22
100
AcDbEntity
  8
0
100
AcDbLine
 10
-309.960358
 20
19.451441
 30
0.0
 11
-309.460358
 21
18.951439
 31
0.0
  0
LINE
  5
14C
330
22
100
AcDbEntity
  8
0
100
AcDbLine
 10
-309.460358
 20
18.951447
 30
0.0
 11
-309.460358
 21
18.451447
 31
0.0
  0
LINE
  5
14D
330
22
100
AcDbEntity
  8
0
100
AcDbLine
 10
-306.260376
 20
18.951447
 30
0.0
 11
-306.260376
 21
18.451447
 31
0.0
  0
LINE
  5
14E
330
22
100
AcDbEntity
  8
0
100
AcDbLine
 10
-305.760345
 20
19.45145
 30
0.0
 11
-306.2603450000001
 21
18.951448
 31
0.0
  0
LINE
  5
14F
330
22
100
AcDbEntity
  8
0
100
AcDbLine
 10
-305.760376
 20
19.451447
 30
0.0
 11
-305.760376
 21
21.051453
 31
0.0
  0
LINE
  5
150
330
22
100
AcDbEntity
  8
0
  6
CENTER
 62
     1
100
AcDbLine
 10
-307.860352
 20
27.311447
 30
0.0
 11
-307.860352
 21
17.25145
 31
0.0
  0
LINE
  5
151
330
22
100
AcDbEntity
  8
0
100
AcDbLine
 10
-319.360352
 20
23.951447
 30
0.0
 11
-319.360352
 21
18.451447
 31
0.0
  0
LINE
  5
152
330
22
100
AcDbEntity
  8
0
100
AcDbLine
 10
-315.460358
 20
18.951447
 30
0.0
 11
-315.460358
 21
18.451447
 31
0.0
  0
LINE
  5
153
330
22
100
AcDbEntity
  8
0
100
AcDbLine
 10
-315.960358
 20
19.451452
 30
0.0
 11
-315.460358
 21
18.951441
 31
0.0
  0
LINE
  5
154
330
22
100
AcDbEntity
  8
0
100
AcDbLine
 10
-315.960358
 20
19.451447
 30
0.0
 11
-317.460358
 21
19.451447
 31
0.0
  0
LINE
  5
155
330
22
100
AcDbEntity
  8
0
100
AcDbLine
 10
-317.460358
 20
22.25145
 30
0.0
 11
-315.590363
 21
22.25145
 31
0.0
  0
LINE
  5
156
330
22
100
AcDbEntity
  8
0
100
AcDbLine
 10
-311.760376
 20
19.451447
 30
0.0
 11
-311.760376
 21
21.051453
 31
0.0
  0
LINE
  5
157
330
22
100
AcDbEntity
  8
0
100
AcDbLine
 10
-311.760345
 20
19.451448
 30
0.0
 11
-312.260345
 21
18.951447
 31
0.0
  0
LINE
  5
158
330
22
100
AcDbEntity
  8
0
100
AcDbLine
 10
-312.260376
 20
18.951447
 30
0.0
 11
-312.260376
 21
18.451447
 31
0.0
  0
LINE
  5
159
330
22
100
AcDbEntity
  8
0
  6
CENTER
 62
     1
100
AcDbLine
 10
-313.860352
 20
27.311447
 30
0.0
 11
-313.860352
 21
17.25145
 31
0.0
  0
LINE
  5
15A
330
22
100
AcDbEntity
  8
0
  6
CENTER
 62
     2
100
AcDbLine
 10
-312.860352
 20
128.9614409999999
 30
0.0
 11
-312.860352
 21
110.561447
 31
0.0
  0
LINE
  5
15B
330
22
100
AcDbEntity
  8
0
  6
CENTER
 62
     2
100
AcDbLine
 10
-320.360352
 20
121.461441
 30
0.0
 11
-305.360352
 21
121.461441
 31
0.0
  0
LINE
  5
15C
330
22
100
AcDbEntity
  8
0
  6
CENTER
 62
     2
100
AcDbLine
 10
-320.860352
 20
79.951447
 30
0.0
 11
-294.240356
 21
79.951447
 31
0.0
  0
LINE
  5
15D
330
22
100
AcDbEntity
  8
0
100
AcDbLine
 10
-305.360352
 20
23.951447
 30
0.0
 11
-319.360352
 21
23.951447
 31
0.0
  0
LINE
  5
15E
330
22
100
AcDbEntity
  8
0
100
AcDbLine
 10
-305.360352
 20
23.951447
 30
0.0
 11
-305.360352
 21
18.451447
 31
0.0
  0
LINE
  5
15F
330
22
100
AcDbEntity
  8
0
100
AcDbLine
 10
-309.460358
 20
18.451447
 30
0.0
 11
-312.260376
 21
18.451447
 31
0.0
  0
LINE
  5
160
330
22
100
AcDbEntity
  8
0
100
AcDbLine
 10
-292.860352
 20
112.461441
 30
0.0
 11
-294.860352
 21
112.461441
 31
0.0
  0
LINE
  5
161
330
22
100
AcDbEntity
  8
0
100
AcDbLine
 10
-292.860352
 20
18.451447
 30
0.0
 11
-306.260376
 21
18.451447
 31
0.0
  0
LINE
  5
162
330
22
100
AcDbEntity
  8
0
100
AcDbLine
 10
-292.860352
 20
112.461441
 30
0.0
 11
-292.860352
 21
18.451447
 31
0.0
  0
LINE
  5
163
330
22
100
AcDbEntity
  8
0
100
AcDbLine
 10
-332.860352
 20
148.461441
 30
0.0
 11
-332.860352
 21
18.451447
 31
0.0
  0
LINE
  5
164
330
22
100
AcDbEntity
  8
0
  6
DASHED
 62
     2
100
AcDbLine
 10
-324.360352
 20
91.70144699999999
 30
0.0
 11
-329.860352
 21
91.70144699999999
 31
0.0
  0
LINE
  5
165
330
22
100
AcDbEntity
  8
0
  6
DASHED
 62
     2
100
AcDbLine
 10
-324.360352
 20
81.201447
 30
0.0
 11
-329.860352
 21
81.201447
 31
0.0
  0
LINE
  5
166
330
22
100
AcDbEntity
  8
0
  6
DASHED
 62
     2
100
AcDbLine
 10
-329.860352
 20
89.701447
 30
0.0
 11
-332.860352
 21
89.701447
 31
0.0
  0
LINE
  5
167
330
22
100
AcDbEntity
  8
0
  6
CENTER
 62
     2
100
AcDbLine
 10
-321.030365
 20
86.45144700000001
 30
0.0
 11
-335.760345
 21
86.45144700000001
 31
0.0
  0
LINE
  5
168
330
22
100
AcDbEntity
  8
0
  6
DASHED
 62
     2
100
AcDbLine
 10
-329.860352
 20
83.201447
 30
0.0
 11
-332.860352
 21
83.201447
 31
0.0
  0
LINE
  5
169
330
22
100
AcDbEntity
  8
0
  6
DASHED
 62
     2
100
AcDbLine
 10
-329.860352
 20
91.70144699999999
 30
0.0
 11
-329.860352
 21
81.201447
 31
0.0
  0
LINE
  5
16A
330
22
100
AcDbEntity
  8
0
  6
DASHED
 62
     2
100
AcDbLine
 10
-332.360352
 20
75.951447
 30
0.0
 11
-332.360352
 21
44.95144699999999
 31
0.0
  0
LINE
  5
16B
330
22
100
AcDbEntity
  8
0
  6
CENTER
 62
     2
100
AcDbLine
 10
-321.370361
 20
34.451447
 30
0.0
 11
-336.270355
 21
34.451447
 31
0.0
  0
LINE
  5
16C
330
22
100
AcDbEntity
  8
0
  6
DASHED
 62
     2
100
AcDbLine
 10
-329.860352
 20
37.70144699999999
 30
0.0
 11
-332.860352
 21
37.70144699999999
 31
0.0
  0
LINE
  5
16D
330
22
100
AcDbEntity
  8
0
  6
DASHED
 62
     2
100
AcDbLine
 10
-329.860352
 20
31.201447
 30
0.0
 11
-332.860352
 21
31.201447
 31
0.0
  0
LINE
  5
16E
330
22
100
AcDbEntity
  8
0
  6
DASHED
 62
     2
100
AcDbLine
 10
-329.860352
 20
39.701447
 30
0.0
 11
-329.860352
 21
29.201447
 31
0.0
  0
LINE
  5
16F
330
22
100
AcDbEntity
  8
0
  6
DASHED
 62
     2
100
AcDbLine
 10
-324.360352
 20
29.201447
 30
0.0
 11
-329.860352
 21
29.201447
 31
0.0
  0
LINE
  5
170
330
22
100
AcDbEntity
  8
0
  6
DASHED
 62
     2
100
AcDbLine
 10
-324.360352
 20
29.201447
 30
0.0
 11
-324.360352
 21
31.201447
 31
0.0
  0
LINE
  5
171
330
22
100
AcDbEntity
  8
0
  6
DASHED
 62
     2
100
AcDbLine
 10
-323.360352
 20
31.201447
 30
0.0
 11
-324.360352
 21
31.201447
 31
0.0
  0
LINE
  5
172
330
22
100
AcDbEntity
  8
0
  6
DASHED
 62
     2
100
AcDbLine
 10
-323.360352
 20
31.201447
 30
0.0
 11
-323.360352
 21
37.70144699999999
 31
0.0
  0
LINE
  5
173
330
22
100
AcDbEntity
  8
0
  6
DASHED
 62
     2
100
AcDbLine
 10
-323.360352
 20
37.70144699999999
 30
0.0
 11
-324.360352
 21
37.70144699999999
 31
0.0
  0
LINE
  5
174
330
22
100
AcDbEntity
  8
0
  6
DASHED
 62
     2
100
AcDbLine
 10
-324.360352
 20
37.70144699999999
 30
0.0
 11
-324.360352
 21
39.701447
 31
0.0
  0
LINE
  5
175
330
22
100
AcDbEntity
  8
0
  6
DASHED
 62
     2
100
AcDbLine
 10
-324.360352
 20
39.701447
 30
0.0
 11
-329.860352
 21
39.701447
 31
0.0
  0
LINE
  5
176
330
22
100
AcDbEntity
  8
0
  6
DASHED
 62
     2
100
AcDbLine
 10
-332.860352
 20
44.45146199999999
 30
0.0
 11
-332.360352
 21
44.95146199999999
 31
0.0
  0
LINE
  5
177
330
22
100
AcDbEntity
  8
0
  6
DASHED
 62
     2
100
AcDbLine
 10
-325.0103450000001
 20
29.201447
 30
0.0
 11
-325.0103450000001
 21
39.701447
 31
0.0
  0
LINE
  5
178
330
22
100
AcDbEntity
  8
0
  6
DASHED
 62
     2
100
AcDbLine
 10
-325.0103450000001
 20
81.201447
 30
0.0
 11
-325.0103450000001
 21
91.70144699999999
 31
0.0
  0
LINE
  5
179
330
22
100
AcDbEntity
  8
0
  6
DASHED
 62
     2
100
AcDbLine
 10
-324.360352
 20
89.701447
 30
0.0
 11
-324.360352
 21
91.70144699999999
 31
0.0
  0
LINE
  5
17A
330
22
100
AcDbEntity
  8
0
  6
DASHED
 62
     2
100
AcDbLine
 10
-323.360352
 20
89.701447
 30
0.0
 11
-324.360352
 21
89.701447
 31
0.0
  0
LINE
  5
17B
330
22
100
AcDbEntity
  8
0
  6
DASHED
 62
     2
100
AcDbLine
 10
-323.360352
 20
83.201447
 30
0.0
 11
-323.360352
 21
89.701447
 31
0.0
  0
LINE
  5
17C
330
22
100
AcDbEntity
  8
0
  6
DASHED
 62
     2
100
AcDbLine
 10
-324.360352
 20
81.201447
 30
0.0
 11
-324.360352
 21
83.201447
 31
0.0
  0
LINE
  5
17D
330
22
100
AcDbEntity
  8
0
  6
DASHED
 62
     2
100
AcDbLine
 10
-323.360352
 20
83.201447
 30
0.0
 11
-324.360352
 21
83.201447
 31
0.0
  0
LINE
  5
17E
330
22
100
AcDbEntity
  8
0
  6
DASHED
100
AcDbLine
 10
-332.860352
 20
76.451454
 30
0.0
 11
-332.360352
 21
75.951439
 31
0.0
  0
LINE
  5
17F
330
22
100
AcDbEntity
  8
0
  6
CENTER
 62
     2
100
AcDbLine
 10
-337.860352
 20
141.4614409999999
 30
0.0
 11
-327.860352
 21
141.4614409999999
 31
0.0
  0
LINE
  5
180
330
22
100
AcDbEntity
  8
0
 62
     4
100
AcDbLine
 10
-79.87052900000001
 20
92.451447
 30
0.0
 11
-79.87052900000001
 21
90.45144699999999
 31
0.0
  0
LINE
  5
181
330
22
100
AcDbEntity
  8
0
 62
     4
100
AcDbLine
 10
-85.87052900000001
 20
92.451447
 30
0.0
 11
-85.87052900000001
 21
90.45144699999999
 31
0.0
  0
LINE
  5
182
330
22
100
AcDbEntity
  8
0
  6
CENTER
 62
     1
100
AcDbLine
 10
-88.88052399999997
 20
92.451447
 30
0.0
 11
-77.09053
 21
92.451447
 31
0.0
  0
LINE
  5
183
330
22
100
AcDbEntity
  8
0
  6
CENTER
 62
     1
100
AcDbLine
 10
-88.810532
 20
90.45144699999999
 30
0.0
 11
-77.09053
 21
90.45144699999999
 31
0.0
  0
LINE
  5
184
330
22
100
AcDbEntity
  8
0
  6
CENTER
 62
     2
100
AcDbLine
 10
67.129471
 20
12.791443
 30
0.0
 11
67.129471
 21
143.074203
 31
0.0
  0
LINE
  5
185
330
22
100
AcDbEntity
  8
0
100
AcDbLine
 10
-48.870529
 20
132.1614379999999
 30
0.0
 11
168.129471
 21
132.1614379999999
 31
0.0
  0
LINE
  5
186
330
22
100
AcDbEntity
  8
0
100
AcDbLine
 10
-12.870529
 20
110.761444
 30
0.0
 11
168.129471
 21
110.761444
 31
0.0
  0
LINE
  5
187
330
22
100
AcDbEntity
  8
0
100
AcDbLine
 10
-183.860519
 20
97.96144099999999
 30
0.0
 11
-157.860519
 21
97.96144099999999
 31
0.0
  0
LINE
  5
188
330
22
100
AcDbEntity
  8
0
  6
CENTER
 62
     2
100
AcDbLine
 10
-200.290512
 20
121.461441
 30
0.0
 11
179.619461
 21
121.461441
 31
0.0
  0
LINE
  5
189
330
22
100
AcDbEntity
  8
0
100
AcDbLine
 10
-197.860519
 20
148.461441
 30
0.0
 11
-183.860519
 21
148.461441
 31
0.0
  0
LINE
  5
18A
330
22
100
AcDbEntity
  8
0
100
AcDbLine
 10
-48.870529
 20
139.4614409999999
 30
0.0
 11
-48.870529
 21
112.461441
 31
0.0
  0
LINE
  5
18B
330
22
100
AcDbEntity
  8
0
100
AcDbLine
 10
-116.870529
 20
139.4614409999999
 30
0.0
 11
-116.870529
 21
112.461441
 31
0.0
  0
LINE
  5
18C
330
22
100
AcDbEntity
  8
0
100
AcDbLine
 10
-116.870529
 20
139.4614409999999
 30
0.0
 11
-48.870529
 21
139.4614409999999
 31
0.0
  0
LINE
  5
18D
330
22
100
AcDbEntity
  8
0
100
AcDbLine
 10
96.12947099999999
 20
81.70144699999999
 30
0.0
 11
96.12947099999999
 21
78.201447
 31
0.0
  0
LINE
  5
18E
330
22
100
AcDbEntity
  8
0
100
AcDbLine
 10
96.12947099999999
 20
81.70144699999999
 30
0.0
 11
108.129471
 21
81.70144699999999
 31
0.0
  0
LINE
  5
18F
330
22
100
AcDbEntity
  8
0
100
AcDbLine
 10
96.12947099999999
 20
78.201447
 30
0.0
 11
108.129471
 21
78.201447
 31
0.0
  0
LINE
  5
190
330
22
100
AcDbEntity
  8
0
100
AcDbLine
 10
108.129471
 20
73.951447
 30
0.0
 11
112.629471
 21
73.951447
 31
0.0
  0
LINE
  5
191
330
22
100
AcDbEntity
  8
0
100
AcDbLine
 10
108.129471
 20
85.951447
 30
0.0
 11
112.629471
 21
85.951447
 31
0.0
  0
LINE
  5
192
330
22
100
AcDbEntity
  8
0
100
AcDbLine
 10
108.129471
 20
85.951447
 30
0.0
 11
108.129471
 21
73.951447
 31
0.0
  0
LINE
  5
193
330
22
100
AcDbEntity
  8
0
100
AcDbLine
 10
-12.870529
 20
95.961441
 30
0.0
 11
142.129471
 21
95.961441
 31
0.0
  0
LINE
  5
194
330
22
100
AcDbEntity
  8
0
100
AcDbLine
 10
-157.860519
 20
95.961441
 30
0.0
 11
-152.860519
 21
95.961441
 31
0.0
  0
LINE
  5
195
330
22
100
AcDbEntity
  8
0
100
AcDbLine
 10
142.129471
 20
97.96144099999999
 30
0.0
 11
168.129471
 21
97.96144099999999
 31
0.0
  0
LINE
  5
196
330
22
100
AcDbEntity
  8
0
100
AcDbLine
 10
-183.860519
 20
110.761444
 30
0.0
 11
-152.860519
 21
110.761444
 31
0.0
  0
LINE
  5
197
330
22
100
AcDbEntity
  8
0
100
AcDbLine
 10
-183.860519
 20
132.1614379999999
 30
0.0
 11
-116.870529
 21
132.1614379999999
 31
0.0
  0
LINE
  5
198
330
22
100
AcDbEntity
  8
0
100
AcDbLine
 10
168.129471
 20
148.461441
 30
0.0
 11
182.129471
 21
148.461441
 31
0.0
  0
LINE
  5
199
330
22
100
AcDbEntity
  8
0
100
AcDbLine
 10
-157.860519
 20
90.701447
 30
0.0
 11
-152.860519
 21
90.701447
 31
0.0
  0
LINE
  5
19A
330
22
100
AcDbEntity
  8
0
100
AcDbLine
 10
-157.860519
 20
71.201447
 30
0.0
 11
-152.860519
 21
71.201447
 31
0.0
  0
LINE
  5
19B
330
22
100
AcDbEntity
  8
0
100
AcDbLine
 10
-157.860519
 20
64.701447
 30
0.0
 11
-152.860519
 21
64.701447
 31
0.0
  0
LINE
  5
19C
330
22
100
AcDbEntity
  8
0
100
AcDbLine
 10
-157.860519
 20
60.95144699999998
 30
0.0
 11
-152.860519
 21
60.95144699999998
 31
0.0
  0
LINE
  5
19D
330
22
100
AcDbEntity
  8
0
100
AcDbLine
 10
142.129471
 20
71.201447
 30
0.0
 11
-12.870529
 21
71.201447
 31
0.0
  0
LINE
  5
19E
330
22
100
AcDbEntity
  8
0
100
AcDbLine
 10
142.129471
 20
64.701447
 30
0.0
 11
-12.870529
 21
64.701447
 31
0.0
  0
LINE
  5
19F
330
22
100
AcDbEntity
  8
0
100
AcDbLine
 10
142.129471
 20
60.95144699999998
 30
0.0
 11
-12.870529
 21
60.95144699999998
 31
0.0
  0
LINE
  5
1A0
330
22
100
AcDbEntity
  8
0
100
AcDbLine
 10
-12.870529
 20
87.70144700000001
 30
0.0
 11
103.429276
 21
87.70144700000001
 31
0.0
  0
LINE
  5
1A1
330
22
100
AcDbEntity
  8
0
100
AcDbLine
 10
112.629341
 20
73.95156899999998
 30
0.0
 11
113.62941
 21
72.95150799999998
 31
0.0
  0
LINE
  5
1A2
330
22
100
AcDbEntity
  8
0
100
AcDbLine
 10
112.629471
 20
85.95143099999999
 30
0.0
 11
113.629471
 21
86.95143100000001
 31
0.0
  0
LINE
  5
1A3
330
22
100
AcDbEntity
  8
0
100
AcDbLine
 10
113.629471
 20
72.951447
 30
0.0
 11
113.629471
 21
86.951447
 31
0.0
  0
LINE
  5
1A4
330
22
100
AcDbEntity
  8
0
100
AcDbLine
 10
112.629471
 20
85.951447
 30
0.0
 11
112.629471
 21
73.951447
 31
0.0
  0
LINE
  5
1A5
330
22
100
AcDbEntity
  8
0
100
AcDbLine
 10
142.129471
 20
72.951447
 30
0.0
 11
113.629471
 21
72.951447
 31
0.0
  0
LINE
  5
1A6
330
22
100
AcDbEntity
  8
0
 62
     2
100
AcDbLine
 10
142.129471
 20
73.951447
 30
0.0
 11
112.629471
 21
73.951447
 31
0.0
  0
LINE
  5
1A7
330
22
100
AcDbEntity
  8
0
 62
     2
100
AcDbLine
 10
142.129471
 20
85.951447
 30
0.0
 11
112.629471
 21
85.951447
 31
0.0
  0
LINE
  5
1A8
330
22
100
AcDbEntity
  8
0
100
AcDbLine
 10
142.129471
 20
86.951447
 30
0.0
 11
113.629471
 21
86.951447
 31
0.0
  0
LINE
  5
1A9
330
22
100
AcDbEntity
  8
0
100
AcDbLine
 10
-157.860519
 20
72.951447
 30
0.0
 11
-152.860519
 21
72.951447
 31
0.0
  0
LINE
  5
1AA
330
22
100
AcDbEntity
  8
0
 62
     2
100
AcDbLine
 10
-157.860519
 20
73.951447
 30
0.0
 11
-152.860519
 21
73.951447
 31
0.0
  0
LINE
  5
1AB
330
22
100
AcDbEntity
  8
0
 62
     2
100
AcDbLine
 10
-157.860519
 20
85.951447
 30
0.0
 11
-152.860519
 21
85.951447
 31
0.0
  0
LINE
  5
1AC
330
22
100
AcDbEntity
  8
0
100
AcDbLine
 10
-157.860519
 20
86.951447
 30
0.0
 11
-152.860519
 21
86.951447
 31
0.0
  0
LINE
  5
1AD
330
22
100
AcDbEntity
  8
0
  6
CENTER
 62
     2
100
AcDbLine
 10
86.337723
 20
79.951447
 30
0.0
 11
183.319412
 21
79.951447
 31
0.0
  0
LINE
  5
1AE
330
22
100
AcDbEntity
  8
0
  6
CENTER
 62
     2
100
AcDbLine
 10
-147.3605189999999
 20
25.451447
 30
0.0
 11
-18.370529
 21
25.451447
 31
0.0
  0
LINE
  5
1AF
330
22
100
AcDbEntity
  8
0
  6
CENTER
 62
     2
100
AcDbLine
 10
-22.870529
 20
29.951447
 30
0.0
 11
-22.870529
 21
20.951447
 31
0.0
  0
LINE
  5
1B0
330
22
100
AcDbEntity
  8
0
  6
CENTER
 62
     2
100
AcDbLine
 10
-142.870529
 20
29.951447
 30
0.0
 11
-142.870529
 21
20.951447
 31
0.0
  0
LINE
  5
1B1
330
22
100
AcDbEntity
  8
0
  6
CENTER
 62
     2
100
AcDbLine
 10
-147.3605189999999
 20
91.45144700000001
 30
0.0
 11
-18.370529
 21
91.45144700000001
 31
0.0
  0
LINE
  5
1B2
330
22
100
AcDbEntity
  8
0
  6
CENTER
 62
     2
100
AcDbLine
 10
-142.870529
 20
95.961441
 30
0.0
 11
-142.870529
 21
86.951447
 31
0.0
  0
LINE
  5
1B3
330
22
100
AcDbEntity
  8
0
100
AcDbLine
 10
-12.870529
 20
24.951447
 30
0.0
 11
168.129471
 21
24.951447
 31
0.0
  0
LINE
  5
1B4
330
22
100
AcDbEntity
  8
0
100
AcDbLine
 10
-183.860519
 20
24.951447
 30
0.0
 11
-152.860519
 21
24.951447
 31
0.0
  0
LINE
  5
1B5
330
22
100
AcDbEntity
  8
0
100
AcDbLine
 10
142.129471
 20
39.95144699999999
 30
0.0
 11
-12.870529
 21
39.95144699999999
 31
0.0
  0
LINE
  5
1B6
330
22
100
AcDbEntity
  8
0
100
AcDbLine
 10
142.129471
 20
59.95144699999999
 30
0.0
 11
-12.870529
 21
59.95144699999999
 31
0.0
  0
LINE
  5
1B7
330
22
100
AcDbEntity
  8
0
100
AcDbLine
 10
-157.860519
 20
39.95144699999999
 30
0.0
 11
-152.860519
 21
39.95144699999999
 31
0.0
  0
LINE
  5
1B8
330
22
100
AcDbEntity
  8
0
100
AcDbLine
 10
-157.860519
 20
59.95144699999999
 30
0.0
 11
-152.860519
 21
59.95144699999999
 31
0.0
  0
LINE
  5
1B9
330
22
100
AcDbEntity
  8
0
100
AcDbLine
 10
168.129471
 20
85.951447
 30
0.0
 11
142.129471
 21
85.951447
 31
0.0
  0
LINE
  5
1BA
330
22
100
AcDbEntity
  8
0
  6
CENTER
 62
     2
100
AcDbLine
 10
182.629471
 20
141.4614409999999
 30
0.0
 11
167.629471
 21
141.4614409999999
 31
0.0
  0
LINE
  5
1BB
330
22
100
AcDbEntity
  8
0
  6
CENTER
 62
     2
100
AcDbLine
 10
182.629471
 20
37.45144699999999
 30
0.0
 11
167.629471
 21
37.45144699999999
 31
0.0
  0
LINE
  5
1BC
330
22
100
AcDbEntity
  8
0
  6
CENTER
 62
     2
100
AcDbLine
 10
175.129471
 20
44.95144699999999
 30
0.0
 11
175.129471
 21
29.951447
 31
0.0
  0
LINE
  5
1BD
330
22
100
AcDbEntity
  8
0
  6
CENTER
 62
     2
100
AcDbLine
 10
175.129471
 20
147.9614409999999
 30
0.0
 11
175.129471
 21
132.961441
 31
0.0
  0
LINE
  5
1BE
330
22
100
AcDbEntity
  8
0
100
AcDbLine
 10
-183.860519
 20
85.951447
 30
0.0
 11
-157.860519
 21
85.951447
 31
0.0
  0
LINE
  5
1BF
330
22
100
AcDbEntity
  8
0
  6
CENTER
 62
     2
100
AcDbLine
 10
-190.860519
 20
44.95144699999999
 30
0.0
 11
-190.860519
 21
29.951447
 31
0.0
  0
LINE
  5
1C0
330
22
100
AcDbEntity
  8
0
  6
CENTER
 62
     2
100
AcDbLine
 10
-198.360519
 20
37.45144699999999
 30
0.0
 11
-183.360519
 21
37.45144699999999
 31
0.0
  0
LINE
  5
1C1
330
22
100
AcDbEntity
  8
0
  6
CENTER
 62
     2
100
AcDbLine
 10
-190.860519
 20
148.9614409999999
 30
0.0
 11
-190.860519
 21
133.961441
 31
0.0
  0
LINE
  5
1C2
330
22
100
AcDbEntity
  8
0
  6
CENTER
 62
     2
100
AcDbLine
 10
-198.360519
 20
141.4614409999999
 30
0.0
 11
-183.360519
 21
141.4614409999999
 31
0.0
  0
LINE
  5
1C3
330
22
100
AcDbEntity
  8
0
  6
CENTER
 62
     2
100
AcDbLine
 10
-22.870529
 20
95.961441
 30
0.0
 11
-22.870529
 21
86.951447
 31
0.0
  0
LINE
  5
1C4
330
22
100
AcDbEntity
  8
0
100
AcDbLine
 10
-183.860519
 20
18.451447
 30
0.0
 11
-183.860519
 21
148.461441
 31
0.0
  0
LINE
  5
1C5
330
22
100
AcDbEntity
  8
0
100
AcDbLine
 10
-183.860519
 20
34.95144699999999
 30
0.0
 11
-157.860519
 21
34.95144699999999
 31
0.0
  0
LINE
  5
1C6
330
22
100
AcDbEntity
  8
0
100
AcDbLine
 10
142.129471
 20
34.95144699999999
 30
0.0
 11
168.129471
 21
34.95144699999999
 31
0.0
  0
LINE
  5
1C7
330
22
100
AcDbEntity
  8
0
100
AcDbLine
 10
-157.860519
 20
34.95144699999999
 30
0.0
 11
-157.860519
 21
97.96144099999999
 31
0.0
  0
LINE
  5
1C8
330
22
100
AcDbEntity
  8
0
100
AcDbLine
 10
-152.860519
 20
112.461441
 30
0.0
 11
-12.870529
 21
112.461441
 31
0.0
  0
LINE
  5
1C9
330
22
100
AcDbEntity
  8
0
100
AcDbLine
 10
-12.870529
 20
18.451447
 30
0.0
 11
-12.870529
 21
112.461441
 31
0.0
  0
LINE
  5
1CA
330
22
100
AcDbEntity
  8
0
100
AcDbLine
 10
-152.860519
 20
18.451447
 30
0.0
 11
-152.860519
 21
112.461441
 31
0.0
  0
LINE
  5
1CB
330
22
100
AcDbEntity
  8
0
  6
CENTER
 62
     2
100
AcDbLine
 10
-82.870529
 20
12.791443
 30
0.0
 11
-82.870529
 21
143.971436
 31
0.0
  0
LINE
  5
1CC
330
22
100
AcDbEntity
  8
0
100
AcDbLine
 10
168.129471
 20
18.451447
 30
0.0
 11
168.129471
 21
148.461441
 31
0.0
  0
LINE
  5
1CD
330
22
100
AcDbEntity
  8
0
100
AcDbLine
 10
142.129471
 20
34.95144699999999
 30
0.0
 11
142.129471
 21
97.96144099999999
 31
0.0
  0
LINE
  5
1CE
330
22
100
AcDbEntity
  8
0
100
AcDbLine
 10
182.129471
 20
18.451447
 30
0.0
 11
182.129471
 21
148.461441
 31
0.0
  0
LINE
  5
1CF
330
22
100
AcDbEntity
  8
0
100
AcDbLine
 10
-197.860519
 20
18.451447
 30
0.0
 11
-197.860519
 21
148.461441
 31
0.0
  0
LINE
  5
1D0
330
22
100
AcDbEntity
  8
0
100
AcDbLine
 10
-197.860519
 20
18.451447
 30
0.0
 11
182.129471
 21
18.451447
 31
0.0
  0
LINE
  5
1D1
330
22
100
AcDbEntity
  8
0
100
AcDbLine
 10
-179.360519
 20
69.39482099999999
 30
0.0
 11
-179.360519
 21
66.508072
 31
0.0
  0
LINE
  5
1D2
330
22
100
AcDbEntity
  8
0
100
AcDbLine
 10
-174.360519
 20
69.39482099999999
 30
0.0
 11
-174.360519
 21
66.508072
 31
0.0
  0
LINE
  5
1D3
330
22
100
AcDbEntity
  8
0
100
AcDbLine
 10
-179.360519
 20
69.39483599999999
 30
0.0
 11
-176.860519
 21
70.838211
 31
0.0
  0
LINE
  5
1D4
330
22
100
AcDbEntity
  8
0
100
AcDbLine
 10
-176.860519
 20
65.064705
 30
0.0
 11
-174.360519
 21
66.50808000000001
 31
0.0
  0
LINE
  5
1D5
330
22
100
AcDbEntity
  8
0
100
AcDbLine
 10
-176.860519
 20
70.83819599999998
 30
0.0
 11
-174.360519
 21
69.39482099999999
 31
0.0
  0
LINE
  5
1D6
330
22
100
AcDbEntity
  8
0
100
AcDbLine
 10
-179.360519
 20
66.508064
 30
0.0
 11
-176.860519
 21
65.06469
 31
0.0
  0
LINE
  5
1D7
330
22
100
AcDbEntity
  8
0
100
AcDbLine
 10
-167.360519
 20
69.39482099999999
 30
0.0
 11
-167.360519
 21
66.508072
 31
0.0
  0
LINE
  5
1D8
330
22
100
AcDbEntity
  8
0
100
AcDbLine
 10
-162.360519
 20
69.39482099999999
 30
0.0
 11
-162.360519
 21
66.508072
 31
0.0
  0
LINE
  5
1D9
330
22
100
AcDbEntity
  8
0
100
AcDbLine
 10
-167.360535
 20
69.39483599999999
 30
0.0
 11
-164.860535
 21
70.838211
 31
0.0
  0
LINE
  5
1DA
330
22
100
AcDbEntity
  8
0
100
AcDbLine
 10
-164.860535
 20
65.064705
 30
0.0
 11
-162.360535
 21
66.50808000000001
 31
0.0
  0
LINE
  5
1DB
330
22
100
AcDbEntity
  8
0
100
AcDbLine
 10
-164.860519
 20
70.83819599999998
 30
0.0
 11
-162.360519
 21
69.39482099999999
 31
0.0
  0
LINE
  5
1DC
330
22
100
AcDbEntity
  8
0
100
AcDbLine
 10
-167.360519
 20
66.508072
 30
0.0
 11
-164.860519
 21
65.064697
 31
0.0
  0
LINE
  5
1DD
330
22
100
AcDbEntity
  8
0
100
AcDbLine
 10
-173.860519
 20
93.39482099999999
 30
0.0
 11
-173.860519
 21
90.50807199999999
 31
0.0
  0
LINE
  5
1DE
330
22
100
AcDbEntity
  8
0
100
AcDbLine
 10
-168.860519
 20
93.39482099999999
 30
0.0
 11
-168.860519
 21
90.50807199999999
 31
0.0
  0
LINE
  5
1DF
330
22
100
AcDbEntity
  8
0
100
AcDbLine
 10
-173.860519
 20
93.394829
 30
0.0
 11
-171.360519
 21
94.838196
 31
0.0
  0
LINE
  5
1E0
330
22
100
AcDbEntity
  8
0
100
AcDbLine
 10
-171.360519
 20
89.064697
 30
0.0
 11
-168.860519
 21
90.50807199999999
 31
0.0
  0
LINE
  5
1E1
330
22
100
AcDbEntity
  8
0
100
AcDbLine
 10
-171.360519
 20
94.838196
 30
0.0
 11
-168.860519
 21
93.394829
 31
0.0
  0
LINE
  5
1E2
330
22
100
AcDbEntity
  8
0
100
AcDbLine
 10
-173.860519
 20
90.50808000000001
 30
0.0
 11
-171.360519
 21
89.06470500000002
 31
0.0
  0
LINE
  5
1E3
330
22
100
AcDbEntity
  8
0
100
AcDbLine
 10
153.129471
 20
93.39482099999999
 30
0.0
 11
153.129471
 21
90.50807199999999
 31
0.0
  0
LINE
  5
1E4
330
22
100
AcDbEntity
  8
0
100
AcDbLine
 10
158.129471
 20
93.39482099999999
 30
0.0
 11
158.129471
 21
90.50807199999999
 31
0.0
  0
LINE
  5
1E5
330
22
100
AcDbEntity
  8
0
100
AcDbLine
 10
153.129318
 20
93.394737
 30
0.0
 11
155.629288
 21
94.838097
 31
0.0
  0
LINE
  5
1E6
330
22
100
AcDbEntity
  8
0
100
AcDbLine
 10
155.629318
 20
89.064606
 30
0.0
 11
158.129288
 21
90.507957
 31
0.0
  0
LINE
  5
1E7
330
22
100
AcDbEntity
  8
0
100
AcDbLine
 10
155.629349
 20
94.83828
 30
0.0
 11
158.129318
 21
93.39491999999999
 31
0.0
  0
LINE
  5
1E8
330
22
100
AcDbEntity
  8
0
100
AcDbLine
 10
153.129349
 20
90.50815599999999
 30
0.0
 11
155.629318
 21
89.064796
 31
0.0
  0
LINE
  5
1E9
330
22
100
AcDbEntity
  8
0
100
AcDbLine
 10
146.629471
 20
69.39482099999999
 30
0.0
 11
146.629471
 21
66.508072
 31
0.0
  0
LINE
  5
1EA
330
22
100
AcDbEntity
  8
0
100
AcDbLine
 10
151.629471
 20
69.39482099999999
 30
0.0
 11
151.629471
 21
66.508072
 31
0.0
  0
LINE
  5
1EB
330
22
100
AcDbEntity
  8
0
100
AcDbLine
 10
146.629333
 20
69.394745
 30
0.0
 11
149.129303
 21
70.83809699999997
 31
0.0
  0
LINE
  5
1EC
330
22
100
AcDbEntity
  8
0
100
AcDbLine
 10
149.129333
 20
65.06461299999999
 30
0.0
 11
151.629303
 21
66.50797299999999
 31
0.0
  0
LINE
  5
1ED
330
22
100
AcDbEntity
  8
0
100
AcDbLine
 10
149.129349
 20
70.838257
 30
0.0
 11
151.629318
 21
69.39490500000001
 31
0.0
  0
LINE
  5
1EE
330
22
100
AcDbEntity
  8
0
100
AcDbLine
 10
146.629349
 20
66.508133
 30
0.0
 11
149.1293179999999
 21
65.064774
 31
0.0
  0
LINE
  5
1EF
330
22
100
AcDbEntity
  8
0
100
AcDbLine
 10
158.629471
 20
69.39482099999999
 30
0.0
 11
158.629471
 21
66.508072
 31
0.0
  0
LINE
  5
1F0
330
22
100
AcDbEntity
  8
0
100
AcDbLine
 10
163.629471
 20
69.39482099999999
 30
0.0
 11
163.629471
 21
66.508072
 31
0.0
  0
LINE
  5
1F1
330
22
100
AcDbEntity
  8
0
100
AcDbLine
 10
158.629349
 20
69.39475300000001
 30
0.0
 11
161.129333
 21
70.83811199999998
 31
0.0
  0
LINE
  5
1F2
330
22
100
AcDbEntity
  8
0
100
AcDbLine
 10
161.129349
 20
65.06462900000001
 30
0.0
 11
163.629333
 21
66.50798
 31
0.0
  0
LINE
  5
1F3
330
22
100
AcDbEntity
  8
0
100
AcDbLine
 10
161.129379
 20
70.838257
 30
0.0
 11
163.629349
 21
69.39489
 31
0.0
  0
LINE
  5
1F4
330
22
100
AcDbEntity
  8
0
100
AcDbLine
 10
158.629379
 20
66.50811800000001
 30
0.0
 11
161.129349
 21
65.064766
 31
0.0
  0
LINE
  5
1F5
330
22
100
AcDbEntity
  8
0
  6
PHANTOM
 62
     3
100
AcDbLine
 10
3.465713999999998
 20
-21.638977
 30
0.0
 11
3.465713999999998
 21
151.477615
 31
0.0
  0
LINE
  5
1F6
330
22
100
AcDbEntity
  8
0
100
AcDbLine
 10
-379.25
 20
-256.75
 30
0.0
 11
-67.25
 21
-256.75
 31
0.0
  0
LINE
  5
1F7
330
22
100
AcDbEntity
  8
0
100
AcDbLine
 10
-379.25
 20
-236.75
 30
0.0
 11
-67.25
 21
-236.75
 31
0.0
  0
LINE
  5
1F8
330
22
100
AcDbEntity
  8
0
100
AcDbLine
 10
-67.25
 20
-236.75
 30
0.0
 11
-67.25
 21
-256.75
 31
0.0
  0
LINE
  5
1F9
330
22
100
AcDbEntity
  8
0
100
AcDbLine
 10
-235.25
 20
-236.75
 30
0.0
 11
-235.25
 21
-256.75
 31
0.0
  0
LINE
  5
1FA
330
22
100
AcDbEntity
  8
0
100
AcDbLine
 10
-263.25
 20
-236.75
 30
0.0
 11
-263.25
 21
-256.75
 31
0.0
  0
LINE
  5
1FB
330
22
100
AcDbEntity
  8
0
100
AcDbLine
 10
-291.25
 20
-236.75
 30
0.0
 11
-291.25
 21
-256.75
 31
0.0
  0
LINE
  5
1FC
330
22
100
AcDbEntity
  8
0
100
AcDbLine
 10
-319.25
 20
-236.75
 30
0.0
 11
-319.25
 21
-256.75
 31
0.0
  0
LINE
  5
1FD
330
22
100
AcDbEntity
  8
0
100
AcDbLine
 10
-379.25
 20
-236.75
 30
0.0
 11
-379.25
 21
-256.75
 31
0.0
  0
LINE
  5
1FE
330
22
100
AcDbEntity
  8
0
100
AcDbLine
 10
-207.25
 20
-236.75
 30
0.0
 11
-207.25
 21
-256.75
 31
0.0
  0
LINE
  5
1FF
330
22
100
AcDbEntity
  8
0
100
AcDbLine
 10
-179.25
 20
-236.75
 30
0.0
 11
-179.25
 21
-256.75
 31
0.0
  0
LINE
  5
200
330
22
100
AcDbEntity
  8
0
100
AcDbLine
 10
-151.25
 20
-236.75
 30
0.0
 11
-151.25
 21
-256.75
 31
0.0
  0
LINE
  5
201
330
22
100
AcDbEntity
  8
0
100
AcDbLine
 10
-123.25
 20
-236.75
 30
0.0
 11
-123.25
 21
-256.75
 31
0.0
  0
LINE
  5
202
330
22
100
AcDbEntity
  8
0
100
AcDbLine
 10
-95.25
 20
-256.75
 30
0.0
 11
-95.25
 21
-236.75
 31
0.0
  0
LINE
  5
203
330
22
100
AcDbEntity
  8
0
100
AcDbLine
 10
-379.25
 20
-246.75
 30
0.0
 11
-67.25
 21
-246.75
 31
0.0
  0
LINE
  5
204
330
22
100
AcDbEntity
  8
0
100
AcDbLine
 10
-239.25
 20
276.25
 30
0.0
 11
-239.25
 21
251.25
 31
0.0
  0
LINE
  5
205
330
22
100
AcDbEntity
  8
0
100
AcDbLine
 10
239.799988
 20
251.25
 30
0.0
 11
239.799988
 21
276.25
 31
0.0
  0
LINE
  5
206
330
22
100
AcDbEntity
  8
0
100
AcDbLine
 10
239.799988
 20
-251.75
 30
0.0
 11
239.799988
 21
-276.75
 31
0.0
  0
LINE
  5
207
330
22
100
AcDbEntity
  8
0
100
AcDbLine
 10
-399.25
 20
251.25
 30
0.0
 11
-239.25
 21
251.25
 31
0.0
  0
LINE
  5
208
330
22
100
AcDbEntity
  8
0
100
AcDbLine
 10
239.799988
 20
251.25
 30
0.0
 11
399.799805
 21
251.25
 31
0.0
  0
LINE
  5
209
330
22
100
AcDbEntity
  8
0
100
AcDbLine
 10
239.799988
 20
-251.75
 30
0.0
 11
399.799805
 21
-251.75
 31
0.0
  0
LINE
  5
20A
330
22
100
AcDbEntity
  8
0
100
AcDbLine
 10
-399.25
 20
-276.75
 30
0.0
 11
399.799805
 21
-276.75
 31
0.0
  0
LINE
  5
20B
330
22
100
AcDbEntity
  8
0
100
AcDbLine
 10
-399.25
 20
276.25
 30
0.0
 11
399.799805
 21
276.25
 31
0.0
  0
LINE
  5
20C
330
22
100
AcDbEntity
  8
0
100
AcDbLine
 10
-399.25
 20
276.25
 30
0.0
 11
-399.25
 21
-276.75
 31
0.0
  0
LINE
  5
20D
330
22
100
AcDbEntity
  8
0
100
AcDbLine
 10
399.799805
 20
276.25
 30
0.0
 11
399.799805
 21
-276.75
 31
0.0
  0
CIRCLE
  5
20E
330
22
100
AcDbEntity
  8
0
 62
     4
100
AcDbCircle
 10
-79.865707
 20
-106.54451
 30
0.0
 40
1.5
  0
CIRCLE
  5
20F
330
22
100
AcDbEntity
  8
0
 62
     4
100
AcDbCircle
 10
17.134293
 20
-112.54451
 30
0.0
 40
1.5
  0
CIRCLE
  5
210
330
22
100
AcDbEntity
  8
0
100
AcDbCircle
 10
293.1266779999999
 20
79.95104999999998
 30
0.0
 40
7.0
  0
CIRCLE
  5
211
330
22
100
AcDbEntity
  8
0
 62
     2
100
AcDbCircle
 10
293.1266779999999
 20
79.95104999999998
 30
0.0
 40
6.25
  0
CIRCLE
  5
212
330
22
100
AcDbEntity
  8
0
100
AcDbCircle
 10
303.135376
 20
91.160843
 30
0.0
 40
2.5
  0
CIRCLE
  5
213
330
22
100
AcDbEntity
  8
0
100
AcDbCircle
 10
303.135376
 20
92.46084600000001
 30
0.0
 40
4.25
  0
CIRCLE
  5
214
330
22
100
AcDbEntity
  8
0
 62
     2
100
AcDbCircle
 10
303.135376
 20
92.46084600000001
 30
0.0
 40
5.0
  0
CIRCLE
  5
215
330
22
100
AcDbEntity
  8
0
100
AcDbCircle
 10
293.135376
 20
79.96084599999997
 30
0.0
 40
8.5
  0
CIRCLE
  5
216
330
22
100
AcDbEntity
  8
0
100
AcDbCircle
 10
297.1353759999999
 20
121.460861
 30
0.0
 40
4.25
  0
CIRCLE
  5
217
330
22
100
AcDbEntity
  8
0
 62
     2
100
AcDbCircle
 10
297.1353759999999
 20
121.460861
 30
0.0
 40
5.0
  0
ARC
  5
218
330
22
100
AcDbEntity
  8
0
100
AcDbCircle
 10
292.129395
 20
21.051453
 30
0.0
 40
2.100006
100
AcDbArc
 50
0.0
 51
179.999954
  0
ARC
  5
219
330
22
100
AcDbEntity
  8
0
100
AcDbCircle
 10
301.729401
 20
20.851456
 30
0.0
 40
1.399999999999999
100
AcDbArc
 50
270.0
 51
90.0
  0
ARC
  5
21A
330
22
100
AcDbEntity
  8
0
100
AcDbCircle
 10
298.126343
 20
21.056305
 30
0.0
 40
2.096970999999999
100
AcDbArc
 50
34.746006
 51
180.132584
  0
ARC
  5
21B
330
22
100
AcDbEntity
  8
0
 62
     4
100
AcDbCircle
 10
292.129395
 20
20.866776
 30
0.0
 40
2.049987999999999
100
AcDbArc
 50
0.0
 51
179.999954
  0
CIRCLE
  5
21C
330
22
100
AcDbEntity
  8
0
 62
     4
100
AcDbCircle
 10
292.129395
 20
21.121445
 30
0.0
 40
0.45
  0
CIRCLE
  5
21D
330
22
100
AcDbEntity
  8
0
 62
     4
100
AcDbCircle
 10
292.129395
 20
20.221451
 30
0.0
 40
0.45
  0
CIRCLE
  5
21E
330
22
100
AcDbEntity
  8
0
 62
     4
100
AcDbCircle
 10
292.129395
 20
20.671448
 30
0.0
 40
1.299998999999999
  0
CIRCLE
  5
21F
330
22
100
AcDbEntity
  8
0
 62
     4
100
AcDbCircle
 10
292.129395
 20
21.121445
 30
0.0
 40
0.25
  0
CIRCLE
  5
220
330
22
100
AcDbEntity
  8
0
 62
     4
100
AcDbCircle
 10
292.129395
 20
20.221451
 30
0.0
 40
0.25
  0
ARC
  5
221
330
22
100
AcDbEntity
  8
0
 62
     4
100
AcDbCircle
 10
298.129395
 20
20.866776
 30
0.0
 40
2.049987999999999
100
AcDbArc
 50
0.0
 51
179.999954
  0
CIRCLE
  5
222
330
22
100
AcDbEntity
  8
0
 62
     4
100
AcDbCircle
 10
298.129395
 20
21.121445
 30
0.0
 40
0.45
  0
CIRCLE
  5
223
330
22
100
AcDbEntity
  8
0
 62
     4
100
AcDbCircle
 10
298.129395
 20
20.221451
 30
0.0
 40
0.45
  0
CIRCLE
  5
224
330
22
100
AcDbEntity
  8
0
 62
     4
100
AcDbCircle
 10
298.129395
 20
20.671448
 30
0.0
 40
1.299998999999999
  0
CIRCLE
  5
225
330
22
100
AcDbEntity
  8
0
 62
     4
100
AcDbCircle
 10
298.129395
 20
21.121445
 30
0.0
 40
0.25
  0
CIRCLE
  5
226
330
22
100
AcDbEntity
  8
0
 62
     4
100
AcDbCircle
 10
298.129395
 20
20.221451
 30
0.0
 40
0.25
  0
ARC
  5
227
330
22
100
AcDbEntity
  8
0
 62
     4
100
AcDbCircle
 10
-315.764984
 20
20.82608
 30
0.0
 40
0.095482
100
AcDbArc
 50
87.21538499999999
 51
182.778961
  0
ARC
  5
228
330
22
100
AcDbEntity
  8
0
 62
     4
100
AcDbCircle
 10
-315.760803
 20
20.320999
 30
0.0
 40
0.099549
100
AcDbArc
 50
179.736526
 51
270.263489
  0
ARC
  5
229
330
22
100
AcDbEntity
  8
0
 62
     4
100
AcDbCircle
 10
-311.964996
 20
20.326096
 30
0.0
 40
0.104742
100
AcDbArc
 50
272.538269
 51
357.4618529999999
  0
ARC
  5
22A
330
22
100
AcDbEntity
  8
0
 62
     4
100
AcDbCircle
 10
-311.9610600000001
 20
20.82077
 30
0.0
 40
0.10068
100
AcDbArc
 50
0.385338
 51
89.61792
  0
ARC
  5
22B
330
22
100
AcDbEntity
  8
0
 62
     4
100
AcDbCircle
 10
-309.764984
 20
20.82608
 30
0.0
 40
0.095482
100
AcDbArc
 50
87.21538499999999
 51
182.778961
  0
ARC
  5
22C
330
22
100
AcDbEntity
  8
0
 62
     4
100
AcDbCircle
 10
-309.7608029999999
 20
20.320999
 30
0.0
 40
0.099549
100
AcDbArc
 50
179.736526
 51
270.263489
  0
ARC
  5
22D
330
22
100
AcDbEntity
  8
0
 62
     4
100
AcDbCircle
 10
-305.964996
 20
20.326096
 30
0.0
 40
0.104742
100
AcDbArc
 50
272.538269
 51
357.4618529999999
  0
ARC
  5
22E
330
22
100
AcDbEntity
  8
0
 62
     4
100
AcDbCircle
 10
-305.96106
 20
20.82077
 30
0.0
 40
0.10068
100
AcDbArc
 50
0.385338
 51
89.61792
  0
ARC
  5
22F
330
22
100
AcDbEntity
  8
0
 62
     4
100
AcDbCircle
 10
-307.861023
 20
20.866302
 30
0.0
 40
2.050695999999998
100
AcDbArc
 50
0.143938
 51
52.419106
  0
ARC
  5
230
330
22
100
AcDbEntity
  8
0
 62
     4
100
AcDbCircle
 10
-307.868042
 20
20.870438
 30
0.0
 40
2.042307
100
AcDbArc
 50
127.465767
 51
179.971527
  0
ARC
  5
231
330
22
100
AcDbEntity
  8
0
 62
     4
100
AcDbCircle
 10
-313.861023
 20
20.866302
 30
0.0
 40
2.050695999999998
100
AcDbArc
 50
0.143938
 51
52.419106
  0
ARC
  5
232
330
22
100
AcDbEntity
  8
0
 62
     4
100
AcDbCircle
 10
-313.868042
 20
20.870438
 30
0.0
 40
2.042307
100
AcDbArc
 50
127.465767
 51
179.971527
  0
CIRCLE
  5
233
330
22
100
AcDbEntity
  8
0
 62
     2
100
AcDbCircle
 10
-308.863098
 20
79.95104999999998
 30
0.0
 40
6.25
  0
CIRCLE
  5
234
330
22
100
AcDbEntity
  8
0
100
AcDbCircle
 10
-308.863098
 20
79.95104999999998
 30
0.0
 40
7.0
  0
CIRCLE
  5
235
330
22
100
AcDbEntity
  8
0
100
AcDbCircle
 10
-318.866333
 20
91.160843
 30
0.0
 40
2.5
  0
CIRCLE
  5
236
330
22
100
AcDbEntity
  8
0
100
AcDbCircle
 10
-318.866333
 20
92.46084600000001
 30
0.0
 40
4.25
  0
CIRCLE
  5
237
330
22
100
AcDbEntity
  8
0
 62
     2
100
AcDbCircle
 10
-318.866333
 20
92.46084600000001
 30
0.0
 40
5.0
  0
ARC
  5
238
330
22
100
AcDbEntity
  8
0
100
AcDbCircle
 10
-307.860352
 20
21.060852
 30
0.0
 40
2.100026999999998
100
AcDbArc
 50
359.743347
 51
180.256653
  0
ARC
  5
239
330
22
100
AcDbEntity
  8
0
100
AcDbCircle
 10
-317.466339
 20
20.851456
 30
0.0
 40
1.400012
100
AcDbArc
 50
89.75521099999998
 51
270.244781
  0
ARC
  5
23A
330
22
100
AcDbEntity
  8
0
100
AcDbCircle
 10
-313.860931
 20
21.059158
 30
0.0
 40
2.1006
100
AcDbArc
 50
359.789703
 51
145.417175
  0
CIRCLE
  5
23B
330
22
100
AcDbEntity
  8
0
100
AcDbCircle
 10
-308.866333
 20
79.96084599999997
 30
0.0
 40
8.5
  0
CIRCLE
  5
23C
330
22
100
AcDbEntity
  8
0
100
AcDbCircle
 10
-312.866333
 20
121.460861
 30
0.0
 40
4.25
  0
CIRCLE
  5
23D
330
22
100
AcDbEntity
  8
0
 62
     2
100
AcDbCircle
 10
-312.866333
 20
121.460861
 30
0.0
 40
5.0
  0
CIRCLE
  5
23E
330
22
100
AcDbEntity
  8
0
 62
     4
100
AcDbCircle
 10
-82.870529
 20
25.451447
 30
0.0
 40
3.0
  0
ARC
  5
23F
330
22
100
AcDbEntity
  8
0
 62
     4
100
AcDbCircle
 10
-82.870529
 20
90.45144699999999
 30
0.0
 40
3.0
100
AcDbArc
 50
180.0
 51
0.0
  0
ARC
  5
240
330
22
100
AcDbEntity
  8
0
 62
     4
100
AcDbCircle
 10
-82.870529
 20
92.451447
 30
0.0
 40
3.0
100
AcDbArc
 50
0.0
 51
180.0
  0
CIRCLE
  5
241
330
22
100
AcDbEntity
  8
0
100
AcDbCircle
 10
-171.366501
 20
91.96084599999997
 30
0.0
 40
5.0
  0
CIRCLE
  5
242
330
22
100
AcDbEntity
  8
0
100
AcDbCircle
 10
155.633377
 20
91.96084599999997
 30
0.0
 40
5.0
  0
CIRCLE
  5
243
330
22
100
AcDbEntity
  8
0
100
AcDbCircle
 10
-22.866516
 20
25.460846
 30
0.0
 40
2.349998999999999
  0
CIRCLE
  5
244
330
22
100
AcDbEntity
  8
0
 62
     2
100
AcDbCircle
 10
-22.866516
 20
25.460846
 30
0.0
 40
3.0
  0
CIRCLE
  5
245
330
22
100
AcDbEntity
  8
0
100
AcDbCircle
 10
-142.866516
 20
25.460846
 30
0.0
 40
2.349998999999999
  0
CIRCLE
  5
246
330
22
100
AcDbEntity
  8
0
 62
     2
100
AcDbCircle
 10
-142.866516
 20
25.460846
 30
0.0
 40
3.0
  0
CIRCLE
  5
248
330
22
100
AcDbEntity
  8
0
100
AcDbCircle
 10
175.133377
 20
37.460846
 30
0.0
 40
5.5
  0
CIRCLE
  5
24A
330
22
100
AcDbEntity
  8
0
100
AcDbCircle
 10
175.133377
 20
141.460861
 30
0.0
 40
5.5
  0
CIRCLE
  5
24B
330
22
100
AcDbEntity
  8
0
100
AcDbCircle
 10
161.133377
 20
67.96084599999999
 30
0.0
 40
5.5
  0
CIRCLE
  5
24C
330
22
100
AcDbEntity
  8
0
100
AcDbCircle
 10
149.133377
 20
67.96084599999999
 30
0.0
 40
5.5
  0
CIRCLE
  5
24D
330
22
100
AcDbEntity
  8
0
100
AcDbCircle
 10
-164.866501
 20
67.96084599999999
 30
0.0
 40
5.5
  0
CIRCLE
  5
24E
330
22
100
AcDbEntity
  8
0
100
AcDbCircle
 10
-176.866486
 20
67.96084599999999
 30
0.0
 40
5.5
  0
CIRCLE
  5
250
330
22
100
AcDbEntity
  8
0
100
AcDbCircle
 10
-190.866486
 20
37.460846
 30
0.0
 40
5.5
  0
CIRCLE
  5
251
330
22
100
AcDbEntity
  8
0
100
AcDbCircle
 10
-190.866486
 20
141.460861
 30
0.0
 40
5.5
  0
CIRCLE
  5
253
330
22
100
AcDbEntity
  8
0
100
AcDbCircle
 10
-142.866516
 20
91.460846
 30
0.0
 40
2.349998999999999
  0
CIRCLE
  5
254
330
22
100
AcDbEntity
  8
0
 62
     2
100
AcDbCircle
 10
-142.866516
 20
91.460846
 30
0.0
 40
3.0
  0
CIRCLE
  5
255
330
22
100
AcDbEntity
  8
0
100
AcDbCircle
 10
-22.866516
 20
91.460846
 30
0.0
 40
2.349998999999999
  0
CIRCLE
  5
256
330
22
100
AcDbEntity
  8
0
 62
     2
100
AcDbCircle
 10
-22.866516
 20
91.460846
 30
0.0
 40
3.0
  0
CIRCLE
  5
257
330
22
100
AcDbEntity
  8
0
100
AcDbCircle
 10
-176.860519
 20
67.951447
 30
0.0
 40
5.0
  0
CIRCLE
  5
258
330
22
100
AcDbEntity
  8
0
100
AcDbCircle
 10
-176.860519
 20
67.951447
 30
0.0
 40
4.307178999999998
  0
CIRCLE
  5
259
330
22
100
AcDbEntity
  8
0
100
AcDbCircle
 10
-164.860519
 20
67.951447
 30
0.0
 40
5.0
  0
CIRCLE
  5
25A
330
22
100
AcDbEntity
  8
0
100
AcDbCircle
 10
-164.860519
 20
67.951447
 30
0.0
 40
4.307178999999998
  0
CIRCLE
  5
25B
330
22
100
AcDbEntity
  8
0
100
AcDbCircle
 10
-171.360519
 20
91.951447
 30
0.0
 40
5.0
  0
CIRCLE
  5
25C
330
22
100
AcDbEntity
  8
0
100
AcDbCircle
 10
-171.360519
 20
91.951447
 30
0.0
 40
4.307178999999998
  0
CIRCLE
  5
25D
330
22
100
AcDbEntity
  8
0
100
AcDbCircle
 10
155.629471
 20
91.951447
 30
0.0
 40
5.0
  0
CIRCLE
  5
25E
330
22
100
AcDbEntity
  8
0
100
AcDbCircle
 10
155.629471
 20
91.951447
 30
0.0
 40
4.307178999999998
  0
CIRCLE
  5
25F
330
22
100
AcDbEntity
  8
0
100
AcDbCircle
 10
149.129471
 20
67.951447
 30
0.0
 40
5.0
  0
CIRCLE
  5
260
330
22
100
AcDbEntity
  8
0
100
AcDbCircle
 10
149.129471
 20
67.951447
 30
0.0
 40
4.307178999999998
  0
CIRCLE
  5
261
330
22
100
AcDbEntity
  8
0
100
AcDbCircle
 10
161.129471
 20
67.951447
 30
0.0
 40
5.0
  0
CIRCLE
  5
262
330
22
100
AcDbEntity
  8
0
100
AcDbCircle
 10
161.129471
 20
67.951447
 30
0.0
 40
4.307178999999998
  0
TEXT
  5
263
330
22
100
AcDbEntity
  8
0
100
AcDbText
 10
-392.285309
 20
256.649994
 30
0.0
 40
9.0
  1
RODLESS CYLINDER
 41
1.052632
100
AcDbText
  0
TEXT
  5
264
330
22
100
AcDbEntity
  8
0
 62
     3
100
AcDbText
 10
-29.78580900000001
 20
162.732803
 30
0.0
 40
6.299999999999998
  1
STRETCH LINE
 41
1.052632
100
AcDbText
  0
TEXT
  5
265
330
22
100
AcDbEntity
  8
0
100
AcDbText
 10
-384.785309
 20
224.149994
 30
0.0
 40
9.0
  1
MODEL:MRS20*ST(200)
 41
1.052632
100
AcDbText
  0
TEXT
  5
266
330
22
100
AcDbEntity
  8
0
100
AcDbText
 10
-261.699707
 20
-234.419998
 30
0.0
 40
6.299999999999998
  1
STRETCH LIST
 41
1.052632
100
AcDbText
  0
TEXT
  5
267
330
22
100
AcDbEntity
  8
0
100
AcDbText
 10
-91.349716
 20
-256.420013
 30
0.0
 40
6.299999999999998
  1
600
 41
1.052632
100
AcDbText
  0
TEXT
  5
268
330
22
100
AcDbEntity
  8
0
100
AcDbText
 10
-91.349716
 20
-246.419998
 30
0.0
 40
6.299999999999998
  1
800
 41
1.052632
100
AcDbText
  0
TEXT
  5
269
330
22
100
AcDbEntity
  8
0
100
AcDbText
 10
-259.349731
 20
-256.420013
 30
0.0
 40
6.299999999999998
  1
100
 41
1.052632
100
AcDbText
  0
TEXT
  5
26A
330
22
100
AcDbEntity
  8
0
100
AcDbText
 10
-284.199707
 20
-256.420013
 30
0.0
 40
6.299999999999998
  1
50
 41
1.052632
100
AcDbText
  0
TEXT
  5
26B
330
22
100
AcDbEntity
  8
0
100
AcDbText
 10
-309.049713
 20
-256.420013
 30
0.0
 40
6.299999999999998
  1
0
 41
1.052632
100
AcDbText
  0
TEXT
  5
26C
330
22
100
AcDbEntity
  8
0
100
AcDbText
 10
-259.349731
 20
-246.419998
 30
0.0
 40
6.299999999999998
  1
300
 41
1.052632
100
AcDbText
  0
TEXT
  5
26D
330
22
100
AcDbEntity
  8
0
100
AcDbText
 10
-287.349731
 20
-246.419998
 30
0.0
 40
6.299999999999998
  1
250
 41
1.052632
100
AcDbText
  0
TEXT
  5
26E
330
22
100
AcDbEntity
  8
0
100
AcDbText
 10
-315.349731
 20
-246.419998
 30
0.0
 40
6.299999999999998
  1
200
 41
1.052632
100
AcDbText
  0
TEXT
  5
26F
330
22
100
AcDbEntity
  8
0
100
AcDbText
 10
-231.349716
 20
-246.419998
 30
0.0
 40
6.299999999999998
  1
350
 41
1.052632
100
AcDbText
  0
TEXT
  5
270
330
22
100
AcDbEntity
  8
0
100
AcDbText
 10
-231.349716
 20
-256.420013
 30
0.0
 40
6.299999999999998
  1
150
 41
1.052632
100
AcDbText
  0
TEXT
  5
271
330
22
100
AcDbEntity
  8
0
100
AcDbText
 10
-203.349716
 20
-246.419998
 30
0.0
 40
6.299999999999998
  1
400
 41
1.052632
100
AcDbText
  0
TEXT
  5
272
330
22
100
AcDbEntity
  8
0
100
AcDbText
 10
-203.349716
 20
-256.420013
 30
0.0
 40
6.299999999999998
  1
200
 41
1.052632
100
AcDbText
  0
TEXT
  5
273
330
22
100
AcDbEntity
  8
0
100
AcDbText
 10
-175.349716
 20
-246.419998
 30
0.0
 40
6.299999999999998
  1
500
 41
1.052632
100
AcDbText
  0
TEXT
  5
274
330
22
100
AcDbEntity
  8
0
100
AcDbText
 10
-175.349716
 20
-256.420013
 30
0.0
 40
6.299999999999998
  1
300
 41
1.052632
100
AcDbText
  0
TEXT
  5
275
330
22
100
AcDbEntity
  8
0
100
AcDbText
 10
-147.349716
 20
-246.419998
 30
0.0
 40
6.299999999999998
  1
600
 41
1.052632
100
AcDbText
  0
TEXT
  5
276
330
22
100
AcDbEntity
  8
0
100
AcDbText
 10
-147.349716
 20
-256.420013
 30
0.0
 40
6.299999999999998
  1
400
 41
1.052632
100
AcDbText
  0
TEXT
  5
277
330
22
100
AcDbEntity
  8
0
100
AcDbText
 10
-119.349716
 20
-246.419998
 30
0.0
 40
6.299999999999998
  1
700
 41
1.052632
100
AcDbText
  0
TEXT
  5
278
330
22
100
AcDbEntity
  8
0
100
AcDbText
 10
-119.349716
 20
-256.420013
 30
0.0
 40
6.299999999999998
  1
500
 41
1.052632
100
AcDbText
  0
TEXT
  5
279
330
22
100
AcDbEntity
  8
0
100
AcDbText
 10
-384.484375
 20
210.649994
 30
0.0
 40
9.0
  1
(WITH SENSOR SWITCH)
 41
1.052632
100
AcDbText
  0
TEXT
  5
27A
330
22
100
AcDbEntity
  8
0
100
AcDbText
 10
-368.58905
 20
-246.419998
 30
0.0
 40
6.299999999999998
  1
STROKE
 41
1.052632
100
AcDbText
  0
TEXT
  5
27B
330
22
100
AcDbEntity
  8
0
100
AcDbText
 10
-371.739075
 20
-256.420013
 30
0.0
 40
6.299999999999998
  1
STRETCH
 41
1.052632
100
AcDbText
  0
TEXT
  5
27C
330
22
100
AcDbEntity
  8
0
100
AcDbText
 10
-94.499718
 20
-236.419998
 30
0.0
 40
6.299999999999998
  1
（ｍｍ）
 41
0.833333
100
AcDbText
  0
TEXT
  5
27D
330
22
100
AcDbEntity
  8
0
100
AcDbText
 10
282.764496
 20
256.649994
 30
0.0
 40
9.0
  1
Ｖｅｒ．　１．１
 41
0.833333
100
AcDbText
  0
TEXT
  5
27E
330
22
100
AcDbEntity
  8
0
100
AcDbText
 10
242.014633
 20
-274.5
 30
0.0
 40
12.5
  1
KOGANEI CORP.
 41
1.052632
100
AcDbText
  0
CIRCLE
  5
29B
330
22
100
AcDbEntity
  8
0
  6
Continuous
100
AcDbCircle
 10
-190.860519
 20
141.4614409999999
 30
0.0
 40
3.5
  0
CIRCLE
  5
29C
330
22
100
AcDbEntity
  8
0
  6
Continuous
100
AcDbCircle
 10
-190.866486
 20
37.460846
 30
0.0
 40
3.5
  0
CIRCLE
  5
29D
330
22
100
AcDbEntity
  8
0
  6
Continuous
100
AcDbCircle
 10
175.133377
 20
141.460861
 30
0.0
 40
3.5
  0
CIRCLE
  5
29E
330
22
100
AcDbEntity
  8
0
  6
Continuous
100
AcDbCircle
 10
175.133377
 20
37.460846
 30
0.0
 40
3.5
  0
VIEWPORT
  5
284
102
{ACAD_XDICTIONARY
360
2B9
102
}
330
1E
100
AcDbEntity
 67
     1
  8
0
  6
Continuous
100
AcDbViewport
 10
5.655416053111157
 20
3.94208322359821
 30
0.0
 40
12.37154599888118
 41
10.75451820234692
 68
     1
 69
     1
 12
5.655416053111157
 22
3.94208322359821
 13
0.0
 23
0.0
 14
10.0
 24
10.0
 15
10.0
 25
10.0
 16
0.0
 26
0.0
 36
1.0
 17
0.0
 27
0.0
 37
0.0
 42
50.0
 43
0.0
 44
0.0
 45
10.75451820234692
 50
0.0
 51
0.0
 72
   100
 90
    32800
  1

281
     0
 71
     1
 74
     0
110
0.0
120
0.0
130
0.0
111
1.0
121
0.0
131
0.0
112
0.0
122
1.0
132
0.0
 79
     0
146
0.0
  0
VIEWPORT
  5
287
102
{ACAD_XDICTIONARY
360
2BB
102
}
330
1E
100
AcDbEntity
 67
     1
  8
0
  6
Continuous
100
AcDbViewport
 10
5.653750051663616
 20
3.940416621410939
 30
0.0
 40
9.046000082661784
 41
6.304666594257504
 68
     2
 69
     2
 12
0.274902499999996
 22
-0.25
 13
0.0
 23
0.0
 14
1.0
 24
1.0
 15
0.0
 25
0.0
 16
0.0
 26
0.0
 36
1.0
 17
0.0
 27
0.0
 37
0.0
 42
50.0
 43
0.0
 44
0.0
 45
561.6491126092265
 50
0.0
 51
0.0
 72
   100
 90
    32800
  1

281
     0
 71
     1
 74
     0
110
0.0
120
0.0
130
0.0
111
1.0
121
0.0
131
0.0
112
0.0
122
1.0
132
0.0
 79
     0
146
0.0
  0
ENDSEC
  0
SECTION
  2
OBJECTS
  0
DICTIONARY
  5
C
330
0
100
AcDbDictionary
281
     1
  3
ACAD_COLOR
350
1B
  3
ACAD_GROUP
350
D
  3
ACAD_LAYOUT
350
19
  3
ACAD_MATERIAL
350
1A
  3
ACAD_MLINESTYLE
350
16
  3
ACAD_PLOTSETTINGS
350
18
  3
ACAD_PLOTSTYLENAME
350
E
  3
ACAD_TABLESTYLE
350
1C
  3
ACDBHEADERROUNDTRIPXREC
350
2B5
  3
AcDbVariableDictionary
350
29F
  0
DICTIONARY
  5
28B
330
2
100
AcDbDictionary
280
     1
281
     1
  3
ACAD_LAYERSTATES
360
28C
  0
DICTIONARY
  5
2B9
330
284
100
AcDbDictionary
280
     1
281
     1
  3
ACAD_XREC_ROUNDTRIP
360
2BA
  0
DICTIONARY
  5
2BB
330
287
100
AcDbDictionary
280
     1
281
     1
  3
ACAD_XREC_ROUNDTRIP
360
2BC
  0
DICTIONARY
  5
1B
102
{ACAD_REACTORS
330
C
102
}
330
C
100
AcDbDictionary
281
     1
  0
DICTIONARY
  5
D
102
{ACAD_REACTORS
330
C
102
}
330
C
100
AcDbDictionary
281
     1
  0
DICTIONARY
  5
19
102
{ACAD_REACTORS
330
C
102
}
330
C
100
AcDbDictionary
281
     1
  3
Model
350
25
  3
レイアウト1
350
21
  0
DICTIONARY
  5
1A
102
{ACAD_REACTORS
330
C
102
}
330
C
100
AcDbDictionary
281
     1
  0
DICTIONARY
  5
16
102
{ACAD_REACTORS
330
C
102
}
330
C
100
AcDbDictionary
281
     1
  3
Standard
350
17
  0
DICTIONARY
  5
18
102
{ACAD_REACTORS
330
C
102
}
330
C
100
AcDbDictionary
281
     1
  0
ACDBDICTIONARYWDFLT
  5
E
102
{ACAD_REACTORS
330
C
102
}
330
C
100
AcDbDictionary
281
     1
  3
Normal
350
F
100
AcDbDictionaryWithDefault
340
F
  0
DICTIONARY
  5
1C
102
{ACAD_REACTORS
330
C
102
}
330
C
100
AcDbDictionary
281
     1
  3
Standard
350
1D
  0
DICTIONARY
  5
2B5
102
{ACAD_REACTORS
330
C
102
}
330
C
100
AcDbDictionary
281
     1
  0
DICTIONARY
  5
29F
102
{ACAD_REACTORS
330
C
102
}
330
C
100
AcDbDictionary
281
     1
  3
CTABLESTYLE
350
2A0
  3
DIMASSOC
350
2A1
  3
PROJECTNAME
350
2A2
  0
DICTIONARY
  5
28C
102
{ACAD_REACTORS
330
28B
102
}
330
28B
100
AcDbDictionary
281
     1
  0
XRECORD
  5
2BA
102
{ACAD_REACTORS
330
2B9
102
}
330
2B9
100
AcDbXrecord
280
     1
102
SHADEPLOT
 70
     0
  0
XRECORD
  5
2BC
102
{ACAD_REACTORS
330
2BB
102
}
330
2BB
100
AcDbXrecord
280
     1
102
SHADEPLOT
 70
     0
  0
LAYOUT
  5
25
102
{ACAD_XDICTIONARY
360
2B7
102
}
102
{ACAD_REACTORS
330
19
102
}
330
19
100
AcDbPlotSettings
  1

  2
DocuCentre Color f450
  4

  6

 40
0.0
 41
0.0
 42
0.0
 43
0.0
 44
0.0
 45
0.0
 46
0.0
 47
0.0
 48
0.0
 49
0.0
140
0.0
141
0.0
142
1.0
143
1.0
 70
  1712
 72
     0
 73
     0
 74
     0
  7

 75
     0
147
1.0
148
0.0
149
0.0
100
AcDbLayout
  1
Model
 70
     1
 71
     0
 10
0.0
 20
0.0
 11
12.0
 21
9.0
 12
0.0
 22
0.0
 32
0.0
 14
0.0
 24
0.0
 34
0.0
 15
0.0
 25
0.0
 35
0.0
146
0.0
 13
0.0
 23
0.0
 33
0.0
 16
1.0
 26
0.0
 36
0.0
 17
0.0
 27
1.0
 37
0.0
 76
     0
330
22
  0
LAYOUT
  5
21
102
{ACAD_XDICTIONARY
360
28E
102
}
102
{ACAD_REACTORS
330
19
102
}
330
19
100
AcDbPlotSettings
  1

  2
DocuCentre Color f450
  4
A4
  6

 40
4.857749938964842
 41
4.942390441894531
 42
4.942413330078125
 43
4.857757568359375
 44
209.9733276367186
 45
297.0106506347656
 46
0.0
 47
0.0
 48
0.0
 49
0.0
140
0.0
141
0.0
142
1.0
143
1.0
 70
   688
 72
     0
 73
     1
 74
     5
  7

 75
    16
147
1.0
148
0.0
149
0.0
100
AcDbLayout
  1
レイアウト1
 70
     1
 71
     1
 10
-0.1912502979669045
 20
-0.1912499975970411
 11
11.50208240418922
 21
8.075416444793459
 12
0.0
 22
0.0
 32
0.0
 14
1.130750010332723
 24
0.7880833242821881
 34
0.0
 15
10.17675009299451
 25
7.092749918539691
 35
0.0
146
0.0
 13
0.0
 23
0.0
 33
0.0
 16
1.0
 26
0.0
 36
0.0
 17
0.0
 27
1.0
 37
0.0
 76
     0
330
1E
331
284
1001
ACAD_PSEXT
1000
DocuCentre Color f450
1000
FX DocuCentre Color f450
1000
192.168.41.214
1000

1070
     0
  0
MLINESTYLE
  5
17
102
{ACAD_REACTORS
330
16
102
}
330
16
100
AcDbMlineStyle
  2
STANDARD
 70
     0
  3

 62
   256
 51
90.0
 52
90.0
 71
     2
 49
0.5
 62
   256
  6
BYLAYER
 49
-0.5
 62
   256
  6
BYLAYER
  0
ACDBPLACEHOLDER
  5
F
102
{ACAD_REACTORS
330
E
102
}
330
E
  0
TABLESTYLE
  5
1D
102
{ACAD_REACTORS
330
1C
102
}
330
1C
100
AcDbTableStyle
  3
Standard
 70
     0
 71
     0
 40
0.06
 41
0.06
280
     0
281
     0
  7
STANDARD
140
0.18
170
     2
 62
     0
 63
     7
283
     0
274
    -2
284
     1
 64
     0
275
    -2
285
     1
 65
     0
276
    -2
286
     1
 66
     0
277
    -2
287
     1
 67
     0
278
    -2
288
     1
 68
     0
279
    -2
289
     1
 69
     0
  7
STANDARD
140
0.25
170
     5
 62
     0
 63
     7
283
     0
274
    -2
284
     1
 64
     0
275
    -2
285
     1
 65
     0
276
    -2
286
     1
 66
     0
277
    -2
287
     1
 67
     0
278
    -2
288
     1
 68
     0
279
    -2
289
     1
 69
     0
  7
STANDARD
140
0.18
170
     5
 62
     0
 63
     7
283
     0
274
    -2
284
     1
 64
     0
275
    -2
285
     1
 65
     0
276
    -2
286
     1
 66
     0
277
    -2
287
     1
 67
     0
278
    -2
288
     1
 68
     0
279
    -2
289
     1
 69
     0
  0
DICTIONARYVAR
  5
2A0
102
{ACAD_REACTORS
330
29F
102
}
330
29F
100
DictionaryVariables
280
     0
  1
STANDARD
  0
DICTIONARYVAR
  5
2A1
102
{ACAD_REACTORS
330
29F
102
}
330
29F
100
DictionaryVariables
280
     0
  1
1
  0
DICTIONARYVAR
  5
2A2
102
{ACAD_REACTORS
330
29F
102
}
330
29F
100
DictionaryVariables
280
     0
  1

  0
DICTIONARY
  5
2B7
330
25
100
AcDbDictionary
280
     1
281
     1
  3
ACAD_XREC_ROUNDTRIP
360
2B8
  0
DICTIONARY
  5
28E
330
21
100
AcDbDictionary
280
     1
281
     1
  3
ACAD_XREC_ROUNDTRIP
360
2B6
  3
ADSK_XREC_LAYOUTTHUMBNAIL
360
28F
  0
XRECORD
  5
2B8
102
{ACAD_REACTORS
330
2B7
102
}
330
2B7
100
AcDbXrecord
280
     1
102
SHADEPLOT
 70
     0
102
SHADEPLOTRESLEVEL
 70
     2
102
SHADEPLOTCUSTOMDPI
 70
   300
  0
XRECORD
  5
2B6
102
{ACAD_REACTORS
330
28E
102
}
330
28E
100
AcDbXrecord
280
     1
102
SHADEPLOT
 70
     0
102
SHADEPLOTRESLEVEL
 70
     2
102
SHADEPLOTCUSTOMDPI
 70
   300
  0
XRECORD
  5
28F
102
{ACAD_REACTORS
330
28E
102
}
330
28E
100
AcDbXrecord
280
     1
310
28000000B40000007F00000001000800000000004C590000000000000000000000010000000000000000000000000000FFFFFF000000000000000000000000000000000000000000000000000000000000000000330000006600000099000000CC000000FF00000000330000333300006633000099330000CC330000FF3300
310
0000660000336600006666000099660000CC660000FF66000000990000339900006699000099990000CC990000FF99000000CC000033CC000066CC000099CC0000CCCC0000FFCC000000FF000033FF000066FF000099FF0000CCFF0000FFFF000000003300330033006600330099003300CC003300FF003300003333003333
310
33006633330099333300CC333300FF33330000663300336633006666330099663300CC663300FF66330000993300339933006699330099993300CC993300FF99330000CC330033CC330066CC330099CC3300CCCC3300FFCC330000FF330033FF330066FF330099FF3300CCFF3300FFFF330000006600330066006600660099
310
006600CC006600FF00660000336600333366006633660099336600CC336600FF33660000666600336666006666660099666600CC666600FF66660000996600339966006699660099996600CC996600FF99660000CC660033CC660066CC660099CC6600CCCC6600FFCC660000FF660033FF660066FF660099FF6600CCFF6600
310
FFFF660000009900330099006600990099009900CC009900FF00990000339900333399006633990099339900CC339900FF33990000669900336699006666990099669900CC669900FF66990000999900339999006699990099999900CC999900FF99990000CC990033CC990066CC990099CC9900CCCC9900FFCC990000FF99
310
0033FF990066FF990099FF9900CCFF9900FFFF99000000CC003300CC006600CC009900CC00CC00CC00FF00CC000033CC003333CC006633CC009933CC00CC33CC00FF33CC000066CC003366CC006666CC009966CC00CC66CC00FF66CC000099CC003399CC006699CC009999CC00CC99CC00FF99CC0000CCCC0033CCCC0066CC
310
CC0099CCCC00CCCCCC00FFCCCC0000FFCC0033FFCC0066FFCC0099FFCC00CCFFCC00FFFFCC000000FF003300FF006600FF009900FF00CC00FF00FF00FF000033FF003333FF006633FF009933FF00CC33FF00FF33FF000066FF003366FF006666FF009966FF00CC66FF00FF66FF000099FF003399FF006699FF009999FF00CC
310
99FF00FF99FF0000CCFF0033CCFF0066CCFF0099CCFF00CCCCFF00FFCCFF0000FFFF0033FFFF0066FFFF0099FFFF00CCFFFF00FFFFFF00000000000D0D0D001A1A1A00282828003535350043434300505050005D5D5D006B6B6B00787878008686860093939300A1A1A100AEAEAE00BBBBBB00C9C9C900D6D6D600E4E4E400
310
F1F1F100FFFFFF0000000000000000000000000000000000000000000000000000000000000000000000000000000000F5F5F5F5F5F5F5F5F5F5F5F5F5F5F5F5F5F5F5F5F5F5F5F5F5F5F5F5F5F5F5F5F5F5F5F5F5F5F5F5F5F5F5F5F5F5F5F5F5F5F5F5F5F5F5F5F5F5F5F5F5F5F5F5F5F5F5F5F5F5F5F5F5F5F5F5F5F5F5
310
F5F5F5F5F5F5F5F5F5F5F5F5F5F5F5F5F5F5F5F5F5F5F5F5F5F5F5F5F5F5F5F5F5F5F5F5F5F5F5F5F5F5F5F5F5F5F5F5F5F5F5F5F5F5F5F5F5F5F5F5F5F5F5F5F5F5F5F5F5F5F5F5F5F5F5F5F5F5F5F5F5F5F5F5F5F5F5F5F5F5F5F5F5F5F5F5F5F5F5F5F5F5E2E2E2E2E2E2E2E2E2E2E2E2E2E2E2E2E2E2E2E2E2E2E2E2E2
310
E2E2E2E2E2E2E2E2E2E2E2E2E2E2E2E2E2E2E2E2E2E2E2E2E2E2E2E2E2E2E2E2E2E2E2E2E2E2E2E2E2E2E2E2E2E2E2E2E2E2E2E2E2E2E2E2E2E2E2E2E2E2E2E2E2E2E2E2E2E2E2E2E2E2E2E2E2E2E2E2E2E2E2E2E2E2E2E2E2E2E2E2E2E2E2E2E2E2E2E2E2E2E2E2E2E2E2E2E2E2E2E2E2E2E2E2E2E2E2E2E2E2E2E2E2E2E2
310
E2E2E2E2E2E2E2E2E2E2E2E2E2E2E2E2E2E2E2E2E2E2E2E2E2E2F5F5E2E2E2E2E2E2E2E2E2E2E2E2E2E2E2E2E2E2E2E2E2E2E2E2E2E2E2E2E2E2E2E2E2E2E2E2E2E2E2E2E2E2E2E2E2E2E2E2E2E2E2E2E2E2E2E2E2E2E2E2E2E2E2E2E2E2E2E2E2E2E2E2E2E2E2E2E2E2E2E2E2E2E2E2E2E2E2E2E2E2E2E2E2E2E2E2E2E2E2
310
E2E2E2E2E2E2E2E2E2E2E2E2E2E2E2E2E2E2E2E2E2E2E2E2E2E2E2E2E2E2E2E2E2E2E2E2E2E2E2E2E2E2E2E2E2E2E2E2E2E2E2E2E2E2E2E2E2E2E2E2E2E2E2E2E2E2E2E2E2E2E2E2E2E2E2E2E2E2E2F5F5E2E2F5F5F5F5F5F5F5F5E2E2E2E2E2E2E2E2E2F5F5F5F5F5F5F5F5F5F5F5F5F5F5F5F5E2E2E2E2E2E2E2E2E2F5F5
310
F5F5F5F5F5F5F5F5F5F5F5F5F5F5E2E2E2E2E2E2E2E2E2F5F5F5F5F5F5F5F5F5F5F5F5F5F5F5F5E2E2E2E2E2E2E2E2F5F5F5F5F5F5F5F5F5F5F5F5F5F5F5F5E2E2E2E2E2E2E2E2E2F5F5F5F5F5F5F5F5F5F5F5F5F5F5F5F5E2E2E2E2E2E2E2E2E2F5F5F5F5F5F5F5F5F5F5F5F5F5F5F5F5E2E2E2E2E2E2E2E2E2F5F5F5F5F5
310
F5F5F5E2E2F5F5E2E2F5E2E2E2E2E2E2E2E2E2E2E2E2E2E2E2E2E2E2E2E2E2E2E2E2E2E2E2E2E2E2E2E2E2E2E2E2E2E2E2E2E2E2E2E2E2E2E2E2E2E2E2E2E2E2E2E2E2E2E2E2E2E2E2E2E2E2E2E2E2E2E2E2E2E2E2E2E2E2E2E2E2E2E2E2E2E2E2E2E2E2E2E2E2E2E2E2E2E2E2E2E2E2E2E2E2E2E2E2E2E2E2E2E2E2E2E2E2
310
E2E2E2E2E2E2E2E2E2E2E2E2E2E2E2E2E2E2E2E2E2E2E2E2E2E2E2E2E2E2E2E2E2E2E2E2E2E2E2E2E2E2E2E2E2E2E2E2E2E2E2E2E2E2E2F5E2E2F5F5E2E2F5E2E2E2E2E2E2E2E2E2E2E2E2E2E2E2E2E2E2E2E2E2E2E2E2E2E2E2E2E2E2E2E2E2E2E2E2E2E2E2E2E2E2E2E2E2E2E2E2E2E2E2E2E2E2E2E2E2E2E2E2E2E2E2E2
310
E2E2E2E2E2E2E2E2E2E2E2E2E2E2E2E2E2E2E2E2E2E2E2E2E2E2E2E2E2E2E2E2E2E2E2E2E2E2E2E2E2E2E2E2E2E2E2E2E2E2E2E2E2E2E2E2E2E2E2E2E2E2E2E2E2E2E2E2E2E2E2E2E2E2E2E2E2E2E2E2E2E2E2E2E2E2E2E2E2E2E2E2E2E2E2E2E2E2E2E2E2E2E2E2E2E2E2E2F5E2E2F5F5E2E2F5E2E2E2E2E2E2E2E2E2E2E2
310
E2E2E2E2E2E2E2E2E2E2E2E2E2E2E2E2E2E2E2E2E2E2E2E2E2E2E2E2E2E2E2E2E2E2E2E2E2E2E2E2E2E2E2E2E2E2E2E2E2E2E2E2E2E2E2E2E2E2E2E2E2E2E2E2E2E2E2E2E2E2E2E2E2E2E2E2E2E2E2E2E2E2E2E2E2E2E2E2E2E2E2E2E2E2E2E2E2E2E2E2E2E2E2E2E2E2E2E2E2E2E2E2E2E2E2E2E2E2E2E2E2E2E2E2E2E2E2
310
E2E2E2E2E2E2E2E2E2E2E2E2E2E2E2E2E2E2E2E2E2E2E2E2E2E2E2E2E2E2E2E2E2E2F5E2E2F5F5E2E2F5E2E2E2E2E2E2E2E2E2E2E2E2E2E2E2E2E2E2E2E2E2E2E2E2E2E2E2E2E2E2E2E2E2E2E2E2E2E2E2E2E2E2E2E2E2E2E2E2E2E2E2E2E2E2E2E2E2E2E2E2E2E2E2E2E2E2E2E2E2E2E2E2E2E2E2E2E2E2E2E2E2E2E2E2E2
310
E2E2E2E2E2E2E2E2E2E2E2E2E2E2E2E2E2E2E2E2E2E2E2E2E2E2E2E2E2E2E2E2E2E2E2E2E2E2E2E2E2E2E2E2E2E2E2E2E2E2E2E2E2E2E2E2E2E2E2E2E2E2E2E2E2E2E2E2E2E2E2E2E2E2E2E2E2E2E2E2E2E2E2E2E2E2E2F5E2E2F5F5E2E2F5E2E2E2E2E2E2E2E2E2E2E2E2E2E2E2E2E2E2E2E2E2E2E2E2E2E2E2E2E2E2E2E2
310
E2E2E2E2E2E2E2E2E2E2E2E2E2E2E2E2E2E2E2E2E2E2E2E2E2E2E2E2E2E2E2E2E2E2E2E2E2E2E2E2E2E2E2E2E2E2E2E2E2E2E2E2E2E2E2E2E2E2E2E2E2E2E2E2E2E2E2E2E2E2E2E2E2E2E2E2E2E2E2E2E2E2E2E2E2E2E2E2E2E2E2E2E2E2E2E2E2E2E2E2E2E2E2E2E2E2E2E2E2E2E2E2E2E2E2E2E2E2E2E2E2E2E2E2E2E2E2
310
E2E2E2E2E2E2E2E2E2E2E2E2E2F5E2E2F5F5E2E2F5E2E2E2E2E2E2E2E2E2E2E2E2E2E2E2E2E2E2E2E2E2E2E2E2E2E2E2E2E2E2E2E2E2E2E2E2E2E2E2E2E2E2E2E2E2E2E2E2E2E2E2E2E2E2E2E2E2E2E2E2E2E2E2E2E2E2E2E2E2E2E2E2E2E2E2E2E2E2E2E2E2E2E2E2E2E2E2E2E2E2E2E2E2E2E2E2E2E2E2E2E2E2E2E2E2E2
310
E2E2E2E2E2E2E2E2E2E2E2E2E2E2E2E2E2E2E2E2E2E2E2E2E2E2E2E2E2E2E2E2E2E2E2E2E2E2E2E2E2E2E2E2E2E2E2E2E2E2E2E2E2E2E2E2E2E2E2E2E2E2E2E2E2E2F5E2E2F5F5E2E2F5E2E2E2E2E2E2E2E2E2E2E2E2E2E2E2E2E2E2E2E2E2E2E2E2E2E2E2E2E2E2E2E2E2E2E2E2E2E2E2E2E2E2E2E2E2E2E2E2E2E2E2E2E2
310
E2E2E2E2E2E2E2E2E2E2E2E2E2E2E2E2E2E2E2E2E2E2E2E2E2E2E2E2E2E2E2E2E2E2E2E2E2E2E2E2E2E2E2E2E2E2E2E2E2E2E2E2E2E2E2E2E2E2E2E2E2E2E2E2E2E2E2E2E2E2E2E2E2E2E2E2E2E2E2E2E2E2E2E2E2E2E2E2E2E2E2E2E2E2E2E2E2E2E2E2E2E2E2E2E2E2E2E2E2E2E2E2E2E2E2E2E2E2E2F5E2E2F5F5E2E2E2
310
E2E2E2E2E2E2E2E2E2E2E2E2E2E2E2E2E2E2E2E2E2E2E2E2E2E2E2E2E2E2E2E2E2E2E2E2E2E2E2E2E2E2E2E2E2E2E2E2E2E2E2E2E2E2E2E2E2E2E2E2E2E2E2E2E2E2E2E2E2E2E2E2E2E2E2E2E2E2E2E2E2E2E2E2E2E2E2E2E2E2E2E2E2E2E2E2E2E2E2E2E2E2E2E2E2E2E2E2E2E2E2E2E2E2E2E2E2E2E2E2E2E2E2E2E2E2E2
310
E2E2E2E2E2E2E2E2E2E2E2E2E2E2E2E2E2E2E2E2E2E2E2E2E2E2E2E2E2E2E2E2E2E2E2E2E2E2E2E2E2E2E2E2E2E2E2E2F5F5E2E2E2E2E2E2E2E2E2E2E2E2E2E2E2E2E2E2E2E2E2E2E2E2E2E2E2E2E2E2E2E2E2E2E2E2E2E2E2E2E2E2E2E2E2E2E2E2E2E2E2E2E2E2E2E2E2E2E2E2E2E2E2E2E2E2E2E2E2E2E2E2E2E2E2E2E2
310
E2E2E2E2E2E2E2E2E2E2E2E2E2E2E2E2E2E2E2E2E2E2E2E2E2E2E2E2E2E2E2E2E2E2E2E2E2E2E2E2E2E2E2E2E2E2E2E2E2E2E2E2E2E2E2E2E2E2E2E2E2E2E2E2E2E2E2E2E2E2E2E2E2E2E2E2E2E2E2E2E2E2E2E2E2E2E2E2E2E2E2E2E2E2E2E2E2E2E2E2E2F5F5E2E2E2E2E2E2E2E2E2E2E2E2E2E2E2E2E2E2E2E2E2E2E2E2
310
E2E2E2E2E2E2E2E2E2E2E2E2E2E2E2E2E2E2E2E2E2E2E2E2E2E2E2E2E2E2E2E2E2E2E2E2E2E2E2E2E2E2E2E2E2E2E2E2E2E2E2E2E2E2E2E2E2E2E2E2E2E2E2E2E2E2E2E2E2E2E2E2E2E2E2E2E2E2E2E2E2E2E2E2E2E2E2E2E2E2E2E2E2E2E2E2E2E2E2E2E2E2E2E2E2E2E2E2E2E2E2E2E2E2E2E2E2E2E2E2E2E2E2E2E2E2E2
310
E2E2E2E2E2E2E2E2E2E2E2E2E2E2E2E2E2E2E2E2E2E2E2E2E2E2E2F5F5E2E2E2E2E2E2E2E2E2E2E2E2E2E2E2E2E2E2E2E2E2E2E2E2E2E2E2E2E2E2E2E2E2E2E2E2E2E2E2E2E2E2E2E2E2E2E2E2E2E2E2E2E2E2E2E2E2E2E2E2E2E2E2E2E2E2E2E2E2E2E2E2E2E2E2E2E2E2E2E2E2E2E2E2E2E2E2E2E2E2E2E2E2E2E2E2E2E2
310
E2E2E2E2E2E2E2E2E2E2E2E2E2E2E2E2E2E2E2E2E2E2E2E2E2E2E2E2E2E2E2E2E2E2E2E2E2E2E2E2E2E2E2E2E2E2E2E2E2E2E2E2E2E2E2E2E2E2E2E2E2E2E2E2E2E2E2E2E2E2E2E2E2E2E2E2E2E2E2E2F5F5E2E2E2E2E2E2E2E2E2E2E2E2E2E2E2E2E2E2E2E2F5F5F5F5F5F5F5F5F5F5F5F5F5F5F5F5F5F5F5F5F5F5F5F5F5
310
F5F5F5F5F5F5F5F5F5F5F5F5F5F5F5F5F5F5F5F5F5F5F5F5F5F5F5F5F5F5F5F5F5F5F5F5F5F5F5F5F5F5F5F5F5F5F5F5F5F5F5F5F5F5F5F5F5F5F5F5F5F5F5F5F5F5F5F5F5F5F5F5F5F5F5F5F5F5F5F5F5F5F5F5F5F5F5F5F5F5F5F5F5F5F5F5F5F5F5F5F5F5F5F5F5F5F5F5F5F5F5F5F5E2E2E2E2E2E2E2E2E2E2E2E2E2E2
310
E2E2E2E2E2E2F5F5E2E2E2E2E2E2E2E2E2E2E2E2E2E2E2E2E2E2E2E2F5F5F5F5F5F5F5F5F5F5F5F5F5F5F5F5F5F5F5F5F5F5F5F5F5F5F5F5F5F5F5F5F5F5F5F5F5F5F5F5F5F5F5F5F5F5F5F5F5F5F5F5F5F5F5F5F5F5F5F5F5F5F5F5F5F5F5F5F5F5F5F5F5F5F5F5F5F5F5F5F5F5F5F5F5F5F5F5F5F5F5F5F5F5F5F5F5F5F5
310
F5F5F5F5F5F5F5F5F5F5F5F5F5F5F5F5F5F5F5F5F5F5F5F5F5F5F5F5F5F5F5F5F5F5F5F5F5F5F5E2E2E2E2E2E2E2E2E2E2E2E2E2E2E2E2E2E2E2E2F5F5E2E2E2E2E2E2E2E2E2E2E2E2E2E2E2E2E2E2E2E2F5E2E2E2E2E2E2E2E2E2E2E2E2E2E2E2E2E2E2E2E2E2E2E2E2E2E2E2E2E2E2E2E2E2E2E2E2E2E2E2E2E2E2E2E2E2
310
E2E2E2E2E2E2E2E2E2E2E2E2E2E2E2E2E2E2E2E2E2E2E2E2E2E2E2E2E2E2E2E2E2E2E2E2E2E2E2E2E2E2E2E2E2E2E2E2E2E2E2E2E2E2E2E2E2E2E2E2E2E2E2F5F5E2F5F5F5F5F5F5F5F5F5F5F5E2F5E2F5E2F5E2F5F5F5F5F5E2E2F5E2E2E2E2E2E2E2E2E2E2E2E2E2E2E2E2E2E2E2E2F5F5E2E2E2E2E2E2E2E2E2E2E2E2E2
310
E2E2E2E2E2E2E2F5E2E2E2E2E2E2E2E2E2E2E2E2E2E2E2E2E2E2E2E2E2E2E2E2E2E2E2E2E2E2E2E2E2E2E2E2E2E2E2E2E2E2E2E2E2E2E2E2E2E2E2E2E2E2E2E2E2E2E2E2E2E2E2E2E2E2E2E2E2E2E2E2E2E2E2E2E2E2E2E2E2E2E2E2E2E2E2E2E2E2E2E2E2E2E2E2E2E2E2E2E2E2E2E2E2E2E2E2F5F5F5F5F5F5F5F5F5E2F5
310
F5F5F5F5F5E2F5F5F5F5F5F5F5F5F5E2E2F5E2E2E2E2E2E2E2E2E2E2E2E2E2E2E2E2E2E2E2E2F5F5E2E2E2E2E2E2E2E2E2E2E2E2E2E2E2E2E2E2E2E2F5E2E2E2F5F5F5F5F5F5F5F5F5F5F5F5F5F5F5F5F5F5F5F5F5F5F5F5F5F5F5F5F5F5F5F5F5F5F5F5F5F5F5F5F5F5F5F5F5F5F5F5F5F5F5F5F5F5E2E2E2E2E2E2E2E2E2
310
E2E2E2E2E2E2E2E2E2E2E2E2E2E2E2E2E2E2E2E2E2E2E2E2E2E2E2E2E2E2E2E2E2E2E2E2E2E2E2E2E2E2F5E2E2E2E2E2E2E2E2E2E2E2E2E2E2E2E2E2E2E2E2E2E2E2E2E2E2E2F5E2E2E2E2E2E2E2E2E2E2E2E2E2E2E2E2E2E2E2E2F5F5E2E2F5E2E2E2E2E2E2E2E2E2E2E2E2E2E2E2E2E2F5E2E2E2F5F5F5F5F5F5F5F5F5F5
310
F5E2F5E2E2F5F5F5F5E2F5F5F5E2F5F5F5F5E2F5F5F5F5E2F5F5F5F5E2F5F5F5F5F5F5F5F5F5F5F5F5F5F5F5E2E2E2E2E2E2E2E2E2E2E2E2E2E2E2E2E2E2E2E2E2E2E2E2E2E2E2E2E2E2E2E2E2E2E2E2E2E2E2E2E2E2E2E2E2E2E2E2E2E2E2F5F5F5F5F5F5F5F5F5F5F5F5F5F5F5F5F5F5F5F5F5F5F5F5F5F5F5F5F5E2E2E2
310
E2E2E2E2E2E2E2E2E2E2E2E2E2E2F5E2E2F5F5E2E2F5E2E2E2E2E2E2E2E2E2E2E2E2E2E2E2E2E2F5E2E2E2F5F5F5F5F5F5F5F5F5F5F5F5F5F5F5F5F5F5F5F5F5F5F5F5F5F5F5F5F5F5F5F5F5F5F5F5F5F5F5F5F5F5F5F5F5F5F5F5F5F5F5F5F5F5E2E2E2E2E2E2E2E2E2E2E2E2E2E2E2E2E2E2E2E2E2E2E2E2E2E2E2E2E2E2
310
E2E2E2E2E2E2E2E2E2E2E2E2E2E2E2E2E2E2E2E2E2E2E2E2E2E2E2E2E2E2E2E2E2E2E2E2E2E2E2E2E2E2E2E2E2E2E2E2E2F5E2E2E2E2E2E2E2E2E2E2E2E2E2E2E2E2E2F5E2E2F5F5E2E2F5E2E2E2E2E2E2E2E2E2E2E2E2E2E2E2E2E2F5E2E2E2F5F5F5F5F5F5F5F5F5F5F5F5F5F5F5F5F5F5F5F5F5F5F5F5F5F5F5F5F5F5F5
310
F5F5F5F5F5F5F5F5F5F5F5F5F5F5F5F5F5F5F5F5F5F5F5E2E2E2E2E2E2E2E2E2E2E2E2E2E2E2E2E2E2E2E2E2E2E2E2E2E2E2E2E2E2E2E2E2E2E2E2E2E2E2E2E2E2E2E2E2E2E2E2E2E2E2E2E2E2E2E2E2E2E2E2E2E2E2E2E2E2E2E2E2E2E2E2E2E2E2E2E2E2E2F5E2E2E2E2E2E2E2E2E2E2E2E2E2E2E2E2E2F5E2E2F5F5E2E2
310
F5E2E2E2E2E2E2E2E2E2E2E2E2E2E2E2E2E2F5E2E2E2E2E2E2E2E2E2E2E2E2E2E2E2E2E2E2E2E2E2E2E2F5F5F5F5F5F5F5F5F5F5F5F5F5E2E2E2E2E2E2E2E2E2E2E2E2E2E2E2E2F5F5F5F5E2E2E2E2E2E2E2E2E2E2E2E2E2E2E2E2E2E2E2E2E2E2E2E2E2E2E2E2E2E2E2E2E2E2E2E2E2E2E2E2E2E2E2E2E2E2E2E2E2E2E2E2
310
E2E2E2E2E2E2E2E2E2E2E2E2E2E2E2E2E2E2E2E2E2E2E2E2E2E2E2E2F5E2E2E2E2E2E2E2E2E2E2E2E2E2E2E2E2E2F5E2E2F5F5E2E2F5E2E2E2E2E2E2E2E2E2E2E2E2E2E2E2E2E2F5E2E2E2E2E2E2E2E2E2E2E2E2E2E2E2E2E2E2E2E2E2E2E2F5F5F5F5F5F5F5F5F5E2F5F5F5E2E2E2E2E2E2E2E2E2E2E2E2E2E2E2E2F5E2E2
310
F5E2E2E2E2E2E2E2E2E2E2E2E2E2E2E2E2E2E2E2E2E2E2E2E2E2E2E2E2E2E2E2E2E2E2E2E2E2E2E2E2E2E2E2E2E2E2E2E2E2E2E2E2E2E2E2E2E2E2E2E2E2E2E2E2E2E2E2E2E2E2E2E2E2E2E2E2E2E2E2E2F5E2E2E2E2E2E2E2E2E2E2E2E2E2E2E2E2E2F5E2E2F5F5E2E2F5E2E2E2E2E2E2E2E2E2E2E2E2E2E2E2E2E2F5E2E2
310
E2E2E2E2E2E2E2E2E2E2E2E2E2E2E2E2E2E2E2E2E2E2E2E2E2E2E2E2E2E2E2E2E2E2E2E2E2E2E2E2E2E2E2E2E2E2E2E2E2E2E2E2E2E2E2E2E2E2E2E2E2E2E2E2E2E2E2E2E2E2E2E2E2E2E2E2E2E2E2E2E2E2E2E2E2E2E2E2E2E2E2E2E2E2E2E2E2E2E2E2E2E2E2E2E2E2E2E2E2E2E2E2E2E2E2E2E2E2E2E2E2E2E2E2E2E2E2
310
E2E2E2E2E2E2E2F5E2E2E2E2E2E2E2E2E2E2E2E2E2E2E2E2E2F5E2E2F5F5E2E2F5E2E2E2E2E2E2E2E2E2E2E2E2E2E2E2E2E2F5E2E2E2E2E2E2E2E2E2E2E2E2E2E2E2E2E2E2E2E2E2E2E2E2E2E2E2E2E2E2E2E2E2E2E2E2E2E2E2E2E2E2E2E2E2E2E2E2E2E2E2E2E2E2E2E2E2E2E2E2E2E2E2E2E2E2E2E2E2E2E2E2E2E2E2E2
310
E2E2E2E2E2E2E2E2E2E2E2E2E2E2E2E2E2E2E2E2E2E2E2E2E2E2E2E2E2E2E2E2E2E2E2E2E2E2E2E2E2E2E2E2E2E2E2E2E2E2E2E2E2E2E2E2E2E2E2E2F5E2E2E2E2E2E2E2E2E2E2E2E2E2E2E2E2E2F5E2E2F5F5E2E2F5E2E2E2E2E2E2E2E2E2E2E2E2E2E2E2E2E2F5E2E2E2E2E2E2E2E2E2E2E2E2E2E2E2E2E2E2E2E2E2E2E2
310
E2E2E2E2E2E2E2E2E2E2E2E2E2E2E2E2E2E2E2E2E2E2E2E2E2E2E2E2E2E2E2E2E2E2E2E2E2E2E2E2E2E2E2E2E2E2E2E2E2E2E2E2E2E2E2E2E2E2E2E2E2E2E2E2E2E2E2E2E2E2E2E2E2E2E2E2E2E2E2E2E2E2E2E2E2E2E2E2E2E2E2E2E2E2E2E2E2E2E2E2E2E2E2E2E2E2E2E2E2E2E2E2E2F5E2E2E2E2E2E2E2E2E2E2E2E2E2
310
E2E2E2E2F5E2E2F5F5E2E2F5E2E2E2E2E2E2E2E2E2E2E2E2E2E2E2E2E2F5E2E2E2E2E2E2E2E2E2E2E2E2E2E2E2E2E2E2E2E2E2E2E2E2E2E2E2E2E2E2E2E2E2E2E2E2E2E2E2E2E2E2E2E2E2E2E2E2E2E2E2E2E2E2E2E2E2E2E2E2E2E2E2E2E2E2E2E2E2E2E2E2E2E2E2E2E2E2E2E2E2E2E2E2E2E2E2E2E2E2E2E2E2E2E2E2E2
310
E2E2E2E2E2E2E2E2E2E2E2E2E2E2E2E2E2E2E2E2E2E2E2E2E2E2E2E2E2E2E2E2E2E2E2E2E2E2E2F5E2E2E2E2E2E2E2E2E2E2E2E2E2E2E2E2E2F5E2E2F5F5E2E2F5E2E2E2E2E2E2E2E2E2E2E2E2E2E2E2E2E2F5E2E2E2E2E2E2E2E2E2E2E2E2E2E2E2E2E2E2E2E2E2E2E2E2E2E2E2E2E2E2E2E2E2E2E2E2E2E2E2E2E2E2E2E2
310
E2E2E2E2E2E2E2E2E2E2E2E2E2E2E2E2E2E2E2E2E2E2E2E2E2E2E2E2E2E2E2E2E2E2E2E2E2E2E2E2E2E2E2E2E2E2E2E2E2E2E2E2E2E2E2E2E2E2E2E2E2E2E2E2E2E2E2E2E2E2E2E2E2E2E2E2E2E2E2E2E2E2E2E2E2E2E2E2E2E2E2E2F5E2E2E2E2E2E2E2E2E2E2E2E2E2E2E2E2E2F5E2E2F5F5E2E2F5E2E2E2E2E2E2E2E2E2
310
E2E2E2E2E2E2E2E2F5E2E2E2E2E2E2E2E2E2E2E2E2E2E2E2E2E2E2E2E2E2E2E2E2E2E2E2E2E2E2E2E2E2E2E2E2E2E2E2E2E2E2E2E2E2E2E2E2E2E2E2E2E2E2E2E2E2E2E2E2E2E2E2E2E2E2E2E2E2E2E2E2E2E2E2E2E2E2E2E2E2E2E2E2E2E2E2E2E2E2E2E2E2E2E2E2E2E2E2E2E2E2E2E2E2E2E2E2E2E2E2E2E2E2E2E2E2E2
310
E2E2E2E2E2E2E2E2E2E2E2E2E2E2E2E2E2E2F5E2E2E2E2E2E2E2E2E2E2E2E2E2E2E2E2E2F5E2E2F5F5E2E2F5E2E2E2E2E2E2E2E2E2E2E2E2E2E2E2E2E2F5E2E2E2E2E2E2E2E2E2E2E2E2E2E2E2E2E2E2E2E2E2E2E2E2E2E2E2E2E2E2E2E2E2E2E2E2E2E2E2E2E2E2E2E2E2E2E2E2E2E2E2E2E2E2E2E2E2E2E2E2E2E2E2E2E2
310
E2E2E2E2E2E2E2E2E2E2E2E2E2E2E2E2E2E2E2E2E2E2E2E2E2E2E2E2E2E2E2E2E2E2E2E2E2E2E2E2E2E2E2E2E2E2E2E2E2E2E2E2E2E2E2E2E2E2E2E2E2E2E2E2E2E2E2E2E2E2E2F5E2E2E2E2E2E2E2E2E2E2E2E2E2E2E2E2E2F5E2E2F5F5E2E2F5E2E2E2E2E2E2E2E2E2E2E2E2E2E2E2E2E2F5E2E2E2E2E2E2E2E2E2E2E2E2
310
E2E2E2E2E2E2E2E2E2E2E2E2E2E2E2E2E2E2E2E2E2E2E2E2E2E2E2E2E2E2E2E2E2E2E2E2E2E2E2E2E2E2E2E2E2E2E2E2E2E2E2E2E2E2E2E2E2E2E2E2E2E2E2E2E2E2E2E2E2E2E2E2E2E2E2E2E2E2E2E2E2E2E2E2E2E2E2E2E2E2E2E2E2E2E2E2E2E2E2E2E2E2E2E2E2E2E2E2E2E2E2E2E2E2E2E2E2E2E2E2E2E2E2E2F5E2E2
310
E2E2E2E2E2E2E2E2E2E2E2E2E2E2E2F5E2E2F5F5E2E2F5E2E2E2E2E2E2E2E2E2E2E2E2E2E2E2E2E2F5E2E2E2E2E2E2E2E2E2E2E2E2E2E2E2E2E2E2E2E2E2E2E2E2E2E2E2E2E2E2E2E2E2E2E2E2E2E2E2E2E2E2E2E2E2E2E2E2E2E2E2E2E2E2E2E2E2E2E2E2E2E2E2E2E2E2E2E2E2E2E2E2E2E2E2E2E2E2E2E2E2E2E2E2E2E2
310
E2E2E2E2E2E2E2E2E2E2E2E2E2E2E2E2E2E2E2E2E2E2E2E2E2E2E2E2E2E2E2E2E2E2E2E2E2E2E2E2E2E2E2E2E2E2E2E2E2E2F5E2E2E2E2E2E2E2E2E2E2E2E2E2E2E2E2E2F5E2E2F5F5E2E2F5E2E2E2E2E2E2E2E2E2E2E2E2E2E2E2E2E2F5E2E2E2E2E2E2E2E2E2E2E2E2E2E2E2E2E2E2E2E2E2E2E2E2E2E2E2E2E2E2E2E2E2
310
E2E2E2E2E2E2E2E2E2E2E2E2E2E2E2E2E2E2E2E2E2E2E2E2E2E2E2E2E2E2E2E2E2E2E2E2E2E2E2E2E2E2E2E2E2E2E2E2E2E2E2E2E2E2E2E2E2E2E2E2E2E2E2E2E2E2E2E2E2E2E2E2E2E2E2E2E2E2E2E2E2E2E2E2E2E2E2E2E2E2E2E2E2E2E2E2E2E2E2E2E2E2E2F5E2E2E2E2E2E2E2E2E2E2E2E2E2E2E2E2E2F5E2E2F5F5E2
310
E2E2E2E2E2E2E2E2E2E2E2E2E2E2E2E2E2E2E2F5E2E2E2E2E2E2E2E2E2E2E2E2E2E2E2E2E2E2E2E2E2E2E2E2E2E2E2E2E2E2E2E2E2E2E2E2E2E2E2E2E2E2E2E2E2E2E2E2E2E2E2E2E2E2E2E2E2E2E2E2E2E2E2E2E2E2E2E2E2E2E2E2E2E2E2E2E2E2E2E2E2E2E2E2E2E2E2E2E2E2E2E2E2E2E2E2E2E2E2E2E2E2E2E2E2E2E2
310
E2E2E2E2E2E2E2E2E2E2E2E2E2E2E2E2E2E2E2E2E2E2E2E2E2E2E2E2E2F5E2E2E2E2E2E2E2E2E2E2E2E2E2E2E2E2E2E2E2E2F5F5E2E2E2E2E2E2E2E2E2E2E2E2E2E2E2E2E2E2E2E2F5E2E2E2E2E2E2E2E2E2E2E2E2E2E2E2E2E2E2E2E2E2E2E2E2E2E2E2E2E2E2E2E2E2E2E2E2E2E2E2E2E2E2E2E2E2E2E2E2E2E2E2E2E2E2
310
E2E2E2E2E2E2E2E2E2E2E2E2E2E2E2E2E2E2E2E2E2E2E2E2E2E2E2E2E2E2E2E2E2E2E2E2E2E2E2E2E2E2E2E2E2E2E2E2E2E2E2E2E2E2E2E2E2E2E2E2E2E2E2E2E2E2E2E2E2E2E2E2E2E2E2E2E2E2E2E2E2E2F5E2E2E2E2E2E2E2E2E2E2E2E2E2E2E2E2E2E2E2E2F5F5E2E2E2E2E2E2E2E2E2E2E2E2E2E2E2E2E2E2E2E2F5E2
310
E2E2E2E2E2E2E2E2E2E2E2E2E2E2E2E2E2E2E2E2E2E2E2E2E2E2E2E2E2E2E2E2E2E2E2E2E2E2E2E2E2E2E2E2E2E2E2E2E2E2E2E2E2E2E2E2E2E2E2E2E2E2E2E2E2E2E2E2E2E2E2E2E2E2E2E2E2E2E2E2E2E2E2E2E2E2E2E2E2E2E2E2E2E2E2E2E2E2E2E2E2E2E2E2E2E2E2E2E2E2E2E2E2E2E2E2E2E2E2E2E2E2E2E2E2E2E2
310
E2E2E2E2E2E2E2E2F5E2E2E2E2E2E2E2E2E2E2E2E2E2E2E2E2E2E2E2E2F5F5E2E2E2E2E2E2E2E2E2E2E2E2E2E2E2E2E2E2E2E2F5E2E2E2E2E2E2E2E2E2E2E2E2E2E2E2E2E2E2E2E2E2E2E2E2E2E2E2E2E2E2E2E2E2E2E2E2E2E2E2E2E2E2E2E2E2E2E2E2E2E2E2E2E2E2E2E2E2E2E2E2E2E2E2E2E2E2E2E2E2E2E2E2E2E2E2
310
E2E2E2E2E2E2E2E2E2E2E2E2E2E2E2E2E2E2E2E2E2E2E2E2E2E2E2E2E2E2E2E2E2E2E2E2E2E2E2E2E2E2E2E2E2E2E2E2E2E2E2E2E2E2E2E2E2E2E2E2E2F5E2E2E2E2E2E2E2E2E2E2E2E2E2E2E2E2E2E2E2E2F5F5E2E2E2E2E2E2E2E2E2E2E2E2E2E2E2E2E2E2E2E2F5E2E2E2E2E2E2E2E2E2E2E2E2E2E2E2E2E2E2E2E2E2E2
310
E2E2E2E2E2E2E2E2E2E2E2E2E2E2E2E2E2E2E2E2E2E2E2E2E2E2E2E2E2E2E2E2E2E2E2E2E2E2E2E2E2E2E2E2E2E228E2E2E2E2E2E2E2E2E2E2E2E2E2E2E2E2E2E2E2E2E2E2E2E2E2E2E2E2E2E2E2E2E2E2E2E2E2E2E2E2E2E2E2E2E2E2E2E2E2E2E2E2E2E2E2E2E2E2E2E2E2E2E2E2E2E2E2F5E2E2E2E2E2E2E2E2E2E2E2E2
310
E2E2E2E2E2E2E2E2F5F5E2E2E2E2E2E2E2E2E2E2E2E2E2E2E2E2E2E2E2E2F5E2E2E2E2E2E2E2E2E2E2E2E2E2E2E2E2E2E2E2E2E2E2E2E2E2E2E2E2E2E2E2E2E2E2F5DCF5F5F5F5F5F5F5F5F5F5F5F5F5F5F5F5F5F5F5F5F5F5F5F5F5F5F5F5F5F5F5F528F5F5F5F5F5F5F5F5F5F5F5F5F5F5F5F5F5F5F5F5F5F5F5F5F5F5F5
310
F5F5F5F5E2E2E2E2E2E2E2E2E2E2E2E2E2E2E2E2E2E2E2E2E2E2E2E2E2E2E2E2E2E2E2E2E2E2E2E2F5E2E2E2E2E2E2E2E2E2E2E2E2E2E2E2E2E2E2E2E2F5F5E2E2E2E2E2E2E2E2E2E2E2E2E2E2E2E2E2E2E2E2F5E2E2E2E2E2E2E2E2E2E2E2E2E2E2E2E2E2E2E2E2E2E2E2E2E2E2E2E2E2E2E2E2E2E2F5DCF5E2E2E2E2E2E2
310
E2E2E2E2E2E2E2E2E2E2DCE2E2E2E2E2E2E2E2E2E2E2E2E2E228E2E2E2E2E2E2E2E2E2E2E2E2E2E2E2E2E2E2E2E2E2E2E2E2E2E2E2F5E2E2F5E2E2E2E2E2E2E2E2E2E2E2E2E2E2E2E2E2E2E2E2E2E2E2E2E2E2E2E2E2E2E2E2E2E2E2E2F5E2E2E2E2E2E2E2E2E2E2E2E2E2E2E2E2E2E2E2E2F5F5E2E2E2E2E2E2E2E2E2E2E2
310
E2E2E2E2E2E2E2E2E2F5E2E2E2E2E2E2E2E2E2E2E2E2E2E2E2E2E2E2E2E2E2E2E2E2E2E2E2E2E2E2E2E2E2E2F5E2F5E2E2E2E2E2E2E2E2E2E2E2E2E2E2E2E2DCE2E2E2E2E2E2E2E2E2E2E2E2E2E228E2E2E2E2E2E2E2E2E2E2E2E2E2E2E2E2E2E2E2E2E2E2E2E2E2E2E2F5E2E2F5E2E2E2E2E2E2E2E2E2E2E2E2E2E2E2E2E2
310
E2E2E2E2E2E2E2E2E2E2E2E2E2E2E2E2E2E2E2F5E2E2E2E2E2E2E2E2E2E2E2E2E2E2E2E2E2E2E2E2F5F5E2E2E2E2E2E2E2E2E2E2E2E2E2E2E2E2E2E2E2E2F5E2E2E2E2E2E2E2E2E2E2E2E2E2E2E2E2E2E2E2E2E2E2E2E2E2E2E2E2E2E2E2E2E2E2F5F5F5F5F5F5F5F5F5F5F5F5F5F5F5F5F5F5F5DCF5F5F5F5F5F5F5F5F5F5
310
F5F5F5F528F52DF5F5F5F5F5F5F5F5F5F5F5F5F5F5F5F5F5F5F5F5F5F5F5F5F5F5F5F5F5E2E2E2E2E2E2E2E2E2E2E2E2E2E2E2E2E2E2E2E2E2E2E2E2E2E2E2E2E2E2E2E2E2E2E2E2F5E2E2E2E2E2E2E2E2E2E2E2E2E2E2E2E2E2E2E2E2F5F5E2E2F5E2E2E2E2E2E2E2E2E2E2E2E2E2E2E2E2E2F5E2E2E2E2E2E2E2E2E2E2E2
310
E2E2E2E2E2E2E2E2E2E2E2E2E2E2E2E2E2E2E2E2E2E2E2F5E2F5F5F5F5F5F5F5F5F5F5F5F5F5F5F5F5F5DCF5F5F5F5F5F5F5F5F5F5F5F5F5F528F52D2DF5F5F5BEF5F5F5F5F5F5F5F5F5F5F5F5F5F5F5F5F5F5F5F5F5DCE2F5E2E2E2E2E2E2E2E2E2E2E2E2E2E2E2E2E2E2E2E2E2E2E2E2E2E2E2E2E2E2E2E2E2E2E2E2F5E2
310
E2E2E2E2E2E2E2E2E2E2E2E2E2E2E2E2F5E2E2F5F5E2E2F5E2E2E2E2E2E2E2E2E2E2E2E2E2E2E2E2E2F5E2E2E2E2E2E2E2E2E2E2E2E2E2E2E2E2E2E2E2E2E2E2E2E2E2E2E2E2E2E2E2E2E2E2F5F5F5DCDCDCDCDCDCDCDCDCDCDCDCDCDCDCDCDC2DDCDCDCBEDCDCDCDCDCDCDCDCDC28DCDCDCDCDCDCDCDCDCDCDCDCDCDCDCDC
310
DCDCDCDCDCDCDCDCDCDCDCF5F5F5F5E2E2E2E2E2E2E2E2E2E2E2E2E2E2E2E2E2E2E2E2E2E2E2E2E2E2E2E2E2E2E2E2E2E2E2E2F5E2E2E2E2E2E2E2E2E2E2E2E2E2E2E2E2E2F5E2E2F5F5E2E2F5E2E2E2E2E2E2E2E2E2E2E2E2E2E2E2E2E2F5E2E2E2E2E2E2E2E2E2E2E2E2E2E2E2E2E2E2E2E2E2E2E2E2E2E2E2E2E2E2E2E2
310
E2E2F5E2F5F5F5F5F5F5F5F5F5F5F5F5F5F5F5F5F5DCF5F5F5F5F5F5F5F5F5F5F5F5F5F528F5F5F5F5F5F5F5F5F5F5F5F5F5F5F5F5F5F5F5F5F5F5F5F5F5F5F5F5E2E2F5E2E2E2E2E2E2E2E2E2E2E2E2E2E2E2E2E2E2E2E2E2E2E2E2E2E2E2E2E2E2E2E2E2E2E2E2F5E2E2E2E2E2E2E2E2E2E2E2E2E2E2E2E2E2F5E2E2F5F5
310
E2E2F5E2E2E2E2E2E2E2E2E2E2E2E2E2E2E2E2E2F5E2E2E2E2E2E2E2E2E2E2E2E2E2E2E2E2E2E2E2E2E2E2E2E2E2E2E2E2E2E2E2E2E2E2F5F5F5F5F5F5F5F5F5F5F5F5F5F5F5F5F5F5F5DCF5F5F5F5F5F5F5F5F5F5F5F5E2E228E2E2E2E2E2E2E2E2E2E2E2E2E2E2E2E2E2E2E2E2E2E2E2F5F5F5F5F5F5F5F5E2E2E2E2E2E2
310
E2E2E2E2E2E2E2E2E2E2E2E2E2E2E2E2E2E2E2E2E2E2E2E2E2E2E2E2E2E2F5E2E2E2E2E2E2E2E2E2E2E2E2E2E2E2E2E2F5E2E2F5F5E2E2F5E2E2E2E2E2E2E2E2E2E2E2E2E2E2E2E2E2F5E2E2E2E2E2E2E2E2E2E2E2E2E2E2E2E2E2E2E2E2E2E2E2E2E2E2E2E2E2E2E2E2E2E2E2E2E2E2E2E2E2E2E2E2E2E2E2E2E2E2E2E2E2
310
DCE2E2E2E2E2E2E2E2E2E2E2E2E2E228E2E2E2E2E2E2E2E2E2E2E2E2E2E2E2E2E2E2E2E2E2E2E2E2E2E2E2E2E2E2E2E2E2E2E2E2E2E2E2E2E2E2E2E2E2E2E2E2E2E2E2E2E2E2E2E2E2E2E2E2E2E2E2E2E2E2E2F5E2E2E2E2E2E2E2E2E2E2E2E2E2E2E2E2E2F5E2E2F5F5E2E2F5E2E2E2E2E2E2E2E2E2E2E2E2E2E2E2E2E2F5
310
E2E2E2E2E2E2E2E2E2E2E2E2E2E2E2E2E2E2E2E2E2E2E2E2E2E2E2E2E2E2E2E2E2E2E2E2E2E2E2E2E2E2E2E2E2E2E2E2E2E2E2E2E2E2E2E2E2E2E2E2E2E2E2E2E2E2E2E228E2E2E2E2E2E2E2E2E2E2E2E2E2E2E2E2E2E2E2E2E2E2E2E2E2E2E2E2E2E2E2E2E2E2E2E2E2E2E2E2E2E2E2E2E2E2E2E2E2E2E2E2E2E2E2E2E2E2
310
E2E2E2E2E2E2E2E2E2F5E2E2E2E2E2E2E2E2E2E2E2E2E2E2E2E2E2F5E2E2F5F5E2E2F5E2E2E2E2E2E2E2E2E2E2E2E2E2E2E2E2E2F5E2E2E2E2E2E2E2E2E2E2E2E2E2E2E2E2E2E2E2E2E2E2E2E2E2E2E2E2E2E2E2E2E2E2E2E2E2E2E2E2E2E2E2E2E2E2E2E2E2E2E2E2E2E2E2E2E2E2E2E2E2E2E2E2E2E2E2E228E2E2E2E2E2
310
E2E2E2E2E2E2E2E2E2E2E2E2E2E2E2E2E2E2E2E2E2E2E2E2E2E2E2E2E2E2E2E2E2E2E2E2E2E2E2E2E2E2E2E2E2E2E2E2E2E2E2E2E2E2E2E2E2E2E2E2E2E2F5E2E2E2E2E2E2E2E2E2E2E2E2E2E2E2E2E2F5E2E2F5F5E2E2F5E2E2E2E2E2E2E2E2E2E2E2E2E2E2E2E2E2F5E2E2E2E2E2E2E2E2E2E2E2E2E2E2E2E2E2E2E2E2E2
310
E2E2E2E2E2E2E2E2E2E2E2E2E2E2E2E2E2E2E2E2E2E2E2E2E2E2E2E2E2E2E2E2E2E2E2E2E2E2E2E2E2E2E2E2E2E2E228E2E2E2E2E2E2E2E2E2E2E2E2E2E2E2E2E2E2E2E2E2E2E2E2E2E2E2E2E2E2E2E2E2E2E2E2E2E2E2E2E2E2E2E2E2E2E2E2E2E2E2E2E2E2E2E2E2E2E2E2E2E2E2E2E2E2E2F5E2E2E2E2E2E2E2E2E2E2E2
310
E2E2E2E2E2E2F5E2E2F5F5E2E2F5E2E2E2E2E2E2E2E2E2E2E2E2E2E2E2E2E2F5E2E2E2E2E2E2E2E2E2E2E2E2E2E2E2E2E2E2E2E2E2E2E2E2E2E2E2E2E2E2E2E2E2E2E2E2E2E2E2E2E2E2E2E2E2E2E2E2E2E2E2E2E2E2E2E2E2E2E2E2E2E2E2E2E2E2E2E228E2E2E2E2E2E2E2E2E2E2E2E2E2E2E2E2E2E2E2E2E2E2E2E2E2E2
310
E2E2E2E2E2E2E2E2E2E2E2E2E2E2E2E2E2E2E2E2E2E2E2E2E2E2E2E2E2E2E2E2E2E2E2E2E2E2E2E2E2F5E2E2E2E2E2E2E2E2E2E2E2E2E2E2E2E2E2F5E2E2F5F5E2E2F5E2E2E2E2E2E2E2E2E2E2E2E2E2E2E2E2E2F5E2E2E2E2E2E2E2E2E2E2E2E2E2E2E2E2E2E2E2E2E2E2E2E2E2E2E2E2E2E2E2E2E2E2E2E2E2E2E2E2E2E2
310
E2E2E2E2E2E2E2E2E2E2E2E2E2E2E2E2E2E2E2E2E2E2E2E2E2E228E2E2E2E2E2E2E2E2E2E2E2E2E2E2E2E2E2E2E2E2E2E2E2E2E2E2E2E2E2E2E2E2E2E2E2E2E2E2E2E2E2E2E2E2E2E2E2E2E2E2E2E2E2E2E2E2E2E2E2E2E2E2E2E2E2E2E2F5E2E2E2E2E2E2E2E2E2E2E2E2E2E2E2E2E2F5E2E2F5F5E2E2F5E2E2E2E2E2E2E2
310
E2E2E2E2E2E2E2E2E2E2F5E2E2E2E2E2E2E2E2E2E2E2E2E2E2E2E2E2E2E2E2E2E2E2E2E2E2E2E2E2E2E2E2E2E2E2E2E2E2E2E2E2E2E2E2E2E2E2E2E2E2E2E2E2E2E2E2E2E2E2E2E2E2E2E2E2E2E2E228E2E2E2E2E2E2E2E2E2E2E2E2E2E2E2E2E2E2E2E2E2E2E2E2E2E2E2E2E2E2E2E2E2E2E2E2E2E2E2E2E2E2E2E2E2E2E2
310
E2E2E2E2E2E2E2E2E2E2E2E2E2E2E2E2E2E2E2E2F5E2E2E2E2E2E2E2E2E2E2E2E2E2E2E2E2E2F5E2E2F5F5E2E2F5E2E2E2E2E2E2E2E2E2E2E2E2E2E2E2E2E2F5E2E2E2E2E2E2E2E2E2E2E2E2E2E2E2E2E2E2E2E2E2E2E2E2E2E2E2E2E2E2E2E2E2E2E2E2E2E2E2E2E2E2E2E2E2E2E2E2E2E2E2E2E2E2E2E2E2E2E2E2E2E2E2
310
E2E2E2E2E228E2E2E2E2E2E2E2E2E2E2E2E2E2E2E2E2E2E2E2E2E2E2E2E2E2E2E2E2E2E2E2E2E2E2E2E2E2E2E2E2E2E2E2E2E2E2E2E2E2E2E2E2E2E2E2E2E2E2E2E2E2E2E2E2E2E2E2F5E2E2E2E2E2E2E2E2E2E2E2E2E2E2E2E2E2F5E2E2F5F5E2E2F5E2E2E2E2E2E2E2E2E2E2E2E2E2E2E2E2E2F5E2E2E2E2E2E2E2E2E2E2
310
E2E2E2E2E2E2E2E2E2E2E2E2E2E2E2E2E2E2E2E2E2E2E2E2E2E2E2E2E2E2E2E2E2E2E2E2E2E2E2E2E2E2E2E2E2E2E2E2E2E2E2E2E2E2E2E2E2E228E2E2E2E2E2E2E2E2E2E2E2E2E2E2E2E2E2E2E2E2E2E2E2E2E2E2E2E2E2E2E2E2E2E2E2E2E2E2E2E2E2E2E2E2E2E2E2E2E2E2E2E2E2E2E2E2E2E2E2E2E2E2E2E2E2E2E2F5
310
E2E2E2E2E2E2E2E2E2E2E2E2E2E2E2E2E2F5E2E2F5F5E2E2F5E2E2E2E2E2E2E2E2E2E2E2E2E2E2E2E2E2F5E2E2E2E2E2E2E2E2E2E2E2E2E2E2E2E2E2E2E2E2E2E2E2E2E2E2E2E2E2E2E2E2E2E2E2E2E2E2E2E2E2E2E2E2E2E2E2E2E2E2E2E2E2E2E2E2E2E2E2E2E2E2E2E2E2E2E2E228E2E2E2E2E2E2E2E2E2E2E2E2E2E2E2
310
E2E2E2E2E2E2E2E2E2E2E2E2E2E2E2E2E2E2E2E2E2E2E2E2E2E2E2E2E2E2E2E2E2E2E2E2E2E2E2E2E2E2E2E2E2E2E2E2E2E2E2E2F5E2E2E2E2E2E2E2E2E2E2E2E2E2E2E2E2E2F5E2E2F5F5E2E2F5E2E2E2E2E2E2E2E2E2E2E2E2E2E2E2E2E2F5E2E2E2E2E2E2E2E2E2E2E2E2E2E2E2E2E2E2E2E2E2E2E2E2E2E2E2E2E2E2E2
310
E2E2E2E2E2E2E2E2E2E2E2E2E2E2E2E2E2E2E2E2E2E2E2E2E2E2E2E2E2E2E2E2E2E2E2E2E228E2E2E2E2E2E2E2E2E2E2E2E2E2E2E2E2E2E2E2E2E2E2E2E2E2E2E2E2E2E2E2E2E2E2E2E2E2E2E2E2E2E2E2E2E2E2E2E2E2E2E2E2E2E2E2E2E2E2E2E2E2E2E2E2E2E2E2F5E2E2E2E2E2E2E2E2E2E2E2E2E2E2E2E2E2F5E2E2F5
310
F5E2E2F5E2E2E2E2E2E2E2E2E2E2E2E2E2E2E2E2E2F5E2E2E2E2E2E2E2E2E2E2E2E2E2E2E2E2E2E2E2E2E2E2E2E2E2E2E2E2E2E2E2E2E2E2E2E2E2E2E2E2E2E2E2E2E2E2E2E2E2E2E2E2E2E2E2E2E2E2E2E2E2E2E2E2E2E2E2E228E2E2E2E2E2E2E2E2E2E2E2E2E2E2E2E2E2E2E2E2E2E2E2E2E2E2E2E2E2E2E2E2E2E2E2E2
310
E2E2E2E2E2E2E2E2E2E2E2E2E2E2E2E2E2E2E2E2E2E2E2E2E2E2E2E2E2E2E2F5E2E2E2E2E2E2E2E2E2E2E2E2E2E2E2E2E2F5E2E2F5F5E2E2E2E2E2E2E2E2E2E2E2E2E2E2E2E2E2E2E2E2F5E2E2E2E2E2E2E2E2E2E2E2E2E2E2E2E2E2E2E2E2E2E2E2E2E2E2E2E2E2E2E2E2E2E2E2E2E2E2E2E2E2E2E2E2E2E2E2E2E2E2E2E2
310
E2E2E2E2E2E2E2E2E2E2E2E2E2E2E2E228E2E2E2E2E2E2E2E2E2E2E2E2E2E2E2E2E2E2E2E2E2E2E2E2E2E2E2E2E2E2E2E2E2E2E2E2E2E2E2E2E2E2E2E2E2E2E2E2E2E2E2E2E2E2E2E2E2E2E2E2E2E2E2E2E2E2E2F5E2E2E2E2E2E2E2E2E2E2E2E2E2E2E2E2E2E2E2E2F5F5E2E2E2E2E2E2E2E2E2E2E2E2E2E2E2E2E2E2E2E2
310
F5E2E2E2E2E2E2E2E2E2E2E2E2E2E2E2E2E2E2E2E2E2E2E2E2E2E2E2E2E2E2E2E2E2E2E2E2E2E2E2E2E2E2E2E2E2E2E2E2E2E2E2E2E2E2E2E2E2E2E2E2E2E2E2E2E2E2E2E228E2E2E2E2E2E2E2E2E2E2E2E2E2E2E2E2E2E2E2E2E2E2E2E2E2E2E2E2E2E2E2E2E2E2E2E2E2E2E2E2E2E2E2E2E2E2E2E2E2E2E2E2E2E2E2E2E2
310
E2E2E2E2E2E2E2E2E2E2F5E2E2E2E2E2E2E2E2E2E2E2E2E2E2E2E2E2E2E2E2F5F5E2E2E2E2E2E2E2E2E2E2E2E2E2E2E2E2E2E2E2E2F5E2E2E2E2E2E2E2E2E2E2E2E2E2E2E2E2E2E2E2E2E2E2E2E2E2E2E2E2E2E2E2E2E2E2E2E2E2E2E2E2E2E2E2E2E2E2E2E2E2E2E2E2E2E2E2E2E2E2E2E2E2E2E2E2E2E2E2E228E2E2E2E2
310
E2E2E2E2E2E2E2E2E2E2E2E2E2E2E2E2E2E2E2E2E2E2E2E2E2E2E2E2E2E2E2E2E2E2E2E2E2E2E2E2E2E2E2E2E2E2E2E2E2E2E2E2E2E2E2E2E2E2E2E2E2E2E2F5E2E2E2E2E2E2E2E2E2E2E2E2E2E2E2E2E2E2E2E2F5F5E2E2E2E2E2E2E2E2E2E2E2E2E2E2E2E2E2E2E2E2F5E2E2E2E2E2E2E2E2E2E2E2E2E2E2E2E2E2E2E2E2
310
E2E2E2E2E2E2E2E2E2E2E2E2E2E2E2E2E2E2E2E2E2E2E2E2E2E2E2E2E2E2E2E2E2E2E2E2E2E2E2E2E2E2E2E2E2E2E2E228E2E2E2E2E2E2E2E2E2E2E2E2E2E2E2E2E2E2E2E2E2E2E2E2E2E2E2E2E2E2E2E2E2E2E2E2E2E2E2E2E2E2E2E2E2E2E2E2E2E2E2E2E2E2E2E2E2E2E2E2E2E2E2E2E2E2E2F5E2E2E2E2E2E2E2E2E2E2
310
E2E2E2E2E2E2E2E2E2E2F5F5E2E2E2E2E2E2E2E2E2E2E2E2E2E2E2E2E2E2E2E2F5E2E2E2E2E2E2E2E2E2E2E2E2E2E2E2E2E2E2E2E2E2E2E2E2E2E2E2E2E2E2E2E2E2E2E2E2E2E2E2E2E2E2E2E2E2E2E2E2E2E2E2E2E2E2E2E2E2E2E2E2E2E2E2E2E2E2E2E228E2E2E2E2E2E2E2E2E2E2E2E2E2E2E2E2E2E2E2E2E2E2E2E2E2
310
E2E2E2E2E2E2E2E2E2E2E2E2E2E2E2E2E2E2E2E2E2E2E2E2E2E2E2E2E2E2E2E2E2E2E2E2E2E2E2E2E2E2F5E2E2E2E2E2E2E2E2E2E2E2E2E2E2E2E2E2E2E2E2F5F5E2E2E2E2E2E2E2E2E2E2E2E2E2E2E2E2E2E2E2E2F5E2E2E2E2E2E2E2E2E2E2E2E2E2E2E2E2E2E2E2E2E2E2E2E2E2E2E2E2E2E2E2E2E2E2E2E2E2E2E2E2E2
310
E2E2E2E2E2E2E2E2E2E2E2E2DCE2E2E2E2E2E2E2E2E2E2E2E2E2E228E2E2E2E2E2E2E2E2E2E2DCE2E2E2E2E2E2E2E2E2E2E2E2E2E2E2E2E2E2E2E2E2E2E2E2E2E2E2E2E2E2E2E2E2E2E2E2E2E2E2E2E2E2E2E2E2E2E2E2E2E2E2E2E2E2E2E2F5E2E2E2E2E2E2E2E2E2E2E2E2E2E2E2E2E2E2E2E2F5F5E2E2E2E2E2E2E2E2E2
310
E2E2E2E2E2E2E2E2E2E2E2F5E2E2E2E2E2E2E2E2E2E2E2F5F5F5F5F5F5F5F5E2E2E2E2E2E2E2E2E2E2E2E2E2E2E2F5F5F5F5F5F5F5F5F5F5F5F5F5F5F5F5F5F5F5F5F5F5F5F5F5F5F5F5F5F5F5F5F5F528F5F5F5F5F5F5F5F5F5F5F5F5F5F5F5F5F5F5F5F5F5F5F5F5F5F5F5F5F5F5F5E2E2E2E2E2E2E2E2E2E2E2E2E2E2E2
310
F5F52D2DF5F5F5F5E2E2E2E2E2E2E2E2E2E2E2E2E2F5E2E2E2E2E2E2E2E2E2E2E2E2E2E2E2E2E2E2E2E2F5F5E2E2E2E2E2E2E2E2E2E2E2E2E2E2E2E2E2E2E2E2F5E2E2E2E2E2E2E2E2E2E2E2F5E2F5F5F5E2F5F5E2E2E2E2E2E2E2E2E2E2E2E2E2E2E2F5E2F5F5F5F5F5F5DCDCDCDCDCDCDCDCDCDCDC2D2DDCDCDCDCDCDCDC
310
DCDCDCF5F5F528F5F5F5F5F5F5F5F5F5F5F5F5F5F5F5F5F5F5F5F5F5F5F5F5F5F5F5F5E2E2F5E2E2E2E2E2E2E2E2E2E2E2E2E2E2E2F5E22D2D2DE2E2F5E2E2E2E2E2E2E2E2E2E2E2E2E2F5E2E2E2E2E2E2E2E2E2E2E2E2E2E2E2E2E2E2E2E2F5F5E2E2F5E2E2E2E2E2E2E2E2E2E2E2E2E2E2E2E2E2F5E2E2E2E2E2E2E2E2E2
310
E2E2DCDCE2BEBEE2F5F5E2E2E2E2E2E2E2E2E2E2E2E2E2E2E2F5DCF5E2E2E2E2F5E2DCE2E2E2E2E2E2E2E2E22D2DE2E2E2E2E2E2E2E2DCDCF5E2E228E2E2E2E2E2E2E2E2E2E2DCE2E2E2E2E2E2E2E2E2E2E2E2E2E2E2E2F5DCE2F5E2E2E2E2E2E2E2E2E2E2E2E2E2E2E2F5E2BEBEE2DCDCF5E2E2E2E2E2E2E2E2E2E2E2E2E2
310
F5E2E2E2E2E2E2E2E2E2E2E2E2E2E2E2E2E2F5E2E2F5F5E2E2F5E2E2E2E2E2E2E2E2E2E2E2E2E2E2E2E2E2F5E2E2E2E2E2E2E2E2E2E2DCDCDCDCE2E2E2F5F5E2E2E2E2E2E2E2E2E2E2E2E2E2E2E2F5F5F5F5F5F5F5F5E2E2E2E2E2E2E2E2E2E2E2DCE2E2E2E2E2E2E2E2E2E2E2F5E2E228E2E2E2E2E2E2E2E2E2E2DCE2E2E2
310
E2E2E2E2E2E2E2E2E2F5F5F5F5F5F5F5F5E2E2E2E2E2E2E2E2E2E2E2E2E2E2E2F5E2E2E2E2DCDCF5E2E2E2E2E2E2E2E2E2E2E2E2E2F5E2E2E2E2E2E2E2E2E2E2E2E2E2E2E2E2E2F5E2E2F5F5E2E2F5E2E2E2E2E2E2E2E2E2E2E2E2E2E2E2E2E2F5E2E2E2E2E2E2E2E2E2E2E2DCDCE2E2E2E2F5F5E2E2E2E2E2E2E2E2E2E2E2
310
E2E2E2E2F5F5F5E2E2E2E2F5E2E2E2E2E2E2E2E2E2E2E2DCE2E2E2E2E2E2E2E2E2E2E2F5F5F528F5F5F5F5F5F5F5F5F5F5F5F5F5F5F5F5F5F5F5F5F5F5F5F5E2E2E2F5F5F5F5E2E2E2E2E2E2E2E2E2E2E2E2E2E2E2F5E2E2E2E2DCDCF5E2E2E2E2E2E2E2E2E2E2E2E2E2F5E2E2E2E2E2E2E2E2E2E2E2E2E2E2E2E2E2F5E2E2
310
F5F5E2E2F5E2E2E2E2E2E2E2E2E2E2E2E2E2E2E2E2E2F5E2E2E2E2E2E2E2E2E2E2E2DCE2E2E2E2E2F5F5E2E2E2E2E2E2E2E2E2E2E2E2E2E2E2F5DCF5E2E2E2E2F5E2E2E2E2E2E2E2E2E2E2E2DCE2E2E2E2E2E2E2E2E2E2E2F5E2E228E2E2E2E2E2E2E2E2E2E2DCE2E2E2E2E2E2E2E2E2E2E2E2F5E2E2E2F5DCE2F5E2E2E2E2
310
E2E2E2E2E2E2E2E2E2E2E2F5E2E2E2E2E2DCF5E2E2E2E2E2E2E2E2E2E2E2E2E2F5E2E2E2E2E2E2E2E2E2E2E2E2E2E2E2E2E2F5E2E2F5F5E2E2F5E2E2E2E2E2E2E2E2E2E2E2E2E2E2E2E2E2F5E2E2E2E2E2E2E2E2E2E2E2DCE2E2E2E2E2F5F5E2E2E2E2E2E2E2E2E2E2E2E2E2E2E2F5E2F5E2E2E2E2F5E2E2E2E2E2E2E2E2E2
310
E2E2DCE2E2E2E2E2E2E2E2E2E2E2F5E2E228E2E2E2E2E2E2E2E2E2E2DCE2E2E2E2E2E2E2E2E2E2E2E2F5E2E2E2F5E2E2F5E2E2E2E2E2E2E2E2E2E2E2E2E2E2E2F5E2E2E2E2E2DCF5E2E2E2E2E2E2E2E2E2E2E2E2E2F5E2E2E2E2E2E2E2E2E2E2E2E2E2E2E2E2E2F5E2E2F5F5E2E2F5E2E2E2E2E2E2E2E2E2E2E2E2E2E2E2E2
310
E2F5E2E2E2E2E2E2E2E2E2E2E2DCE2E2E2E2E2F5F5E2E2E2E2E2E2E2E2E2E2E2E2E2E2E2F5E2F5E2E2E2E2F5E2E2E2E2E2E2E2E2E2E2E2DCE2E2E2E2E2E2E2E2E2E2E2F5F5F528F5F5F5F5F5F5F5F5F5F5F5F5F5F5F5F5F5F5F5F5F5F5F5F5E2E2E2F5E2E2F5E2E2E2E2E2E2E2E2E2E2E2E2E2E2E2F5E2E2E2E2E2DCF5E2E2
310
E2E2E2E2E2E2E2E2E2E2E2F5E2E2E2E2E2E2E2E2E2E2E2E2E2E2E2E2E2F5E2E2F5F5E2E2F5E2E2E2E2E2E2E2E2E2E2E2E2E2E2E2E2E2F5E2E2E2E2E2E2E2E2E2E2E2DCE2E2E2E2E2F5F5E2E2E2E2E2E2E2E2E2E2E2E2E2E2E2F5E2F5F5F5F5F5F5E2E2E2E2E2E2E2E2E2E2E2DCE2E2E2E2E2E2E2E2E2E2E2F5F5F528F5F5F5
310
F5F5F5F5F5F5F5F5F5F5F5F5F5F5F5F5F5F5F5F5F5F5F5F5F5E2E2F5E2E2E2E2E2E2E2E2E2E2E2E2E2E2E2F5E2E2E2E2E2DCF5E2E2E2E2E2E2E2E2E2E2E2E2E2F5E2E2E2E2E2E2E2E2E2E2E2E2E2E2E2E2E2F5E2E2F5F5E2E2F5E2E2E2E2E2E2E2E2E2E2E2E2E2E2E2E2E2F5E2E2E2E2E2E2E2E2E2E2E2DCE2E2E2F5E2F5F5
310
E2E2E2E2E2E2E2E2E2E2E2E2E2E2E2F5E2F5F5F5F5F5F5E2E2E2E2E2E2E2E2E2E2E2DCE2E2E2E2E2E2E2E2E2E2E2F5F5F528F5F5F5F5F5F5F5F5F5F5F5F5F5F5F5F5F5F5F5F5F5F5F5F5F5F5F5F5E2E2F5E2E2E2E2E2E2E2E2E2E2E2E2E2E2E2F5E2F5E2E2E2DCF5E2E2E2E2E2E2E2E2E2E2E2E2E2F5E2E2E2E2E2E2E2E2E2
310
E2E2E2E2E2E2E2E2F5E2E2F5F5E2E2F5E2E2E2E2E2E2E2E2E2E2E2E2E2E2E2E2E2F5E2E2E2E2E2E2E2E2E2E2E2F5E2E2F5F5F5F5F5E2E2E2E2E2E2E2E2E2E2E2E2E2E2E2F5E2F5F5E2F5E2F5E2E2E2E2E2E2E2E2E2E2E2DCE2E2E2E2E2E2E2E2E2E2E2F5E2E228E2E2E2E2E2E2E2E2E2E2DCE2E2E2E2F5F5F5DCDCDCDCDCF5
310
F5E2F5F5E2E2F5E2E2E2E2E2E2E2E2E2E2E2E2E2E2E2F5F5DCF5E2E2DCF5E2E2E2E2E2E2E2E2E2E2E2E2E2F5E2E2E2E2E2E2E2E2E2E2E2E2E2E2E2E2E2F5E2E2F5F5E2E2F5E2E2E2E2E2E2E2E2E2E2E2E2E2E2E2E2E2F5E2E2E2E2E2E2E2E2E2E2E2DCDCF5F5DCF5DCF5E2E2E2E2E2E2E2E2E2E2E2E2E2E2E2F5E2F5E2E2E2
310
E2F5E2E2E2E2E2E2E2E2E2E2E2DCE2E2E2E2E2E2E2E2E2E2E2F5E2E228E2E2E2E2E2E2E2E2E2E2DCE2E2DCDCDCDCDCDCDCDCDCDCF5DCDCDCF5DCDCF5E2E2E2E2E2E2E2E2E2E2E2E2E2E2E2F5F5DCDCF5DCDCF5E2E2E2E2E2E2E2E2E2E2E2E2E2F5E2E2E2E2E2E2E2E2E2E2E2E2E2E2E2E2E2F5E2E2F5F5E2E2F5E2E2E2E2E2
310
E2E2E2E2E2E2E2E2E2E2E2E2F5E2E2E2E2E2E2E2E2E2E2DCDCDCDCF5F5F5F5F5E2E2E2E2E2E2E2E2E2E2E2E2E2E2E2F5E2F5F5F5F5F5F5E2DCE2E2E2E2E2E2E2E2E22D2DE2E2E2E2E2E2E2E2DCDCF5F5F528F5F5F5F5F5F5F5F5F5F5F5F5F5F5F5F5F5F5F5F5F5F5F5F5F5F5F5F5E2E2F5E2E2E2E2E2E2E2E2E2E2E2E2E2E2
310
E2F5F5F5F5DCDCDCF5E2E2E2E2E2E2E2E2E2E2E2E2E2F5E2E2E2E2E2E2E2E2E2E2E2E2E2E2E2E2E2F5E2E2F5F5E2E2F5E2E2E2E2E2E2E2E2E2E2E2E2E2E2E2E2E2F5E2E2E2E2E2E2E2E2E2E2E2DCDCF5DCDCE2F5F5E2E2E2E2E2E2E2E2E2E2E2E2E2E2E2F5E2F5F5F5F5E2F5DCDCDCDCDCDCDCDCDCDCDC2D2DDCDCDCDCDCDC
310
DCDCDCDCF5E2E228E2E2E2E2E2E2E2E2E2E2DCE2E2E2E2E2E2E2E2E2E2E2E2F5F5F5F5F5E2E2F5E2E2E2E2E2E2E2E2E2E2E2E2E2E2E2F5E2E2DCF5DCDCF5E2E2E2E2E2E2E2E2E2E2E2E2E2F5E2E2E2E2E2E2E2E2E2E2E2E2E2E2E2E2E2F5E2E2F5F5E2E2F5E2E2E2E2E2E2E2E2E2E2E2E2E2E2E2E2E2F5E2E2E2E2E2E2E2E2
310
E2E2E2F5DCDCDCE2E2F5F5E2E2E2E2E2E2E2E2E2E2E2E2E2E2E2F5E2F5F5F5F5F5F5E2DCE2E2E2E2E2E2E2E2E2DCE2E2E2E2E2E2E2E2E2E2DCF5F5F528F5F5F5F5F5F5F5F5F5F5F5F5F5F5F5F5F5F5F5F5F5F5F5F5F5F5F5F5E2E2F5E2E2E2E2E2E2E2E2E2E2E2E2E2E2E2F5E2E2E2DCDCE2F5E2E2E2E2E2E2E2E2E2E2E2E2
310
E2F5E2E2E2E2E2E2E2E2E2E2E2E2E2E2E2E2E2F5E2E2F5F5E2E2F5E2E2E2E2E2E2E2E2E2E2E2E2E2E2E2E2E2F5E2E2E2E2E2E2E2E2E2E2E2F5E2E2E2E2E2F5F5E2E2E2E2E2E2E2E2E2E2E2E2E2E2E2F5E2F5E2E2E2E2F5E2E2E2E2E2E2E2E2E2E2E2DCE2E2E2E2E2E2E2E2E2E2E2F5E2E228E2E2E2E2E2E2E2E2E2E2DCE2E2
310
E2E2E2E2E2E2E2E2E2E2E2E2E2E2F5E2E2F5E2E2E2E2E2E2E2E2E2E2E2E2E2E2E2F5E2E2E2E2E2E2F5E2E2E2E2E2E2E2E2E2E2E2E2E2F5E2E2E2E2E2E2E2E2E2E2E2E2E2E2E2E2E2F5E2E2F5F5E2E2F5E2E2E2E2E2E2E2E2E2E2E2E2E2E2E2E2E2F5E2E2E2E2E2E2E2E2E2E2E2F5E2E2DCE2E2F5F5E2E2E2E2E2E2E2E2E2E2
310
E2E2E2E2E2F5E2F5F5F5F5F5F5F5F5F5F5F5F5F5F5F5F5F5DCF5F5F5F5F5F5F5F5F5F5F5F5F5F528F5F5F5F5F5F5F5F5F5F5F5F5F5F5F5F5F5F5F5F5F5F5F5F5F5F5F5F5E2E2F5E2E2E2E2E2E2E2E2E2E2E2E2E2E2E2F5E2E2E2E2E2E2F5E2E2E2E2E2E2E2E2E2E2E2E2E2F5E2E2E2E2E2E2E2E2E2E2E2E2E2E2E2E2E2F5E2
310
E2F5F5E2E2F5E2E2E2E2E2E2E2E2E2E2E2E2E2E2E2E2E2F5E2E2E2E2E2E2E2E2E2E2E2F5E2E2DCDCE2F5E2E2E2E2E2E2E2E2E2E2E2E2E2E2E2E2F5E2F5E2E2E2E2E2E2E2E2E2E2E2F5E2E2E2E2DCE2E2E2E2E2F5E2E2E2E2E2E2E2E228E2E2E2E2E2E2E2E2E2E2DCE2E2E2E2E2E2E2E2E2E2E2E2E2E2E2E2F5E2E2F5E2E2E2
310
E2E2E2E2E2E2E2E2E2E2E2E2F5E2E2DCDCE2E2F5E2E2E2E2E2E2E2E2E2E2E2E2E2F5E2E2E2E2E2E2E2E2E2E2E2E2E2E2E2E2E2F5E2E2F5F5E2E2E2E2E2E2E2E2E2E2E2E2E2E2E2E2E2E2E2E2F5E2E2E2E2E2E2E2E2E2E2E2F5E2DCDCDCE2F5E2E2E2E2E2E2E2E2E2E2E2E2E2E2E2DCF5DCF5DCDCDCDCDCDCDCDCDCDCDCF5DC
310
DCDCDCDCDCDCDCDCDCF5DCDCDCDCDCDCDCDC28DCDCDCDCDCDCDCDCDCDCDCDCDCDCDCDCDCDCDCDCDCDCDCDCDCDCDCF5DCDCF5E2E2E2E2E2E2E2E2E2E2E2E2E2E2E2F5E2DCDCDCE2E2F5E2E2E2E2E2E2E2E2E2E2E2E2E2F5E2E2E2E2E2E2E2E2E2E2E2E2E2E2E2E2E2E2E2E2F5F5E2E2E2E2E2E2E2E2E2E2E2E2E2E2E2E2E2E2
310
E2E2F5E2E2E2E2E2E2E2E2E2E2E2F5E2E2DCE2E2F5E2E2E2E2E2E2E2E2E2E2E2E2E2E2E2E2F5E2F5E2E2E2E2E2E2E2E2E2E2E2F5E2E2E2E2DCE2E2E2E2E2F5E2E2E2E2E2E2E2E228E2E2E2E2E2E2E2E2E2E2DCE2E2E2E2E2E2E2E2E2E2E2E2E2E2E2E2F5E2E2F5E2E2E2E2E2E2E2E2E2E2E2E2E2E2E2F5E2E2DCE2E2E2F5E2
310
E2E2E2E2E2E2E2E2E2E2E2E2F5E2E2E2E2E2E2E2E2E2E2E2E2E2E2E2E2E2E2E2E2F5F5E2E2E2E2E2E2E2E2E2E2E2E2E2E2E2E2E2E2E2E2F5E2E2E2E2E2E2E2E2E2E2E2F5E2E2E2E2E2F5E2E2E2E2E2E2E2E2E2E2E2E2E2E2E2E2F5F5F5F5F5F5F5F5F5F5F5F5F5F5F5E2E2E2E2DCE2E2E2E2E2F5F5F5F5F5F5F5F5F528F5F5
310
F5F5F5F5F5F5F5F5F5F5F5F5F5F5F5F5F5F5F5F5F5F5F5F5F5F5F5E2F5E2E2E2E2E2E2E2E2E2E2E2E2E2E2E2F5E2E2E2E2E2E2F5E2E2E2E2E2E2E2E2E2E2E2E2E2F5E2E2E2E2E2E2E2E2E2E2E2E2E2E2E2E2E2E2E2E2F5F5E2E2E2E2E2E2E2E2E2E2E2E2E2E2E2E2E2E2E2E2F5E2E2E2E2E2E2E2E2E2E2DCDCDCE2E2E2E2F5
310
E2E2E2E2E2E2E2E2E2E2E2E2E2E2E2E2F5F5F5E2E2E2E2E2E2E2E2E2E2E2F5F5F5F5F5DCF5F5F5F5F5F5E2E2E2E2E2E2E2E228E2E2E2E2E2E2E2E2E2E2DCE2E2E2E2E2E2E2E2E2E2E2E2E2E2E2E2F5F5F5F5E2E2E2E2E2E2E2E2E2E2E2E2E2E2E2F5E2E2E2E2E2DCDCE2E2E2E2E2E2E2E2E2E2E2E2E2F5E2E2E2E2E2E2E2E2
310
E2E2E2E2E2E2E2E2E2E2E2E2F5F5E2E2E2E2E2E2E2E2E2E2E2E2E2E2E2E2E2E2E2E2F5E2E2E2E2E2E2E2E2E2E2E2F5E2E2E2E2E2F5E2E2E2E2E2E2E2E2E2E2E2E2E2E2E2E2F5F5F5E2E2E2E2E2E2E2E2E2E2E2E2E2E2E2E2DCE2E2E2E2E2E2E2E2E2E2E2E2E2E228E2E2E2E2E2E2E2E2E2E2DCE2E2E2E2E2E2E2E2E2E2E2E2
310
E2E2E2E2F5F5F5F5E2E2E2E2E2E2E2E2E2E2E2E2E2E2E2F5E2E2E2E2E2E2F5E2E2E2E2E2E2E2E2E2E2E2E2E2F5E2E2E2E2E2E2E2E2E2E2E2E2E2E2E2E2E2E2E2E2F5F5E2E2E2E2E2E2E2E2E2E2E2E2E2E2E2E2E2E2E2E2F5E2E2E2E2E2E2E2E2E2E2E2F5F5F5F5F5F5F5E2E2E2E2E2E2E2E2E2E2E2E2E2E2E2E2F5DCF5E2E2
310
E2E2E2E2E2E2E2E2E2E2E2E2E2E2E2E2E2E2E2E2E2E2E2E2E2E2E2E2E228E2E2E2E2E2E2E2E2E2E2E2E2E2E2E2E2E2E2E2E2E2E2E2E2E2E2E2F5F5F5F5E2E2E2E2E2E2E2E2E2E2E2E2E2E2E2F5F5F5F5F5F5F5F5E2E2E2E2E2E2E2E2E2E2E2E2E2F5E2E2E2E2E2E2E2E2E2E2E2E2E2E2E2E2E2E2E2E2F5F5E2E2E2E2E2E2E2
310
E2E2E2E2E2E2E2E2E2E2E2E2E2F5E2E2E2E2E2E2E2E2E2E2E2E2E2E2E2E2E2E2E2E2E2E2E2E2E2E2E2E2E2E2E2E2E2E2E2E2E2E2E2E2E2E2E2E2E2E2E2E2E2E2E2E2E2E2E2E2E2E2E2E2E2E2E2E2E2E2E2E2E2E2E2E2E2E2E2E2E2E2E2E2E2E2E2E2E2E2E2E2E2E2E2E2E2E2E2E2E2E2E2E2E2E2E2E2E2E2E2E2E2E2E2E2E2
310
E2E2E2E2E2E2E2E2E2E2E2E2E2E2E2E2E2E2E2E2E2E2E2F5E2E2E2E2E2E2E2E2E2E2E2E2E2E2E2E2E2E2E2E2F5F5E2E2E2E2E2E2E2E2E2E2E2E2E2E2E2E2E2E2E2E2F5E2E2E2E2E2E2E2E2E2E2E2E2E2E2E2E2E2E2E2E2E2E2E2E2E2E2E2E2E2E2E2E2E2E2E2E2E2E2E2E2E2E2E2E2E2E2E2E2E2E2E2E2E2E2E2E2E2E2E2E2
310
E2E22828282828282828282828282828E2E2E2E2E2E2E2E2E2E2E2E2E2E2E2E2E2E2E2E2E2E2E2E2E2E2E2E2E2E2E2E2E2E2E2E2E2E2E2E2E2E2E2E2E2E2E2E2E2E2E2E2E2E2E2E2E2E2E2E2F5E2E2E2E2E2E2E2E2E2E2E2E2E2E2E2E2E2E2E2E2F5F5E2E2E2E2E2E2E2E2E2E2E2E2E2E2E2E2E2E2E2E2F5E2E2E2E2E2E2E2
310
E2E2E2E2E2E2E2E2E2E2E2E2E2E2E2E2E2E2E2E2E2E2E2E2E2E2E2E2E2E2E2E2E2E2E2E2E2E2E2E2E2E2E2E2E2E2E2E2E2E2E2E2E2E2E22828282828282828282828282828E2E2E2E2E2E2E2E2E2E2E2E2E2E2E2E2E2E2E2E2E2E2E2E2E2E2E2E2E2E2E2E2E2E2E2E2E2E2E2E2E2E2E2E2E2E2E2E2E2E2E2E2E2E2E2E2E2E2
310
E2E2F5E2E2E2E2E2E2E2E2E2E2E2E2E2E2E2E2E2E2E2E2F5F5E2E2F5E2E2E2E2E2E2E2E2E2E2E2E2E2E2E2E2E2F5E2E2E2E2E2E2E2E2E2E2E2E2E2E2E2E2E2E2E2E2E2E2E2E2E2E2E2E2E2E2E2E2E2E2E2E2E2E2E2E2E2E2E2E2E2E2E2E2E2E2E2E2E2E2E2E2E2E2E2E2E2E2E2E2E2E2E2E2E2E2E2E2E2E2E2E2E2E2E2E2E2
310
E2E2E2E2E2E2E2E2E2E2E2E2E2E2E2E2E2E2E2E2E2E2E2E2E2E2E2E2E2E2E2E2E2E2E2E2E2E2E2E2E2E2E2E2E2E2E2E2E2E2E2E2E2E2E2F5E2E2E2E2E2E2E2E2E2E2E2E2E2E2E2E2E2F5E2E2F5F5E2E2F5E2E2E2E2E2E2E2E2E2E2E2E2E2E2E2E2E2F5E2E2E2E2E2E2E2E2E2E2E2E2E2E2E2E2E2E2E2E2E2E2E2E2E2E2E2E2
310
E2E2E2E2E2E2E2E2E2E2E2E2E2E2E2E2E2E2E2E2E2E2E2E2E2E2E2E2E2E2E2E2E2E2E2E2E2E2E2E2E2E2E2E2E2E2E2E2E2E2E2E2E2E2E2E2E2E2E2E2E2E2E2E2E2E2E2E2E2E2E2E2E2E2E2E2E2E2E2E2E2E2E2E2E2E2E2E2E2E2E2E2E2E2E2E2E2E2E2E2E2E2E2E2E2E2E2E2F5E2E2E2E2E2E2E2E2E2E2E2E2E2E2E2E2E2F5
310
E2E2F5F5E2E2F5E2E2E2E2E2E2E2E2E2E2E2E2E2E2E2E2E2F5E2E2E2E2E2E2E2E2E2E2E2E2E2E2E2E2E2E2E2E2E2E2E2E2E2E2E2E2E2E2E2E2E2E2E2E2E2E2E2E2E2E2E2E2E2E2E2E2E2E2E2E2E2E2E2E2E2E2E2E2E2E2E2E2E2E2E2E2E2E2E2E2E2E2E2E2E2E2E2E2E2E2E2E2E2E2E2E2E2E2E2E2E2E2E2E2E2E2E2E2E2E2
310
E2E2E2E2E2E2E2E2E2E2E2E2E2E2E2E2E2E2E2E2E2E2E2E2E2E2E2E2E2E2E2E2E2E2F5E2E2E2E2E2E2E2E2E2E2E2E2E2E2E2E2E2F5E2E2F5F5E2E2F5E2E2E2E2E2E2E2E2E2E2E2E2E2E2E2E2E2F5E2E2E2E2E2E2E2E2E2E2E2E2E2E2E2E2E2E2E2E2E2E2E2E2E2E2E2E2E2E2E2E2E2E2E2E2E2E2E2E2E2E2E2E2E2E2E2E2E2
310
E2E2E2E2E2E2E2E2E2E2E2E2E2E2E2E2E2E2E2E2E2E2E2E2E2E2E2E2E2E2E2E2E2E2E2E2E2E2E2E2E2E2E2E2E2E2E2E2E2E2E2E2E2E2E2E2E2E2E2E2E2E2E2E2E2E2E2E2E2E2E2E2E2E2E2E2E2E2E2E2E2E2E2E2E2E2E2F5E2E2E2E2E2E2E2E2E2E2E2E2E2E2E2E2E2F5E2E2F5F5E2E2F5E2E2E2E2E2E2E2E2E2E2E2E2E2E2
310
E2E2E2F5E2E2E2E2E2E2E2E2E2E2E2E2E2E2E2E2E2E2E2E2E2E2E2E2E2E2E2E2E2E2E2E2E2E2E2E2E2E2E2E2E2E2E2E2E2E2E2E2E2E2E2E2E2E2E2E2E2E2E2E2E2E2E2E2E2E2E2E2E2E2E2E2E2E2E2E2E2E2E2E2E2E2E2E2E2E2E2E2E2E2E2E2E2E2E2E2E2E2E2E2E2E2E2E2E2E2E2E2E2E2E2E2E2E2E2E2E2E2E2E2E2E2E2
310
E2E2E2E2E2E2E2E2E2E2E2E2E2F5E2E2E2E2E2E2E2E2E2E2E2E2E2E2E2E2E2F5E2E2F5F5E2E2F5E2E2E2E2E2E2E2E2E2E2E2E2E2E2E2E2E2F5E2E2E2E2E2E2E2E2E2E2E2E2E2E2E2E2E2E2E2E2E2E2E2E2E2E2E2E2E2E2E2E2E2E2E2E2E2E2E2E2E2E2E2E2E2E2E2E2E2E2E2E2E2E2E2E2E2E2E2E2E2E2E2E2E2E2E2E2E2E2
310
E2E2E2E2E2E2E2E2E2E2E2E2E2E2E2E2E2E2E2E2E2E2E2E2E2E2E2E2E2E2E2E2E2E2E2E2E2E2E2E2E2E2E2E2E2E2E2E2E2E2E2E2E2E2E2E2E2E2E2E2E2E2E2E2E2E2F5E2E2E2E2E2E2E2E2E2E2E2E2E2E2E2E2E2F5E2E2F5F5E2E2F5E2E2E2E2E2E2E2E2E2E2E2E2E2E2E2E2E2F5E2E2F5E2F5F5F5F5F5F5F5F5F5F5F5F5F5
310
F5F5E2F5F5F5F5F5F5F5E2F5F5F5F5E2E2E2E2E2E2E2E2E2E2E2E2E2E2E2E2E2E2E2E2E2E2E2E2E2E2E2E2E2E2E2E2E2E2E2E2E2E2E2E2E2E2E2E2E2E2E2E2E2E2E2E2E2E2E2E2E2E2E2E2E2E2E2E2E2E2E2E2E2E2E2E2E2E2E2E2E2E2E2E2E2E2E2E2E2E2E2E2E2E2E2E2E2E2E2E2E2E2E2E2E2E2E2E2F5E2E2E2E2E2E2E2
310
E2E2E2E2E2E2E2E2E2E2F5E2E2F5F5E2E2F5E2E2E2E2E2E2E2E2E2E2E2E2E2E2E2E2E2F5E2E2F5E2F5F5E2F5F5F5F5F5F5F5F5F5F5F5F5F5F5F5F5F5F5F5F5E2F5F5F5F5E2E2E2E2E2E2E2E2E2E2E2E2E2E2E2E2E2E2E2E2E2E2E2E2E2E2E2E2E2E2E2E2E2E2E2E2E2E2E2E2E2E2E2E2E2E2E2E2E2E2E2E2E2E2E2E2E2E2E2
310
E2E2E2E2E2E2E2E2E2E2E2E2E2E2E2E2E2E2E2E2E2E2E2E2E2E2E2E2E2E2E2E2E2E2E2E2E2E2E2E2E2E2E2E2E2F5E2E2E2E2E2E2E2E2E2E2E2E2E2E2E2E2E2F5E2E2F5F5E2E2F5E2E2E2E2E2E2E2E2E2E2E2E2E2E2E2E2E2F5E2E2F5F5E2F5F5F5F5F5E2F5F5F5F5F5F5F5F5F5E2F5F5F5F5F5F5F5F5F5F5F5E2E2E2E2E2E2
310
E2E2E2E2E2E2E2E2E2E2E2E2E2E2E2E2E2E2E2E2E2E2E2E2E2E2E2E2E2E2E2E2E2E2E2E2E2E2E2E2E2E2E2E2E2E2E2E2E2E2E2E2E2E2E2E2E2E2E2E2E2E2E2E2E2E2E2E2E2E2E2E2E2E2E2E2E2E2E2E2E2E2E2E2E2E2E2E2E2E2E2E2E2E2E2E2E2E2F5E2E2E2E2E2E2E2E2E2E2E2E2E2E2E2E2E2F5E2E2F5F5E2E2F5E2E2E2
310
E2E2E2E2E2E2E2E2E2E2E2E2E2E2F5E2E2F5F5F5F5F5F5F5F5F5F5F5F5F5F5F5F5F5F5F5F5F5F5F5F5F5F5F5F5E2E2E2E2E2E2E2E2E2E2E2E2E2E2E2E2E2E2E2E2E2E2E2E2E2E2E2E2E2E2E2E2E2E2E2E2E2E2E2E2E2E2E2E2E2E2E2E2E2E2E2E2E2E2E2E2E2E2E2E2E2E2E2E2E2E2E2E2E2E2E2E2E2E2E2E2E2E2E2E2E2E2
310
E2E2E2E2E2E2E2E2E2E2E2E2E2E2E2E2E2E2E2E2E2E2E2E2F5E2E2E2E2E2E2E2E2E2E2E2E2E2E2E2E2E2F5E2E2F5F5E2E2F5E2E2E2E2E2E2E2E2E2E2E2E2E2E2E2E2E2F5E2E2F5F5F5F5F5F5F5E2F5E2F5F5F5F5F5F5F5F5F5F5F5F5F5F5F5F5F5F5E2E2E2E2E2E2E2E2E2E2E2E2E2E2E2E2E2E2E2E2E2E2E2E2E2E2E2E2E2
310
E2E2E2E2E2E2E2E2E2E2E2E2E2E2E2E2E2E2E2E2E2E2E2E2E2E2E2E2E2E2E2E2E2E2E2E2E2E2E2E2E2E2E2E2E2E2E2E2E2E2E2E2E2E2E2E2E2E2E2E2E2E2E2E2E2E2E2E2E2E2E2E2E2E2E2E2E2F5E2E2E2E2E2E2E2E2E2E2E2E2E2E2E2E2E2F5E2E2F5F5E2E2F5E2E2E2E2E2E2E2E2E2E2E2E2E2E2E2E2E2F5E2E2E2E2E2E2
310
E2E2E2E2E2E2E2E2E2E2E2E2E2E2E2E2E2E2E2E2E2E2E2E2E2E2E2E2E2E2E2E2E2E2E2E2E2E2E2E2E2E2E2E2E2E2E2E2E2E2E2E2E2E2E2E2E2E2E2E2E2E2E2E2E2E2E2E2E2E2E2E2E2E2E2E2E2E2E2E2E2E2E2E2E2E2E2E2E2E2E2E2E2E2E2E2E2E2E2E2E2E2E2E2E2E2E2E2E2E2E2E2E2E2E2E2E2E2E2E2E2E2E2E2E2E2E2
310
E2E2E2F5E2E2E2E2E2E2E2E2E2E2E2E2E2E2E2E2E2F5E2E2F5F5E2E2F5E2E2E2E2E2E2E2E2E2E2E2E2E2E2E2E2E2F5E2E2E2E2E2E2E2E2E2E2E2E2E2E2E2E2E2E2E2E2E2E2E2E2E2E2E2E2E2E2E2E2E2E2E2E2E2E2E2E2E2E2E2E2E2E2E2E2E2E2E2E2E2E2E2E2E2E2E2E2E2E2E2E2E2E2E2E2E2E2E2E2E2E2E2E2E2E2E2E2
310
E2E2E2E2E2E2E2E2E2E2E2E2E2E2E2E2E2E2E2E2E2E2E2E2E2E2E2E2E2E2E2E2E2E2E2E2E2E2E2E2E2E2E2E2E2E2E2E2E2E2E2E2E2E2E2E2F5E2E2E2E2E2E2E2E2E2E2E2E2E2E2E2E2E2F5E2E2F5F5E2E2F5E2E2E2E2E2E2E2E2E2E2E2E2E2E2E2E2E2F5F5F5F5F5F5F5F5F5F5F5F5F5F5F5F5F5F5F5F5F5F5F5F5F5F5F5F5
310
F5E2E2E2E2E2E2E2E2E2E2E2E2E2E2E2E2E2E2E2E2E2E2E2E2E2E2E2E2E2E2E2E2E2E2E2E2E2E2E2E2E2E2E2E2E2E2E2E2E2E2E2E2E2E2E2E2E2E2E2E2E2E2E2E2E2E2E2E2E2E2E2E2E2E2E2E2E2E2E2E2F5F5F5F5F5F5F5F5F5F5F5F5F5F5F5F5F5F5F5F5F5F5F5F5F5F5F5F5F5E2E2E2E2E2E2E2E2E2E2E2E2E2E2E2E2E2
310
F5E2E2F5F5E2E2F5E2E2E2E2E2E2E2E2E2E2E2E2E2E2E2E2E2F5E2F5F5F5F5F5F5F5F5F5F5F5E2F5F5F5F5F5F5F5F5F5F5F5F5F5E2F5E2E2E2E2E2E2E2E2E2E2E2E2E2E2E2E2E2E2E2E2E2E2E2E2E2E2E2E2E2E2E2E2E2E2E2E2E2E2E2E2E2E2E2E2E2E2E2E2E2E2E2E2E2E2E2E2E2E2E2E2E2E2E2E2E2E2E2E2E2E2E2E2E2
310
E2E2E2E2E2E2E2F5E2E2E2E2E2E2E2F5E2F5F5F5F5E2E2F5F5E2F5E2E2E2E2E2E2E2E2F5E2E2E2E2E2E2E2E2E2E2E2E2E2E2E2E2E2F5E2E2F5F5E2E2E2E2E2E2E2E2E2E2E2E2E2E2E2E2E2E2E2E2F5E2F5F5F5F5F5E2F5F5F5F5F5E2F5F5F5F5E2F5F5F5F5F5F5F5F5E2F5E2E2E2E2E2E2E2E2E2E2E2E2E2E2E2E2E2E2E2E2
310
E2E2E2E2E2E2E2E2E2E2E2E2E2E2E2E2E2E2E2E2E2E2E2E2E2E2E2E2E2E2E2E2E2E2E2E2E2E2E2E2E2E2E2E2E2E2E2E2E2E2E2E2E2E2E2E2E2E2E2E2F5E2E2E2E2E2E2E2F5F5F5F5F5E2E2E2F5E2E2F5E2E2E2E2E2E2E2E2F5E2E2E2E2E2E2E2E2E2E2E2E2E2E2E2E2E2E2E2E2F5F5E2E2E2E2E2E2E2E2E2E2E2E2E2E2E2E2
310
E2E2E2E2F5E2F5F5F5F5F5E2F5F5F5E2F5E2F5F5E2F5E2F5F5F5F5F5F5F5E2E2F5E2E2E2E2E2E2E2E2E2E2E2E2E2E2E2E2E2E2E2E2E2E2E2E2E2E2E2E2E2E2E2E2E2E2E2E2E2E2E2E2E2E2E2E2E2E2E2E2E2E2E2E2E2E2E2E2E2E2E2E2E2E2E2E2E2E2E2E2E2E2E2E2E2E2E2E2E2E2E2E2F5E2E2E2E2E2E2E2F5F5E2E2E2E2
310
E2E2F5E2E2F5E2E2E2E2E2E2E2E2F5E2E2E2E2E2E2E2E2E2E2E2E2E2E2E2E2E2E2E2E2F5F5E2E2E2E2E2E2E2E2E2E2E2E2E2E2E2E2E2E2E2E2F5F5F5F5F5F5F5F5F5F5F5F5F5F5F5F5F5F5F5F5F5F5F5F5F5F5F5F5F5F5F5F5F5F5F5F5F5F5F5F5F5F5F5F5F5F5F5F5F5F5F5F5F5F5F5F5F5F5F5F5F5F5F5F5F5F5F5F5F5F5
310
F5F5F5F5F5F5F5F5F5F5F5F5F5F5F5F5F5F5F5F5F5F5F5F5F5F5F5F5F5F5F5F5F5F5F5F5F5F5F5F5F5F5F5F5F5F5F5F5F5F5F5F5F5F5F5F5F5F5F5F5F5F5F5F5F5F5F5F5E2E2E2E2E2E2E2E2E2E2E2E2E2E2E2E2E2E2E2E2F5F5E2E2E2E2E2E2E2E2E2E2E2E2E2E2E2E2E2E2E2E2F5E2E2E2E2E2E2E2E2E2E2E2E2E2E2E2E2
310
E2E2E2E2E2E2E2E2E2E2E2E2E2E2E2E2E2E2E2E2E2E2E2E2E2E2E2E2E2E2E2E2E2E2E2E2E2E2E2E2E2E2E2E2E2E2E2E2E2E2E2E2E2E2E2E2E2E2E2E2E2E2E2E2E2E2E2E2E2E2E2E2E2E2E2E2E2E2E2E2E2E2E2E2E2E2E2E2E2E2E2E2E2E2E2E2E2E2E2E2E2E2E2E2E2E2E2E2E2E2E2E2E2E2E2E2E2E2E2E2F5E2E2E2E2E2E2
310
E2E2E2E2E2E2E2E2E2E2E2E2E2E2F5F5E2E2E2E2E2E2E2E2E2E2E2E2E2E2E2E2E2E2E2E2F5F5F5F5F5F5F5F5F5F5F5F5F5F5F5F5F5F5F5F5F5F5F5F5F5F5F5F5F5F5F5F5F5F5F5F5F5F5F5F5F5F5F5F5F5F5F5F5F5F5F5F5F5F5F5F5F5F5F5F5F5F5F5F5F5F5F5F5F5F5F5F5F5F5F5F5F5F5F5F5F5F5F5F5F5F5F5F5F5F5F5
310
F5F5F5F5F5F5F5F5F5F5F5F5F5F5F5F5F5F5F5F5F5F5F5F5F5F5F5F5F5F5F5F5F5F5F5F5F5F5F5F5F5F5F5F5F5F5F5E2E2E2E2E2E2E2E2E2E2E2E2E2E2E2E2E2E2E2E2F5F5E2E2E2E2E2E2E2E2E2E2E2E2E2E2E2E2E2E2E2E2E2E2E2E2E2E2E2E2E2E2E2E2E2E2E2E2E2E2E2E2E2E2E2E2E2E2E2E2E2E2E2E2E2E2E2E2E2E2
310
E2E2E2E2E2E2E2E2E2E2E2E2E2E2E2E2E2E2E2E2E2E2E2E2E2E2E2E2E2E2E2E2E2E2E2E2E2E2E2E2E2E2E2E2E2E2E2E2E2E2E2E2E2E2E2E2E2E2E2E2E2E2E2E2E2E2E2E2E2E2E2E2E2E2E2E2E2E2E2E2E2E2E2E2E2E2E2E2E2E2E2E2E2E2E2E2E2E2E2E2E2E2E2E2E2E2E2E2E2E2E2E2E2E2E2E2E2E2E2E2F5F5E2E2E2E2E2
310
E2E2E2E2E2E2E2E2E2E2E2E2E2E2E2E2E2E2E2E2E2E2E2E2E2E2E2E2E2E2E2E2E2E2E2E2E2E2E2E2E2E2E2E2E2E2E2E2E2E2E2E2E2E2E2E2E2E2E2E2E2E2E2E2E2E2E2E2E2E2E2E2E2E2E2E2E2E2E2E2E2E2E2E2E2E2E2E2E2E2E2E2E2E2E2E2E2E2E2E2E2E2E2E2E2E2E2E2E2E2E2E2E2E2E2E2E2E2E2E2E2E2E2E2E2E2E2
310
E2E2E2E2E2E2E2E2E2E2E2E2E2E2E2E2E2E2E2E2E2E2E2E2E2E2E2E2E2E2E2E2E2E2E2E2E2E2E2E2E2E2E2E2E2E2F5F5E2E2E2E2E2E2E2E2E2E2E2E2E2E2E2E2E2E2E2E2E2E2E2E2E2E2E2E2E2E2E2E2E2E2E2E2E2E2E2E2E2E2E2E2E2E2E2E2E2E2E2E2E2E2E2E2E2E2E2E2E2E2E2E2E2E2E2E2E2E2E2E2E2E2E2E2E2E2E2
310
E2E2E2E2E2E2E2E2E2E2E2E2E2E2E2E2E2E2E2E2E2E2E2E2E2E2E2E2E2E2E2E2E2E2E2E2E2E2E2E2E2E2E2E2E2E2E2E2E2E2E2E2E2E2E2E2E2E2E2E2E2E2E2E2E2E2E2E2E2E2E2E2E2E2E2E2E2E2E2E2E2E2E2E2E2E2E2E2E2E2E2E2E2E2E2E2E2E2E2F5F5E2E2E2E2E2E2E2E2E2E2E2E2E2E2E2E2E2E2E2E2E2E2E2E2E2E2
310
E2E2E2E2E2E2E2E2E2E2E2E2E2E2E2E2E2E2E2E2E2E2E2E2E2E2E2E2E2E2E2E2E2E2E2E2E2E2E2E2E2E2E2E2E2E2E2E2E2E2E2E2E2E2E2E2E2E2E2E2E2E2E2E2E2E2E2E2E2E2E2E2E2E2E2E2E2E2E2E2E2E2E2E2E2E2E2E2E2E2E2E2E2E2E2E2E2E2E2E2E2E2E2E2E2E2E2E2E2E2E2E2E2E2E2E2E2E2E2E2E2E2E2E2E2E2E2
310
E2E2E2E2E2E2E2E2E2E2E2E2E2E2E2E2E2E2E2E2E2E2E2E2E2F5F5E2E2F5E2E2E2E2E2E2E2E2E2E2E2E2E2E2E2E2E2E2E2E2E2E2E2E2E2E2E2E2E2E2E2E2E2E2E2E2E2E2E2E2E2E2E2E2E2E2E2E2E2E2E2E2E2E2E2E2E2E2E2E2E2E2E2E2E2E2E2E2E2E2E2E2E2E2E2E2E2E2E2E2E2E2E2E2E2E2E2E2E2E2E2E2E2E2E2E2E2
310
E2E2E2E2E2E2E2E2E2E2E2E2E2E2E2E2E2E2E2E2E2E2E2E2E2E2E2E2E2E2E2E2E2E2E2E2E2E2E2E2E2E2E2E2E2E2E2E2E2E2E2E2E2E2E2E2E2E2E2E2E2E2E2E2E2E2E2E2E2E2E2E2E2E2E2F5E2E2F5F5E2E2F5E2E2E2E2E2E2E2E2E2E2E2E2E2E2E2E2E2E2E2E2E2E2E2E2E2E2E2E2E2E2E2E2E2E2E2E2E2E2E2E2E2E2E2E2
310
E2E2E2E2E2E2E2E2E2E2E2E2E2E2E2E2E2E2E2E2E2E2E2E2E2E2E2E2E2E2E2E2E2E2E2E2E2E2E2E2E2E2E2E2E2E2E2E2E2E2E2E2E2E2E2E2E2E2E2E2E2E2E2E2E2E2E2E2E2E2E2E2E2E2E2E2E2E2E2E2E2E2E2E2E2E2E2E2E2E2E2E2E2E2E2E2E2E2E2E2E2E2E2E2E2E2E2E2E2E2E2E2E2E2E2E2E2E2E2E2E2E2E2E2E2E2E2
310
E2F5E2E2F5F5E2E2F5E2E2E2E2E2E2E2E2E2E2E2E2E2E2E2E2E2E2E2E2E2E2E2E2E2E2E2E2E2E2E2E2E2E2E2E2E2E2E2E2E2E2E2E2E2E2E2E2E2E2E2E2E2E2E2E2E2E2E2E2E2E2E2E2E2E2E2E2E2E2E2E2E2E2E2E2E2E2E2E2E2E2E2E2E2E2E2E2E2E2E2E2E2E2E2E2E2E2E2E2E2E2E2E2E2E2E2E2E2E2E2E2E2E2E2E2E2E2
310
E2E2E2E2E2E2E2E2E2E2E2E2E2E2E2E2E2E2E2E2E2E2E2E2E2E2E2E2E2E2E2E2E2E2E2E2E2E2E2E2E2E2E2E2E2E2E2E2E2E2E2E2E2E2F5E2E2F5F5E2E2F5E2E2E2E2E2E2E2E2E2E2E2E2E2E2E2E2E2E2E2E2E2E2E2E2E2E2E2E2E2E2E2E2E2E2E2E2E2E2E2E2E2E2E2E2E2E2E2E2E2E2E2E2E2E2E2E2E2E2E2E2E2E2E2E2E2
310
E2E2E2E2E2E2E2E2E2E2E2E2E2E2E2E2E2E2E2E2E2E2E2E2E2E2E2E2E2E2E2E2E2E2E2E2E2E2E2E2E2E2E2E2E2E2E2E2E2E2E2E2E2E2E2E2E2E2E2E2E2E2E2E2E2E2E2E2E2E2E2E2E2E2E2E2E2E2E2E2E2E2E2E2E2E2E2E2E2E2E2E2E2E2E2E2E2E2E2E2E2E2E2E2E2E2E2F5E2E2F5F5E2E2F5E2E2E2E2E2E2E2E2E2E2E2E2
310
E2E2E2E2E2E2E2E2E2E2E2E2E2E2E2E2E2E2E2E2E2E2E2E2E2E2E2E2E2E2E2E2E2E2E2E2E2E2E2E2E2E2E2E2E2E2E2E2E2E2E2E2E2E2E2E2E2E2E2E2E2E2E2E2E2E2E2E2E2E2E2E2E2E2E2E2E2E2E2E2E2E2E2E2E2E2E2E2E2E2E2E2E2E2E2E2E2E2E2E2E2E2E2E2E2E2E2E2E2E2E2E2E2E2E2E2E2E2E2E2E2E2E2E2E2E2E2
310
E2E2E2E2E2E2E2E2E2E2E2E2E2E2E2E2E2E2E2E2E2E2E2E2E2E2E2E2E2E2E2E2E2F5E2E2F5F5E2E2F5E2E2E2E2E2E2E2E2E2E2E2E2E2E2E2E2E2E2E2E2E2E2E2E2E2E2E2E2E2E2E2E2E2E2E2E2E2E2E2E2E2E2E2E2E2E2E2E2E2E2E2E2E2E2E2E2E2E2E2E2E2E2E2E2E2E2E2E2E2E2E2E2E2E2E2E2E2E2E2E2E2E2E2E2E2E2
310
E2E2E2E2E2E2E2E2E2E2E2E2E2E2E2E2E2E2E2E2E2E2E2E2E2E2E2E2E2E2E2E2E2E2E2E2E2E2E2E2E2E2E2E2E2E2E2E2E2E2E2E2E2E2E2E2E2E2E2E2E2E2E2E2E2E2E2E2E2E2E2E2E2E2E2E2E2E2E2E2E2E2E2E2E2E2F5E2E2F5F5E2E2F5E2E2E2E2E2E2E2E2E2E2E2E2E2E2E2E2E2E2E2E2E2E2E2E2E2E2E2E2E2E2E2E2E2
310
E2E2E2E2E2E2E2E2E2E2E2E2E2E2E2E2E2E2E2E2E2E2E2E2E2E2E2E2E2E2E2E2E2E2E2E2E2E2E2E2E2E2E2E2E2E2E2E2E2E2E2E2E2E2E2E2E2E2E2E2E2E2E2E2E2E2E2E2E2E2E2E2E2E2E2E2E2E2E2E2E2E2E2E2E2E2E2E2E2E2E2E2E2E2E2E2E2E2E2E2E2E2E2E2E2E2E2E2E2E2E2E2E2E2E2E2E2E2E2E2E2E2E2E2E2E2E2
310
E2E2E2E2E2E2E2E2E2E2E2E2F5E2E2F5F5E2E2F5F5F5F5F5F5F5F5E2E2E2E2E2E2E2E2E2F5F5F5F5F5F5F5F5F5F5F5F5F5F5F5F5E2E2E2E2E2E2E2E2E2F5F5F5F5F5F5F5F5F5F5F5F5F5F5F5F5E2E2E2E2E2E2E2E2E2F5F5F5F5F5F5F5F5F5F5F5F5F5F5F5F5E2E2E2E2E2E2E2E2F5F5F5F5F5F5F5F5F5F5F5F5F5F5F5F5E2
310
E2E2E2E2E2E2E2E2F5F5F5F5F5F5F5F5F5F5F5F5F5F5F5F5E2E2E2E2E2E2E2E2E2F5F5F5F5F5F5F5F5F5F5F5F5F5F5F5F5E2E2E2E2E2E2E2E2E2F5F5F5F5F5F5F5F5E2E2F5F5E2E2E2E2E2E2E2E2E2E2E2E2E2E2E2E2E2E2E2E2E2E2E2E2E2E2E2E2E2E2E2E2E2E2E2E2E2E2E2E2E2E2E2E2E2E2E2E2E2E2E2E2E2E2E2E2E2
310
E2E2E2E2E2E2E2E2E2E2E2E2E2E2E2E2E2E2E2E2E2E2E2E2E2E2E2E2E2E2E2E2E2E2E2E2E2E2E2E2E2E2E2E2E2E2E2E2E2E2E2E2E2E2E2E2E2E2E2E2E2E2E2E2E2E2E2E2E2E2E2E2E2E2E2E2E2E2E2E2E2E2E2E2E2E2E2E2E2E2E2E2E2E2E2E2E2E2E2E2E2E2E2E2E2E2E2E2E2E2E2E2E2E2E2E2E2E2E2E2E2F5F5E2E2E2E2
310
E2E2E2E2E2E2E2E2E2E2E2E2E2E2E2E2E2E2E2E2E2E2E2E2E2E2E2E2E2E2E2E2E2E2E2E2E2E2E2E2E2E2E2E2E2E2E2E2E2E2E2E2E2E2E2E2E2E2E2E2E2E2E2E2E2E2E2E2E2E2E2E2E2E2E2E2E2E2E2E2E2E2E2E2E2E2E2E2E2E2E2E2E2E2E2E2E2E2E2E2E2E2E2E2E2E2E2E2E2E2E2E2E2E2E2E2E2E2E2E2E2E2E2E2E2E2E2
310
E2E2E2E2E2E2E2E2E2E2E2E2E2E2E2E2E2E2E2E2E2E2E2E2E2E2E2E2E2E2E2E2E2E2E2E2E2E2E2E2E2E2E2E2E2E2E2F5
  0
ENDSEC
  0
EOF
