  0
SECTION
  2
HEADER
  0
ENDSEC
  0
SECTION
  2
TABLES
  0
TABLE
  2
LTYPE
 70
     4
  0
LTYPE
  2
CONTINUOUS
 70
    64
  3
Solid line
 72
    65
 73
     0
 40
0.000000
  0
LTYPE
  2
DASHED
 70
    64
  3
__ __ __ __ __ __ __ __ __ __ __ __ __ __ __
 72
    65
 73
     2
 40
3.500000
 49
2.000000
 49
-1.500000
  0
LTYPE
  2
CENTER
 70
    64
  3
____ _ ____ _ ____ _ ____ _ ____ _ ____ _ ____
 72
    65
 73
     4
 40
17.500000
 49
13.000000
 49
-1.500000
 49
1.500000
 49
-1.500000
  0
LTYPE
  2
PHANTOM
 70
    64
  3
_____ _ _ _____ _ _ _____ _ _ _____ _ _ ____  
 72
    65
 73
     6
 40
15.500000
 49
8.000000
 49
-1.500000
 49
1.500000
 49
-1.500000
 49
1.500000
 49
-1.500000
  0
LTYPE
  2
DASHED1
 70
    64
  3
__ __ __ __ __ __ __ __ __ __ __ __ __ __ __
 72
    65
 73
     2
 40
1.500000
 49
1.000000
 49
-0.500000
  0
LTYPE
  2
DASHED2
 70
    64
  3
__ __ __ __ __ __ __ __ __ __ __ __ __ __ __
 72
    65
 73
     2
 40
3.500000
 49
2.500000
 49
-1.000000
  0
LTYPE
  2
DASHED3
 70
    64
  3
__ __ __ __ __ __ __ __ __ __ __ __ __ __ __
 72
    65
 73
     2
 40
6.000000
 49
4.000000
 49
-2.000000
  0
LTYPE
  2
DASHED4
 70
    64
  3
__ __ __ __ __ __ __ __ __ __ __ __ __ __ __
 72
    65
 73
     2
 40
12.000000
 49
10.000000
 49
-2.000000
  0
LTYPE
  2
DASHED5
 70
    64
  3
__ __ __ __ __ __ __ __ __ __ __ __ __ __ __
 72
    65
 73
     2
 40
17.000000
 49
15.000000
 49
-2.000000
  0
LTYPE
  2
DASHED6
 70
    64
  3
__ __ __ __ __ __ __ __ __ __ __ __ __ __ __
 72
    65
 73
     2
 40
29.000000
 49
27.000000
 49
-2.000000
  0
LTYPE
  2
PHANTOM1
 70
    64
  3
_____ _ _ _____ _ _ _____ _ _ _____ _ _ ____  
 72
    65
 73
     6
 40
31.000000
 49
25.000000
 49
-1.500000
 49
1.000000
 49
-1.000000
 49
1.000000
 49
-1.500000
  0
LTYPE
  2
PHANTOM2
 70
    64
  3
_____ _ _ _____ _ _ _____ _ _ _____ _ _ ____  
 72
    65
 73
     6
 40
36.000000
 49
27.000000
 49
-1.500000
 49
2.500000
 49
-1.000000
 49
2.500000
 49
-1.500000
  0
LTYPE
  2
PHANTOM3
 70
    64
  3
_____ _ _ _____ _ _ _____ _ _ _____ _ _ ____  
 72
    65
 73
     6
 40
78.000000
 49
64.000000
 49
-2.000000
 49
4.000000
 49
-2.000000
 49
4.000000
 49
-2.000000
  0
LTYPE
  2
CENTER1
 70
    64
  3
____ _ ____ _ ____ _ ____ _ ____ _ ____ _ ____
 72
    65
 73
     4
 40
19.000000
 49
14.000000
 49
-1.000000
 49
3.000000
 49
-1.000000
  0
LTYPE
  2
CENTER2
 70
    64
  3
____ _ ____ _ ____ _ ____ _ ____ _ ____ _ ____
 72
    65
 73
     4
 40
28.500000
 49
25.000000
 49
-1.000000
 49
1.500000
 49
-1.000000
  0
LTYPE
  2
CENTER3
 70
    64
  3
____ _ ____ _ ____ _ ____ _ ____ _ ____ _ ____
 72
    65
 73
     4
 40
31.500000
 49
27.000000
 49
-1.000000
 49
2.500000
 49
-1.000000
  0
LTYPE
  2
CENTER4
 70
    64
  3
____ _ ____ _ ____ _ ____ _ ____ _ ____ _ ____
 72
    65
 73
     4
 40
50.000000
 49
45.000000
 49
-1.000000
 49
3.000000
 49
-1.000000
  0
LTYPE
  2
CENTER5
 70
    64
  3
____ _ ____ _ ____ _ ____ _ ____ _ ____ _ ____
 72
    65
 73
     4
 40
100.000000
 49
92.000000
 49
-2.000000
 49
4.000000
 49
-2.000000
  0
LTYPE
  2
SBK1
 70
    64
  3
______ _ _ _ ______ _ _ _ ______ _ _ _ _____  
 72
    65
 73
     8
 40
60.500000
 49
45.000000
 49
-2.000000
 49
2.500000
 49
-2.000000
 49
2.500000
 49
-2.000000
 49
2.500000
 49
-2.000000
  0
LTYPE
  2
SBK2
 70
    64
  3
______ _ _ _ ______ _ _ _ ______ _ _ _ _____  
 72
    65
 73
     8
 40
84.000000
 49
64.000000
 49
-2.000000
 49
4.000000
 49
-2.000000
 49
4.000000
 49
-2.000000
 49
4.000000
 49
-2.000000
  0
LTYPE
  2
STCH
 70
    64
  3
__ __ __ __ __ __ __ __ __ __ __ __ __ __ __
 72
    65
 73
     2
 40
3.000000
 49
1.000000
 49
-2.000000
  0
LTYPE
  2
MTCH
 70
    64
  3
_____ _ _ _____ _ _ _____ _ _ _____ _ _ ____  
 72
    65
 73
     6
 40
80.000000
 49
66.000000
 49
-2.000000
 49
4.000000
 49
-2.000000
 49
4.000000
 49
-2.000000
  0
ENDTAB
  0
TABLE
  2
LAYER
 70
     1
  0
LAYER
  2
0
 70
     0
 62
     7
  6
CONTINUOUS
  0
ENDTAB
  0
TABLE
  2
STYLE
 70
     1
  0
STYLE
  2
STANDARD
 70
     0
 40
0.000000
 41
1.000000
 50
0.000000
 71
     0
 42
0.200000
  3
txt
  4
BIGFONT
  0
ENDTAB
  0
TABLE
  2
VIEW
 70
     0
  0
ENDTAB
  0
ENDSEC
  0
SECTION
  2
BLOCKS
  0
ENDSEC
  0
SECTION
  2
ENTITIES
  0
POINT
  8
0
 10
-145.436813
 20
-7.279243
  0
POINT
  8
0
 10
-69.436752
 20
-7.279243
  0
POINT
  8
0
 10
18.436817
 20
-7.279239
  0
POINT
  8
0
 10
-69.436745
 20
-86.279266
  0
POINT
  8
0
 10
111.812279
 20
-27.279240
  0
POINT
  8
0
 10
-47.436752
 20
-7.279243
  0
POINT
  8
0
 10
4.936817
 20
-7.279242
  0
POINT
  8
0
 10
-47.436745
 20
-86.279266
  0
POINT
  8
0
 10
-145.436813
 20
-7.279243
  0
POINT
  8
0
 10
-131.936813
 20
-7.279243
  0
POINT
  8
0
 10
111.812279
 20
-27.279240
  0
POINT
  8
0
 10
133.812286
 20
-27.279240
  0
LINE
  8
0
 62
     3
 10
-185.436783
 20
-127.279236
 11
-185.436783
 21
127.279236
  0
LINE
  8
0
 62
     3
 10
185.436783
 20
127.279236
 11
185.436783
 21
-127.279236
  0
LINE
  8
0
 62
     3
 10
-185.436783
 20
-127.279236
 11
185.436783
 21
-127.279236
  0
LINE
  8
0
 62
     3
 10
-185.436783
 20
127.279236
 11
185.436783
 21
127.279236
  0
LINE
  8
0
 62
     3
 10
-185.436783
 20
112.978195
 11
-109.164589
 21
112.978195
  0
LINE
  8
0
 62
     3
 10
-109.164589
 20
112.978195
 11
-109.164589
 21
127.279236
  0
LINE
  8
0
 62
     3
 10
109.164581
 20
-112.978210
 11
185.436783
 21
-112.978210
  0
LINE
  8
0
 62
     5
 10
129.190811
 20
-116.416870
 11
136.517700
 21
-116.416870
  0
LINE
  8
0
 62
     5
 10
129.190811
 20
-122.914322
 11
135.411774
 21
-122.914322
  0
LINE
  8
0
 62
     5
 10
129.190811
 20
-124.573227
 11
137.623672
 21
-124.573227
  0
LINE
  8
0
 62
     5
 10
129.190811
 20
-118.075790
 11
135.411774
 21
-118.075790
  0
LINE
  8
0
 62
     5
 10
129.190811
 20
-116.416870
 11
129.190811
 21
-118.075790
  0
LINE
  8
0
 62
     5
 10
137.623672
 20
-117.522827
 11
137.623672
 21
-124.573227
  0
LINE
  8
0
 62
     5
 10
135.411774
 20
-118.075790
 11
135.411774
 21
-122.914322
  0
LINE
  8
0
 62
     5
 10
138.867828
 20
-116.416870
 11
138.867828
 21
-118.075790
  0
LINE
  8
0
 62
     5
 10
146.747696
 20
-118.075790
 11
146.747696
 21
-123.467316
  0
LINE
  8
0
 62
     5
 10
144.535812
 20
-118.075790
 11
144.535812
 21
-122.914322
  0
LINE
  8
0
 62
     5
 10
129.190811
 20
-122.914322
 11
129.190811
 21
-124.573227
  0
LINE
  8
0
 62
     5
 10
138.867828
 20
-116.416870
 11
141.053345
 21
-116.416870
  0
LINE
  8
0
 62
     5
 10
138.867828
 20
-124.573227
 11
140.585297
 21
-124.573227
  0
LINE
  8
0
 62
     5
 10
138.867752
 20
-124.573166
 11
140.608795
 21
-118.075737
  0
LINE
  8
0
 62
     5
 10
138.867828
 20
-118.075790
 11
140.608841
 21
-118.075790
  0
LINE
  8
0
 62
     5
 10
140.585434
 20
-124.573364
 11
142.326385
 21
-118.075928
  0
LINE
  8
0
 62
     5
 10
142.876877
 20
-122.914322
 11
144.535812
 21
-122.914322
  0
LINE
  8
0
 62
     5
 10
142.876907
 20
-122.914337
 11
143.321396
 21
-124.573227
  0
LINE
  8
0
 62
     5
 10
143.321426
 20
-124.573227
 11
145.641785
 21
-124.573227
  0
LINE
  8
0
 62
     5
 10
142.326279
 20
-118.075790
 11
144.535812
 21
-118.075790
  0
LINE
  8
0
 62
     5
 10
142.770782
 20
-116.416870
 11
145.088776
 21
-116.416870
  0
LINE
  8
0
 62
     5
 10
141.053421
 20
-116.416908
 11
141.383072
 21
-115.186577
  0
LINE
  8
0
 62
     5
 10
142.770691
 20
-116.416794
 11
143.100342
 21
-115.186401
  0
LINE
  8
0
 62
     5
 10
148.130142
 20
-116.416870
 11
150.756775
 21
-116.416870
  0
LINE
  8
0
 62
     5
 10
148.130142
 20
-118.075790
 11
154.581039
 21
-118.075790
  0
LINE
  8
0
 62
     5
 10
150.756775
 20
-124.573227
 11
152.968643
 21
-124.573227
  0
LINE
  8
0
 62
     5
 10
148.130142
 20
-116.416870
 11
148.130142
 21
-118.075790
  0
LINE
  8
0
 62
     5
 10
156.286499
 20
-121.083908
 11
156.286499
 21
-122.914322
  0
LINE
  8
0
 62
     5
 10
148.130035
 20
-122.914253
 11
150.756714
 21
-121.689400
  0
LINE
  8
0
 62
     5
 10
148.130325
 20
-121.084061
 11
154.581238
 21
-118.075935
  0
LINE
  8
0
 62
     5
 10
148.130142
 20
-121.083908
 11
148.130142
 21
-122.914322
  0
LINE
  8
0
 62
     5
 10
152.968597
 20
-121.367157
 11
156.286514
 21
-122.914276
  0
LINE
  8
0
 62
     5
 10
154.171204
 20
-120.097549
 11
156.286728
 21
-121.084045
  0
LINE
  8
0
 62
     5
 10
156.286499
 20
-117.522827
 11
156.286499
 21
-118.406387
  0
LINE
  8
0
 62
     5
 10
150.756775
 20
-115.186523
 11
150.756775
 21
-116.416870
  0
LINE
  8
0
 62
     5
 10
152.968643
 20
-115.186523
 11
152.968643
 21
-116.416870
  0
LINE
  8
0
 62
     5
 10
152.968643
 20
-116.416870
 11
155.180557
 21
-116.416870
  0
LINE
  8
0
 62
     5
 10
150.756775
 20
-121.689514
 11
150.756775
 21
-124.573227
  0
LINE
  8
0
 62
     5
 10
152.968643
 20
-121.367203
 11
152.968643
 21
-124.573227
  0
LINE
  8
0
 62
     5
 10
154.171204
 20
-120.097557
 11
155.648163
 21
-119.408852
  0
LINE
  8
0
 62
     5
 10
163.751663
 20
-115.684204
 11
165.410553
 21
-115.684204
  0
LINE
  8
0
 62
     5
 10
156.977722
 20
-119.110947
 11
156.977722
 21
-120.896240
  0
LINE
  8
0
 62
     5
 10
165.410553
 20
-115.684204
 11
165.410553
 21
-116.416870
  0
LINE
  8
0
 62
     5
 10
163.751663
 20
-115.684204
 11
163.751663
 21
-116.041687
  0
LINE
  8
0
 62
     5
 10
161.539749
 20
-119.081879
 11
161.539749
 21
-124.573227
  0
LINE
  8
0
 62
     5
 10
156.977844
 20
-119.111031
 11
163.403137
 21
-116.555603
  0
LINE
  8
0
 62
     5
 10
156.977783
 20
-120.896362
 11
161.539810
 21
-119.081955
  0
LINE
  8
0
 62
     5
 10
161.539749
 20
-124.573227
 11
163.751663
 21
-124.573227
  0
LINE
  8
0
 62
     5
 10
163.751663
 20
-118.202194
 11
163.751663
 21
-124.573227
  0
LINE
  8
0
 62
     5
 10
163.751831
 20
-118.202301
 11
164.364929
 21
-117.958435
  0
LINE
  8
0
 62
     5
 10
141.383057
 20
-115.186523
 11
143.100449
 21
-115.186523
  0
LINE
  8
0
 62
     5
 10
145.849136
 20
-115.186523
 11
146.554138
 21
-115.186523
  0
LINE
  8
0
 62
     5
 10
150.756775
 20
-115.186523
 11
152.968643
 21
-115.186523
  0
LINE
  8
0
 62
     5
 10
145.849136
 20
-116.292480
 11
146.554138
 21
-116.292480
  0
LINE
  8
0
 62
     5
 10
145.849136
 20
-115.186523
 11
145.849136
 21
-116.292480
  0
LINE
  8
0
 62
     5
 10
146.554138
 20
-115.186523
 11
146.554138
 21
-116.292480
  0
LINE
  8
0
 62
     5
 10
146.968918
 20
-115.186523
 11
146.968918
 21
-116.292480
  0
LINE
  8
0
 62
     5
 10
147.756912
 20
-115.186523
 11
147.756912
 21
-116.292480
  0
LINE
  8
0
 62
     5
 10
146.968918
 20
-115.186523
 11
147.756912
 21
-115.186523
  0
LINE
  8
0
 62
     5
 10
146.968918
 20
-116.292480
 11
147.756912
 21
-116.292480
  0
LINE
  8
0
 62
     3
 10
109.164581
 20
112.978195
 11
185.436783
 21
112.978195
  0
LINE
  8
0
 62
     3
 10
109.164581
 20
127.279236
 11
109.164581
 21
112.978195
  0
LINE
  8
0
 62
     3
 10
109.164581
 20
-112.978210
 11
109.164581
 21
-127.279236
  0
LINE
  8
0
 10
61.812256
 20
127.279236
 11
61.812256
 21
-127.279236
  0
LINE
  8
0
 10
-68.436752
 20
-7.279243
 11
-53.436752
 21
-7.279243
  0
LINE
  8
0
 10
-53.436752
 20
2.720754
 11
-53.436752
 21
-7.279243
  0
LINE
  8
0
 10
-47.436752
 20
2.720754
 11
-47.436752
 21
-4.579242
  0
LINE
  8
0
 10
-69.436752
 20
2.720754
 11
-69.436752
 21
-4.579242
  0
LINE
  8
0
 10
-71.436752
 20
1.570714
 11
-71.436752
 21
-3.429290
  0
LINE
  8
0
 10
-69.436752
 20
-4.579242
 11
-47.436752
 21
-4.579242
  0
LINE
  8
0
 10
-63.436752
 20
2.720754
 11
-63.436752
 21
-4.579242
  0
LINE
  8
0
 10
-71.436752
 20
1.570714
 11
-69.436752
 21
1.570714
  0
LINE
  8
0
 10
-71.436752
 20
-3.429290
 11
-69.436752
 21
-3.429290
  0
LINE
  8
0
 10
-81.436752
 20
0.770711
 11
-71.436752
 21
0.770711
  0
LINE
  8
0
 10
-81.436752
 20
-2.629287
 11
-71.436752
 21
-2.629287
  0
LINE
  8
0
 10
-69.436752
 20
2.720754
 11
-47.436752
 21
2.720754
  0
LINE
  8
0
  6
CENTER
 10
-50.436752
 20
-1.579242
 11
-50.436752
 21
-8.779246
  0
LINE
  8
0
 10
-68.436752
 20
-4.579242
 11
-68.436752
 21
-7.279243
  0
LINE
  8
0
 10
-68.436752
 20
-5.079242
 11
-53.436752
 21
-5.079242
  0
LINE
  8
0
 10
4.936817
 20
2.220770
 11
4.936817
 21
-4.579241
  0
LINE
  8
0
 10
13.936815
 20
0.320759
 11
14.236811
 21
0.320759
  0
LINE
  8
0
 10
18.436817
 20
-6.279239
 11
18.436817
 21
-3.279239
  0
LINE
  8
0
 10
5.936817
 20
-7.279239
 11
17.436817
 21
-7.279239
  0
LINE
  8
0
 10
4.936817
 20
-6.279242
 11
4.936817
 21
-5.079241
  0
LINE
  8
0
 10
14.436817
 20
-2.279239
 11
17.436817
 21
-2.279239
  0
LINE
  8
0
 10
4.936817
 20
-5.079238
 11
6.436817
 21
-5.079238
  0
LINE
  8
0
  6
CENTER
 10
15.936817
 20
-9.279240
 11
15.936817
 21
0.720760
  0
LINE
  8
0
 10
14.236813
 20
1.520759
 11
14.236813
 21
0.320758
  0
LINE
  8
0
 10
13.136814
 20
-0.479241
 11
13.136814
 21
-0.979241
  0
LINE
  8
0
 10
10.436817
 20
-5.079238
 11
12.436817
 21
-5.079238
  0
LINE
  8
0
 10
6.632042
 20
-4.883941
 11
6.436779
 21
-5.079207
  0
LINE
  8
0
 10
10.241560
 20
-4.883968
 11
10.436831
 21
-5.079238
  0
LINE
  8
0
 10
12.436817
 20
-5.079239
 11
12.436817
 21
-4.079239
  0
LINE
  8
0
 10
11.936818
 20
-3.579240
 11
12.436819
 21
-4.079240
  0
LINE
  8
0
 10
11.936817
 20
-4.579239
 11
11.936817
 21
2.220756
  0
LINE
  8
0
 10
4.936817
 20
-4.579238
 11
11.936817
 21
-4.579238
  0
LINE
  8
0
 10
11.936802
 20
2.220751
 11
11.436812
 21
2.720741
  0
LINE
  8
0
 10
4.936803
 20
2.220770
 11
5.436804
 21
2.720770
  0
LINE
  8
0
 10
5.436815
 20
2.720757
 11
6.436815
 21
2.720757
  0
LINE
  8
0
 10
10.436815
 20
2.720757
 11
11.436815
 21
2.720757
  0
LINE
  8
0
  6
CENTER
 10
8.436817
 20
-6.579240
 11
8.436817
 21
4.720755
  0
LINE
  8
0
 10
14.436817
 20
-2.279240
 11
14.436817
 21
-1.779240
  0
LINE
  8
0
 10
17.436817
 20
-2.279239
 11
17.436817
 21
-1.779243
  0
LINE
  8
0
 10
17.166317
 20
-2.279239
 11
17.166317
 21
-1.508743
  0
LINE
  8
0
 10
14.707317
 20
-2.279240
 11
14.707317
 21
-1.508739
  0
LINE
  8
0
 10
14.936830
 20
-1.279265
 11
14.436831
 21
-1.779267
  0
LINE
  8
0
 10
16.936819
 20
-1.279245
 11
17.436821
 21
-1.779245
  0
LINE
  8
0
 10
14.436815
 20
-1.779243
 11
17.436815
 21
-1.779243
  0
LINE
  8
0
 10
14.936815
 20
-1.279239
 11
16.936815
 21
-1.279239
  0
LINE
  8
0
 10
-53.436745
 20
-86.279266
 11
-68.436745
 21
-86.279266
  0
LINE
  8
0
 10
-68.436745
 20
-72.779266
 11
-68.436745
 21
-86.279266
  0
LINE
  8
0
 10
-53.436745
 20
-72.779266
 11
-53.436745
 21
-86.279266
  0
LINE
  8
0
 10
-47.436745
 20
-72.779266
 11
-69.436745
 21
-72.779266
  0
LINE
  8
0
  6
CENTER
 10
-60.936745
 20
-80.779266
 11
-60.936745
 21
-86.779266
  0
LINE
  8
0
  6
CENTER
 10
-63.936745
 20
-83.779266
 11
-57.936745
 21
-83.779266
  0
LINE
  8
0
 10
-61.686760
 20
-84.212288
 11
-60.936760
 21
-84.645302
  0
LINE
  8
0
 10
-60.936745
 20
-84.645317
 11
-60.186741
 21
-84.212303
  0
LINE
  8
0
 10
-60.186737
 20
-84.212288
 11
-60.186737
 21
-83.346260
  0
LINE
  8
0
 10
-60.186760
 20
-83.346275
 11
-60.936760
 21
-82.913261
  0
LINE
  8
0
 10
-60.936737
 20
-82.913269
 11
-61.686737
 21
-83.346283
  0
LINE
  8
0
 10
-61.686737
 20
-83.346260
 11
-61.686737
 21
-84.212280
  0
LINE
  8
0
 10
-47.436745
 20
-72.779266
 11
-47.436745
 21
-79.779259
  0
LINE
  8
0
 10
-69.436745
 20
-79.779259
 11
-68.436745
 21
-79.779259
  0
LINE
  8
0
 10
-81.436745
 20
-77.979301
 11
-71.436745
 21
-77.979301
  0
LINE
  8
0
 10
-71.436745
 20
-73.779312
 11
-71.436745
 21
-78.779305
  0
LINE
  8
0
 10
-71.436745
 20
-78.779305
 11
-69.436745
 21
-78.779305
  0
LINE
  8
0
 10
-81.436745
 20
-74.579308
 11
-71.436745
 21
-74.579308
  0
LINE
  8
0
 10
-71.436745
 20
-73.779312
 11
-69.436745
 21
-73.779312
  0
LINE
  8
0
 10
-53.436745
 20
-72.779266
 11
-53.436745
 21
-79.779259
  0
LINE
  8
0
 10
-69.436745
 20
-72.779266
 11
-69.436745
 21
-79.779259
  0
LINE
  8
0
  6
CENTER
 10
-84.436745
 20
-76.279259
 11
-44.436745
 21
-76.279259
  0
LINE
  8
0
  6
CENTER
 10
-50.436745
 20
-73.279312
 11
-50.436745
 21
-79.279305
  0
LINE
  8
0
 10
-53.436745
 20
-79.779259
 11
-47.436745
 21
-79.779259
  0
LINE
  8
0
 10
-131.936813
 20
2.220768
 11
-131.936813
 21
-4.579243
  0
LINE
  8
0
 10
-140.936813
 20
0.320755
 11
-141.236816
 21
0.320755
  0
LINE
  8
0
 10
-145.436813
 20
-6.279243
 11
-145.436813
 21
-3.279243
  0
LINE
  8
0
 10
-132.936813
 20
-7.279243
 11
-144.436813
 21
-7.279243
  0
LINE
  8
0
 10
-131.936813
 20
-6.279243
 11
-131.936813
 21
-5.079243
  0
LINE
  8
0
 10
-141.436813
 20
-2.279243
 11
-144.436813
 21
-2.279243
  0
LINE
  8
0
 10
-131.936813
 20
-5.079243
 11
-133.436813
 21
-5.079243
  0
LINE
  8
0
  6
CENTER
 10
-142.936813
 20
-9.279243
 11
-142.936813
 21
0.720757
  0
LINE
  8
0
 10
-141.236816
 20
1.520756
 11
-141.236816
 21
0.320755
  0
LINE
  8
0
 10
-140.136810
 20
-0.479244
 11
-140.136810
 21
-0.979244
  0
LINE
  8
0
 10
-137.436813
 20
-5.079243
 11
-139.436813
 21
-5.079243
  0
LINE
  8
0
 10
-133.936768
 20
-4.579241
 11
-133.436798
 21
-5.079229
  0
LINE
  8
0
 10
-136.936813
 20
-4.579237
 11
-137.436829
 21
-5.079239
  0
LINE
  8
0
 10
-139.436813
 20
-5.079243
 11
-139.436813
 21
-4.079243
  0
LINE
  8
0
 10
-138.936813
 20
-3.579242
 11
-139.436813
 21
-4.079243
  0
LINE
  8
0
 10
-138.936813
 20
-4.579243
 11
-138.936813
 21
2.220753
  0
LINE
  8
0
 10
-131.936813
 20
-4.579243
 11
-138.936813
 21
-4.579243
  0
LINE
  8
0
 10
-138.936783
 20
2.220753
 11
-138.436798
 21
2.720739
  0
LINE
  8
0
 10
-131.936798
 20
2.220768
 11
-132.436798
 21
2.720768
  0
LINE
  8
0
 10
-132.436813
 20
2.720753
 11
-133.436813
 21
2.720753
  0
LINE
  8
0
 10
-137.436813
 20
2.720753
 11
-138.436813
 21
2.720753
  0
LINE
  8
0
  6
CENTER
 10
-135.436813
 20
-6.579243
 11
-135.436813
 21
4.720753
  0
LINE
  8
0
 10
-141.436813
 20
-2.279243
 11
-141.436813
 21
-1.779243
  0
LINE
  8
0
 10
-144.436813
 20
-2.279243
 11
-144.436813
 21
-1.779247
  0
LINE
  8
0
 10
-144.166321
 20
-2.279243
 11
-144.166321
 21
-1.508747
  0
LINE
  8
0
 10
-141.707306
 20
-2.279243
 11
-141.707306
 21
-1.508743
  0
LINE
  8
0
 10
-141.936844
 20
-1.279263
 11
-141.436844
 21
-1.779266
  0
LINE
  8
0
 10
-143.936783
 20
-1.279260
 11
-144.436783
 21
-1.779256
  0
LINE
  8
0
 10
-141.436813
 20
-1.779247
 11
-144.436813
 21
-1.779247
  0
LINE
  8
0
 10
-141.936813
 20
-1.279243
 11
-143.936813
 21
-1.279243
  0
LINE
  8
0
 10
127.812279
 20
-23.779247
 11
127.812279
 21
-30.779240
  0
LINE
  8
0
 10
133.812286
 20
-23.779247
 11
127.812279
 21
-23.779247
  0
LINE
  8
0
 10
133.812286
 20
-23.779247
 11
133.812286
 21
-30.779240
  0
LINE
  8
0
 10
99.812279
 20
-28.979282
 11
109.812279
 21
-28.979282
  0
LINE
  8
0
 10
109.812279
 20
-24.779293
 11
109.812279
 21
-29.779285
  0
LINE
  8
0
 10
109.812279
 20
-29.779285
 11
111.812279
 21
-29.779285
  0
LINE
  8
0
 10
99.812279
 20
-25.579288
 11
109.812279
 21
-25.579288
  0
LINE
  8
0
 10
109.812279
 20
-24.779293
 11
111.812279
 21
-24.779293
  0
LINE
  8
0
 10
127.812279
 20
-20.204254
 11
127.812279
 21
-34.204227
  0
LINE
  8
0
 10
111.812279
 20
-23.779247
 11
111.812279
 21
-30.779240
  0
LINE
  8
0
  6
CENTER
 10
96.812279
 20
-27.279240
 11
136.812286
 21
-27.279240
  0
LINE
  8
0
  6
CENTER
 10
130.812286
 20
-24.279293
 11
130.812286
 21
-30.279285
  0
LINE
  8
0
 10
111.812279
 20
-30.779240
 11
117.812279
 21
-30.779240
  0
LINE
  8
0
 10
117.812279
 20
-20.204254
 11
117.812279
 21
-34.204227
  0
LINE
  8
0
 10
117.812279
 20
-20.204254
 11
127.812279
 21
-20.204254
  0
LINE
  8
0
 10
117.812279
 20
-34.204227
 11
127.812279
 21
-34.204227
  0
LINE
  8
0
 10
117.812279
 20
-22.455898
 11
127.812279
 21
-22.455898
  0
LINE
  8
0
 10
117.812279
 20
-31.952587
 11
127.812279
 21
-31.952587
  0
LINE
  8
0
 10
117.812279
 20
-23.779247
 11
111.812279
 21
-23.779247
  0
LINE
  8
0
 10
127.812279
 20
-30.779240
 11
133.812286
 21
-30.779240
  0
LINE
  8
0
  6
CENTER
 10
122.812279
 20
-24.279240
 11
122.812279
 21
-30.279240
  0
LINE
  8
0
 10
122.062302
 20
-27.712259
 11
122.812302
 21
-28.145273
  0
LINE
  8
0
 10
122.812279
 20
-28.145273
 11
123.562279
 21
-27.712259
  0
LINE
  8
0
 10
123.562286
 20
-27.712254
 11
123.562286
 21
-26.846226
  0
LINE
  8
0
 10
123.562294
 20
-26.846218
 11
122.812294
 21
-26.413204
  0
LINE
  8
0
 10
122.812294
 20
-26.413235
 11
122.062294
 21
-26.846249
  0
LINE
  8
0
 10
122.062279
 20
-26.846241
 11
122.062279
 21
-27.712269
  0
ARC
  8
0
 62
     5
 10
136.517700
 20
-117.522827
 40
1.105942
 50
0.000000
 51
90.000000
  0
ARC
  8
0
 62
     5
 10
145.641785
 20
-123.467316
 40
1.105949
 50
270.000000
 51
0.000000
  0
ARC
  8
0
 62
     5
 10
145.088776
 20
-118.075790
 40
1.658920
 50
0.000000
 51
90.000000
  0
ARC
  8
0
 62
     5
 10
155.180557
 20
-117.522827
 40
1.105942
 50
0.000000
 51
90.000000
  0
ARC
  8
0
 62
     5
 10
155.180557
 20
-118.406387
 40
1.105945
 50
294.999969
 51
0.000000
  0
ARC
  8
0
 62
     5
 10
163.751663
 20
-116.416870
 40
1.658920
 50
291.688385
 51
0.000000
  0
ARC
  8
0
 62
     5
 10
163.198654
 20
-116.041687
 40
0.552973
 50
291.688965
 51
0.000000
  0
ARC
  8
0
 10
-79.626366
 20
-0.079288
 40
2.000000
 50
154.849304
 51
205.150604
  0
ARC
  8
0
 10
-83.247139
 20
-1.779288
 40
1.999999
 50
334.849365
 51
25.150633
  0
ARC
  8
0
 10
-50.436752
 20
-3.512576
 40
2.266666
 50
208.072449
 51
331.927521
  0
ARC
  8
0
 10
8.436816
 20
-3.512574
 40
2.266666
 50
208.072479
 51
331.927490
  0
ARC
  8
0
 10
8.436814
 20
6.470755
 40
4.250000
 50
241.927521
 51
298.072449
  0
ARC
  8
0
 10
13.936816
 20
-0.479241
 40
2.000000
 50
81.373207
 51
179.999969
  0
ARC
  8
0
 10
13.936816
 20
-0.479241
 40
0.799999
 50
90.000000
 51
179.999969
  0
ARC
  8
0
 10
17.436817
 20
-6.279239
 40
1.000000
 50
270.000000
 51
0.000000
  0
ARC
  8
0
 10
17.436817
 20
-3.279239
 40
1.000000
 50
0.000000
 51
90.000000
  0
ARC
  8
0
 10
5.936817
 20
-6.279242
 40
1.000000
 50
179.999969
 51
270.000031
  0
ARC
  8
0
 10
14.436816
 20
-0.979240
 40
1.300000
 50
179.999985
 51
270.000000
  0
CIRCLE
  8
0
 10
-50.436745
 20
-76.279305
 40
2.000000
  0
ARC
  8
0
 10
-83.247131
 20
-77.129311
 40
1.999999
 50
334.849365
 51
25.150625
  0
ARC
  8
0
 10
-79.626358
 20
-75.429314
 40
1.999999
 50
154.849380
 51
205.150620
  0
CIRCLE
  8
0
 10
-60.936745
 20
-83.779266
 40
1.500000
  0
CIRCLE
  8
0
 10
-60.936745
 20
-83.779266
 40
1.229500
  0
CIRCLE
  8
0
 10
-135.436813
 20
-0.929291
 40
2.500004
  0
ARC
  8
0
 10
-135.436813
 20
6.470753
 40
4.250002
 50
241.927536
 51
298.072479
  0
CIRCLE
  8
0
 10
-135.436813
 20
-0.929291
 40
1.700001
  0
ARC
  8
0
 10
-140.936813
 20
-0.479244
 40
0.800003
 50
0.000055
 51
90.000000
  0
ARC
  8
0
 10
-144.436813
 20
-6.279243
 40
1.000000
 50
180.000031
 51
270.000000
  0
ARC
  8
0
 10
-144.436813
 20
-3.279243
 40
1.000000
 50
90.000000
 51
180.000015
  0
ARC
  8
0
 10
-132.936813
 20
-6.279243
 40
1.000000
 50
270.000000
 51
0.000055
  0
ARC
  8
0
 10
-141.436813
 20
-0.979244
 40
1.300000
 50
270.000000
 51
0.000055
  0
ARC
  8
0
 10
-140.936813
 20
-0.479244
 40
2.000000
 50
0.000055
 51
98.627014
  0
CIRCLE
  8
0
 10
122.812279
 20
-27.279240
 40
1.229500
  0
ARC
  8
0
 10
101.622665
 20
-26.429295
 40
2.000001
 50
154.849274
 51
205.150620
  0
CIRCLE
  8
0
 10
122.812279
 20
-27.279240
 40
1.500000
  0
CIRCLE
  8
0
 10
130.812286
 20
-27.279285
 40
2.000000
  0
ARC
  8
0
 10
98.001892
 20
-28.129292
 40
1.999999
 50
334.849365
 51
25.150625
  0
TEXT
  8
0
 10
113.360985
 20
117.310349
 40
4.242641
  1
DATE : OCT ,1991
 50
0.000000
 41
1.052631
 51
0.000000
  7
STANDARD
  0
TEXT
  8
0
 10
-180.264954
 20
116.628723
 40
5.000000
  1
MRG SENSOR SW
 50
0.000000
 41
1.052632
 51
0.000000
  7
STANDARD
  0
TEXT
  8
0
 10
67.191856
 20
67.478195
 40
5.000000
  1
        MRG* 40
 50
0.000000
 41
0.858457
 51
0.000000
  7
STANDARD
  0
TEXT
  8
0
 10
142.166153
 20
94.478195
 40
5.000000
  1
SW : ZG530
 50
0.000000
 41
0.866873
 51
0.000000
  7
STANDARD
  0
TEXT
  8
0
 10
142.231247
 20
58.478195
 40
5.000000
  1
     CS5M
 50
0.000000
 41
0.845556
 51
0.000000
  7
STANDARD
  0
TEXT
  8
0
 10
67.191856
 20
94.478195
 40
5.000000
  1
MODEL : MRG* 20
 50
0.000000
 41
0.858457
 51
0.000000
  7
STANDARD
  0
TEXT
  8
0
 10
67.191856
 20
85.478195
 40
5.000000
  1
        MRG* 25
 50
0.000000
 41
0.858457
 51
0.000000
  7
STANDARD
  0
TEXT
  8
0
 10
142.166153
 20
85.478195
 40
5.000000
  1
     ZG553
 50
0.000000
 41
0.866873
 51
0.000000
  7
STANDARD
  0
TEXT
  8
0
 10
142.231247
 20
76.478195
 40
5.000000
  1
     CS3M
 50
0.000000
 41
0.845556
 51
0.000000
  7
STANDARD
  0
TEXT
  8
0
 10
142.231247
 20
67.478195
 40
5.000000
  1
     CS4M
 50
0.000000
 41
0.845556
 51
0.000000
  7
STANDARD
  0
TEXT
  8
0
 10
-168.401062
 20
94.478195
 40
5.000000
  1
MODEL : MRG*  6
 50
0.000000
 41
1.052632
 51
0.000000
  7
STANDARD
  0
TEXT
  8
0
 10
-168.401062
 20
85.478195
 40
5.000000
  1
        MRG* 10
 50
0.000000
 41
1.052632
 51
0.000000
  7
STANDARD
  0
TEXT
  8
0
 10
-168.401062
 20
76.478195
 40
5.000000
  1
        MRG* 16
 50
0.000000
 41
1.052632
 51
0.000000
  7
STANDARD
  0
TEXT
  8
0
 10
-68.401070
 20
94.478195
 40
5.000000
  1
SW : ZG530
 50
0.000000
 41
1.052632
 51
0.000000
  7
STANDARD
  0
TEXT
  8
0
 10
-68.401070
 20
85.478195
 40
5.000000
  1
     ZG553
 50
0.000000
 41
1.052632
 51
0.000000
  7
STANDARD
  0
TEXT
  8
0
 10
-68.401070
 20
76.478195
 40
5.000000
  1
     CS3M
 50
0.000000
 41
1.052632
 51
0.000000
  7
STANDARD
  0
TEXT
  8
0
 10
-68.401070
 20
67.478195
 40
5.000000
  1
     CS4M
 50
0.000000
 41
1.052632
 51
0.000000
  7
STANDARD
  0
TEXT
  8
0
 10
-68.401070
 20
58.478195
 40
5.000000
  1
     CS5M
 50
0.000000
 41
1.052632
 51
0.000000
  7
STANDARD
  0
TEXT
  8
0
 10
67.191856
 20
76.478195
 40
5.000000
  1
        MRG* 32
 50
0.000000
 41
0.858457
 51
0.000000
  7
STANDARD
  0
ENDSEC
  0
EOF
