  0
SECTION
  2
HEADER
  0
ENDSEC
  0
SECTION
  2
TABLES
  0
TABLE
  2
LTYPE
 70
     4
  0
LTYPE
  2
CONTINUOUS
 70
    64
  3
Solid line
 72
    65
 73
     0
 40
0.000000
  0
LTYPE
  2
DASHED
 70
    64
  3
__ __ __ __ __ __ __ __ __ __ __ __ __ __ __
 72
    65
 73
     2
 40
3.500000
 49
2.000000
 49
-1.500000
  0
LTYPE
  2
CENTER
 70
    64
  3
____ _ ____ _ ____ _ ____ _ ____ _ ____ _ ____
 72
    65
 73
     4
 40
17.500000
 49
13.000000
 49
-1.500000
 49
1.500000
 49
-1.500000
  0
LTYPE
  2
PHANTOM
 70
    64
  3
_____ _ _ _____ _ _ _____ _ _ _____ _ _ ____  
 72
    65
 73
     6
 40
15.500000
 49
8.000000
 49
-1.500000
 49
1.500000
 49
-1.500000
 49
1.500000
 49
-1.500000
  0
LTYPE
  2
DASHED1
 70
    64
  3
__ __ __ __ __ __ __ __ __ __ __ __ __ __ __
 72
    65
 73
     2
 40
1.500000
 49
1.000000
 49
-0.500000
  0
LTYPE
  2
DASHED2
 70
    64
  3
__ __ __ __ __ __ __ __ __ __ __ __ __ __ __
 72
    65
 73
     2
 40
3.500000
 49
2.500000
 49
-1.000000
  0
LTYPE
  2
DASHED3
 70
    64
  3
__ __ __ __ __ __ __ __ __ __ __ __ __ __ __
 72
    65
 73
     2
 40
6.000000
 49
4.000000
 49
-2.000000
  0
LTYPE
  2
DASHED4
 70
    64
  3
__ __ __ __ __ __ __ __ __ __ __ __ __ __ __
 72
    65
 73
     2
 40
12.000000
 49
10.000000
 49
-2.000000
  0
LTYPE
  2
DASHED5
 70
    64
  3
__ __ __ __ __ __ __ __ __ __ __ __ __ __ __
 72
    65
 73
     2
 40
17.000000
 49
15.000000
 49
-2.000000
  0
LTYPE
  2
DASHED6
 70
    64
  3
__ __ __ __ __ __ __ __ __ __ __ __ __ __ __
 72
    65
 73
     2
 40
29.000000
 49
27.000000
 49
-2.000000
  0
LTYPE
  2
PHANTOM1
 70
    64
  3
_____ _ _ _____ _ _ _____ _ _ _____ _ _ ____  
 72
    65
 73
     6
 40
31.000000
 49
25.000000
 49
-1.500000
 49
1.000000
 49
-1.000000
 49
1.000000
 49
-1.500000
  0
LTYPE
  2
PHANTOM2
 70
    64
  3
_____ _ _ _____ _ _ _____ _ _ _____ _ _ ____  
 72
    65
 73
     6
 40
36.000000
 49
27.000000
 49
-1.500000
 49
2.500000
 49
-1.000000
 49
2.500000
 49
-1.500000
  0
LTYPE
  2
PHANTOM3
 70
    64
  3
_____ _ _ _____ _ _ _____ _ _ _____ _ _ ____  
 72
    65
 73
     6
 40
78.000000
 49
64.000000
 49
-2.000000
 49
4.000000
 49
-2.000000
 49
4.000000
 49
-2.000000
  0
LTYPE
  2
CENTER1
 70
    64
  3
____ _ ____ _ ____ _ ____ _ ____ _ ____ _ ____
 72
    65
 73
     4
 40
19.000000
 49
14.000000
 49
-1.000000
 49
3.000000
 49
-1.000000
  0
LTYPE
  2
CENTER2
 70
    64
  3
____ _ ____ _ ____ _ ____ _ ____ _ ____ _ ____
 72
    65
 73
     4
 40
28.500000
 49
25.000000
 49
-1.000000
 49
1.500000
 49
-1.000000
  0
LTYPE
  2
CENTER3
 70
    64
  3
____ _ ____ _ ____ _ ____ _ ____ _ ____ _ ____
 72
    65
 73
     4
 40
31.500000
 49
27.000000
 49
-1.000000
 49
2.500000
 49
-1.000000
  0
LTYPE
  2
CENTER4
 70
    64
  3
____ _ ____ _ ____ _ ____ _ ____ _ ____ _ ____
 72
    65
 73
     4
 40
50.000000
 49
45.000000
 49
-1.000000
 49
3.000000
 49
-1.000000
  0
LTYPE
  2
CENTER5
 70
    64
  3
____ _ ____ _ ____ _ ____ _ ____ _ ____ _ ____
 72
    65
 73
     4
 40
100.000000
 49
92.000000
 49
-2.000000
 49
4.000000
 49
-2.000000
  0
LTYPE
  2
SBK1
 70
    64
  3
______ _ _ _ ______ _ _ _ ______ _ _ _ _____  
 72
    65
 73
     8
 40
60.500000
 49
45.000000
 49
-2.000000
 49
2.500000
 49
-2.000000
 49
2.500000
 49
-2.000000
 49
2.500000
 49
-2.000000
  0
LTYPE
  2
SBK2
 70
    64
  3
______ _ _ _ ______ _ _ _ ______ _ _ _ _____  
 72
    65
 73
     8
 40
84.000000
 49
64.000000
 49
-2.000000
 49
4.000000
 49
-2.000000
 49
4.000000
 49
-2.000000
 49
4.000000
 49
-2.000000
  0
LTYPE
  2
STCH
 70
    64
  3
__ __ __ __ __ __ __ __ __ __ __ __ __ __ __
 72
    65
 73
     2
 40
3.000000
 49
1.000000
 49
-2.000000
  0
LTYPE
  2
MTCH
 70
    64
  3
_____ _ _ _____ _ _ _____ _ _ _____ _ _ ____  
 72
    65
 73
     6
 40
80.000000
 49
66.000000
 49
-2.000000
 49
4.000000
 49
-2.000000
 49
4.000000
 49
-2.000000
  0
ENDTAB
  0
TABLE
  2
LAYER
 70
     1
  0
LAYER
  2
0
 70
     0
 62
     7
  6
CONTINUOUS
  0
ENDTAB
  0
TABLE
  2
STYLE
 70
     1
  0
STYLE
  2
STANDARD
 70
     0
 40
0.000000
 41
1.000000
 50
0.000000
 71
     0
 42
0.200000
  3
txt
  4
BIGFONT
  0
ENDTAB
  0
TABLE
  2
VIEW
 70
     0
  0
ENDTAB
  0
ENDSEC
  0
SECTION
  2
BLOCKS
  0
ENDSEC
  0
SECTION
  2
ENTITIES
  0
POINT
  8
0
 10
-140.436813
 20
-15.000006
  0
POINT
  8
0
 10
-60.436790
 20
77.000000
  0
POINT
  8
0
 10
-60.436775
 20
-14.999992
  0
POINT
  8
0
 10
-60.436810
 20
-107.000038
  0
POINT
  8
0
 10
115.436783
 20
-15.000010
  0
POINT
  8
0
 10
57.563225
 20
-14.999992
  0
POINT
  8
0
 10
57.563210
 20
77.000000
  0
POINT
  8
0
 10
142.436783
 20
-15.000010
  0
POINT
  8
0
 10
57.563190
 20
-107.000038
  0
POINT
  8
0
 10
-113.436813
 20
-15.000006
  0
LINE
  8
0
 62
     3
 10
-185.436783
 20
-127.279236
 11
-185.436783
 21
127.279236
  0
LINE
  8
0
 62
     3
 10
185.436783
 20
127.279236
 11
185.436783
 21
-127.279236
  0
LINE
  8
0
 62
     3
 10
-185.436783
 20
-127.279236
 11
185.436783
 21
-127.279236
  0
LINE
  8
0
 62
     3
 10
-185.436783
 20
127.279236
 11
185.436783
 21
127.279236
  0
LINE
  8
0
 62
     3
 10
-185.436783
 20
112.978195
 11
-109.164589
 21
112.978195
  0
LINE
  8
0
 62
     3
 10
-109.164589
 20
112.978195
 11
-109.164589
 21
127.279236
  0
LINE
  8
0
 62
     3
 10
109.164581
 20
-112.978210
 11
185.436783
 21
-112.978210
  0
LINE
  8
0
 62
     5
 10
129.190811
 20
-116.416870
 11
136.517700
 21
-116.416870
  0
LINE
  8
0
 62
     5
 10
129.190811
 20
-122.914322
 11
135.411774
 21
-122.914322
  0
LINE
  8
0
 62
     5
 10
129.190811
 20
-124.573227
 11
137.623672
 21
-124.573227
  0
LINE
  8
0
 62
     5
 10
129.190811
 20
-118.075790
 11
135.411774
 21
-118.075790
  0
LINE
  8
0
 62
     5
 10
129.190811
 20
-116.416870
 11
129.190811
 21
-118.075790
  0
LINE
  8
0
 62
     5
 10
137.623672
 20
-117.522827
 11
137.623672
 21
-124.573227
  0
LINE
  8
0
 62
     5
 10
135.411774
 20
-118.075790
 11
135.411774
 21
-122.914322
  0
LINE
  8
0
 62
     5
 10
138.867828
 20
-116.416870
 11
138.867828
 21
-118.075790
  0
LINE
  8
0
 62
     5
 10
146.747696
 20
-118.075790
 11
146.747696
 21
-123.467316
  0
LINE
  8
0
 62
     5
 10
144.535812
 20
-118.075790
 11
144.535812
 21
-122.914322
  0
LINE
  8
0
 62
     5
 10
129.190811
 20
-122.914322
 11
129.190811
 21
-124.573227
  0
LINE
  8
0
 62
     5
 10
138.867828
 20
-116.416870
 11
141.053345
 21
-116.416870
  0
LINE
  8
0
 62
     5
 10
138.867828
 20
-124.573227
 11
140.585297
 21
-124.573227
  0
LINE
  8
0
 62
     5
 10
138.867752
 20
-124.573166
 11
140.608795
 21
-118.075737
  0
LINE
  8
0
 62
     5
 10
138.867828
 20
-118.075790
 11
140.608841
 21
-118.075790
  0
LINE
  8
0
 62
     5
 10
140.585434
 20
-124.573364
 11
142.326385
 21
-118.075928
  0
LINE
  8
0
 62
     5
 10
142.876877
 20
-122.914322
 11
144.535812
 21
-122.914322
  0
LINE
  8
0
 62
     5
 10
142.876907
 20
-122.914337
 11
143.321396
 21
-124.573227
  0
LINE
  8
0
 62
     5
 10
143.321426
 20
-124.573227
 11
145.641785
 21
-124.573227
  0
LINE
  8
0
 62
     5
 10
142.326279
 20
-118.075790
 11
144.535812
 21
-118.075790
  0
LINE
  8
0
 62
     5
 10
142.770782
 20
-116.416870
 11
145.088776
 21
-116.416870
  0
LINE
  8
0
 62
     5
 10
141.053421
 20
-116.416908
 11
141.383072
 21
-115.186577
  0
LINE
  8
0
 62
     5
 10
142.770691
 20
-116.416794
 11
143.100342
 21
-115.186401
  0
LINE
  8
0
 62
     5
 10
148.130142
 20
-116.416870
 11
150.756775
 21
-116.416870
  0
LINE
  8
0
 62
     5
 10
148.130142
 20
-118.075790
 11
154.581039
 21
-118.075790
  0
LINE
  8
0
 62
     5
 10
150.756775
 20
-124.573227
 11
152.968643
 21
-124.573227
  0
LINE
  8
0
 62
     5
 10
148.130142
 20
-116.416870
 11
148.130142
 21
-118.075790
  0
LINE
  8
0
 62
     5
 10
156.286499
 20
-121.083908
 11
156.286499
 21
-122.914322
  0
LINE
  8
0
 62
     5
 10
148.130035
 20
-122.914253
 11
150.756714
 21
-121.689400
  0
LINE
  8
0
 62
     5
 10
148.130325
 20
-121.084061
 11
154.581238
 21
-118.075935
  0
LINE
  8
0
 62
     5
 10
148.130142
 20
-121.083908
 11
148.130142
 21
-122.914322
  0
LINE
  8
0
 62
     5
 10
152.968597
 20
-121.367157
 11
156.286514
 21
-122.914276
  0
LINE
  8
0
 62
     5
 10
154.171204
 20
-120.097549
 11
156.286728
 21
-121.084045
  0
LINE
  8
0
 62
     5
 10
156.286499
 20
-117.522827
 11
156.286499
 21
-118.406387
  0
LINE
  8
0
 62
     5
 10
150.756775
 20
-115.186523
 11
150.756775
 21
-116.416870
  0
LINE
  8
0
 62
     5
 10
152.968643
 20
-115.186523
 11
152.968643
 21
-116.416870
  0
LINE
  8
0
 62
     5
 10
152.968643
 20
-116.416870
 11
155.180557
 21
-116.416870
  0
LINE
  8
0
 62
     5
 10
150.756775
 20
-121.689514
 11
150.756775
 21
-124.573227
  0
LINE
  8
0
 62
     5
 10
152.968643
 20
-121.367203
 11
152.968643
 21
-124.573227
  0
LINE
  8
0
 62
     5
 10
154.171204
 20
-120.097557
 11
155.648163
 21
-119.408852
  0
LINE
  8
0
 62
     5
 10
163.751663
 20
-115.684204
 11
165.410553
 21
-115.684204
  0
LINE
  8
0
 62
     5
 10
156.977722
 20
-119.110947
 11
156.977722
 21
-120.896240
  0
LINE
  8
0
 62
     5
 10
165.410553
 20
-115.684204
 11
165.410553
 21
-116.416870
  0
LINE
  8
0
 62
     5
 10
163.751663
 20
-115.684204
 11
163.751663
 21
-116.041687
  0
LINE
  8
0
 62
     5
 10
161.539749
 20
-119.081879
 11
161.539749
 21
-124.573227
  0
LINE
  8
0
 62
     5
 10
156.977844
 20
-119.111031
 11
163.403137
 21
-116.555603
  0
LINE
  8
0
 62
     5
 10
156.977783
 20
-120.896362
 11
161.539810
 21
-119.081955
  0
LINE
  8
0
 62
     5
 10
161.539749
 20
-124.573227
 11
163.751663
 21
-124.573227
  0
LINE
  8
0
 62
     5
 10
163.751663
 20
-118.202194
 11
163.751663
 21
-124.573227
  0
LINE
  8
0
 62
     5
 10
163.751831
 20
-118.202301
 11
164.364929
 21
-117.958435
  0
LINE
  8
0
 62
     5
 10
141.383057
 20
-115.186523
 11
143.100449
 21
-115.186523
  0
LINE
  8
0
 62
     5
 10
145.849136
 20
-115.186523
 11
146.554138
 21
-115.186523
  0
LINE
  8
0
 62
     5
 10
150.756775
 20
-115.186523
 11
152.968643
 21
-115.186523
  0
LINE
  8
0
 62
     5
 10
145.849136
 20
-116.292480
 11
146.554138
 21
-116.292480
  0
LINE
  8
0
 62
     5
 10
145.849136
 20
-115.186523
 11
145.849136
 21
-116.292480
  0
LINE
  8
0
 62
     5
 10
146.554138
 20
-115.186523
 11
146.554138
 21
-116.292480
  0
LINE
  8
0
 62
     5
 10
146.968918
 20
-115.186523
 11
146.968918
 21
-116.292480
  0
LINE
  8
0
 62
     5
 10
147.756912
 20
-115.186523
 11
147.756912
 21
-116.292480
  0
LINE
  8
0
 62
     5
 10
146.968918
 20
-115.186523
 11
147.756912
 21
-115.186523
  0
LINE
  8
0
 62
     5
 10
146.968918
 20
-116.292480
 11
147.756912
 21
-116.292480
  0
LINE
  8
0
 62
     3
 10
109.164581
 20
112.978195
 11
185.436783
 21
112.978195
  0
LINE
  8
0
 62
     3
 10
109.164581
 20
127.279236
 11
109.164581
 21
112.978195
  0
LINE
  8
0
 62
     3
 10
109.164581
 20
-112.978210
 11
109.164581
 21
-127.279236
  0
LINE
  8
0
  6
CENTER
 10
-66.436775
 20
-25.999992
 11
-57.436775
 21
-25.999992
  0
LINE
  8
0
 10
-60.436775
 20
-39.999992
 11
-60.436775
 21
10.000008
  0
LINE
  8
0
 10
-60.436775
 20
10.000008
 11
-47.436775
 21
10.000008
  0
LINE
  8
0
 10
-47.436775
 20
-39.999992
 11
-47.436775
 21
10.000008
  0
LINE
  8
0
  6
CENTER
 10
-56.436775
 20
-22.999992
 11
-46.436775
 21
-22.999992
  0
LINE
  8
0
  6
CENTER
 10
-51.436775
 20
-17.999992
 11
-51.436775
 21
-27.999992
  0
LINE
  8
0
  6
CENTER
 10
-51.436775
 20
-11.999992
 11
-51.436775
 21
-1.999992
  0
LINE
  8
0
  6
CENTER
 10
-56.436775
 20
-6.999992
 11
-46.436775
 21
-6.999992
  0
LINE
  8
0
 10
57.563225
 20
-39.999992
 11
57.563225
 21
10.000008
  0
LINE
  8
0
 10
57.563225
 20
-39.999992
 11
-60.436775
 21
-39.999992
  0
LINE
  8
0
 10
57.563225
 20
10.000008
 11
44.563225
 21
10.000008
  0
LINE
  8
0
 10
44.563225
 20
-39.999992
 11
44.563225
 21
10.000008
  0
LINE
  8
0
  6
CENTER
 10
53.563225
 20
-22.999992
 11
43.563225
 21
-22.999992
  0
LINE
  8
0
  6
CENTER
 10
48.563225
 20
-17.999992
 11
48.563225
 21
-27.999992
  0
LINE
  8
0
  6
CENTER
 10
48.563225
 20
-11.999992
 11
48.563225
 21
-1.999992
  0
LINE
  8
0
  6
CENTER
 10
53.563225
 20
-6.999992
 11
43.563225
 21
-6.999992
  0
LINE
  8
0
  6
CENTER
 10
64.563225
 20
2.000008
 11
41.563225
 21
2.000008
  0
LINE
  8
0
 10
61.563225
 20
-1.458992
 11
61.563225
 21
5.459007
  0
LINE
  8
0
 10
61.022224
 20
6.000008
 11
57.563225
 21
6.000008
  0
LINE
  8
0
 10
61.022224
 20
-1.999992
 11
57.563225
 21
-1.999992
  0
LINE
  8
0
 10
61.563225
 20
-1.458992
 11
57.563225
 21
-1.458992
  0
LINE
  8
0
 10
61.563225
 20
5.459007
 11
57.563225
 21
5.459007
  0
LINE
  8
0
 10
61.563217
 20
5.458993
 11
61.022209
 21
6.000001
  0
LINE
  8
0
 10
61.563229
 20
-1.458989
 11
61.022236
 21
-1.999986
  0
LINE
  8
0
 10
61.022224
 20
6.000008
 11
61.022224
 21
-1.999992
  0
LINE
  8
0
 10
-63.436775
 20
-29.999985
 11
-63.436775
 21
-26.599993
  0
LINE
  8
0
 10
-63.079506
 20
-21.381189
 11
-60.436775
 21
-21.381189
  0
LINE
  8
0
 10
-63.079506
 20
-23.690592
 11
-60.436775
 21
-23.690592
  0
LINE
  8
0
 10
-63.079506
 20
-28.309410
 11
-60.436775
 21
-28.309410
  0
LINE
  8
0
 10
-63.436771
 20
-21.999992
 11
-63.079502
 21
-21.381191
  0
LINE
  8
0
 10
-63.079506
 20
-28.309395
 11
-60.436775
 21
-28.309395
  0
LINE
  8
0
 10
-63.436710
 20
-29.999960
 11
-63.079433
 21
-30.618761
  0
LINE
  8
0
 10
-63.079506
 20
-30.618797
 11
-60.436775
 21
-30.618797
  0
LINE
  8
0
 10
-63.436775
 20
-25.399992
 11
-61.436775
 21
-25.399992
  0
LINE
  8
0
 10
-63.436775
 20
-26.599993
 11
-61.436775
 21
-26.599993
  0
LINE
  8
0
 10
-61.436775
 20
-26.599993
 11
-61.436775
 21
-25.399992
  0
LINE
  8
0
 10
-63.436775
 20
-25.399992
 11
-63.436775
 21
-22.000000
  0
LINE
  8
0
  6
CENTER
 10
-66.436775
 20
-14.999992
 11
60.563225
 21
-14.999992
  0
LINE
  8
0
 10
-63.436775
 20
-18.999985
 11
-63.436775
 21
-15.599993
  0
LINE
  8
0
 10
-63.079506
 20
-10.381189
 11
-60.436775
 21
-10.381189
  0
LINE
  8
0
 10
-63.079506
 20
-12.690592
 11
-60.436775
 21
-12.690592
  0
LINE
  8
0
 10
-63.079506
 20
-17.309410
 11
-60.436775
 21
-17.309410
  0
LINE
  8
0
 10
-63.436775
 20
-10.999998
 11
-63.079506
 21
-10.381194
  0
LINE
  8
0
 10
-63.079506
 20
-17.309393
 11
-60.436775
 21
-17.309393
  0
LINE
  8
0
 10
-63.436729
 20
-18.999969
 11
-63.079456
 21
-19.618769
  0
LINE
  8
0
 10
-63.079506
 20
-19.618795
 11
-60.436775
 21
-19.618795
  0
LINE
  8
0
 10
-63.436775
 20
-14.399992
 11
-61.436775
 21
-14.399992
  0
LINE
  8
0
 10
-63.436775
 20
-15.599993
 11
-61.436775
 21
-15.599993
  0
LINE
  8
0
 10
-61.436775
 20
-15.599993
 11
-61.436775
 21
-14.399992
  0
LINE
  8
0
 10
-63.436775
 20
-14.399992
 11
-63.436775
 21
-10.999998
  0
LINE
  8
0
 10
50.313225
 20
-36.499992
 11
50.313225
 21
-39.999992
  0
LINE
  8
0
 10
56.813225
 20
-36.499992
 11
56.813225
 21
-39.999992
  0
LINE
  8
0
  6
CENTER
 10
-26.436775
 20
-41.999992
 11
-26.436775
 21
12.000008
  0
LINE
  8
0
 10
-46.436775
 20
-38.999992
 11
-46.436775
 21
9.000008
  0
LINE
  8
0
 10
-6.436775
 20
-38.999992
 11
-6.436775
 21
9.000008
  0
LINE
  8
0
 10
-46.436775
 20
9.000008
 11
-6.436775
 21
9.000008
  0
LINE
  8
0
 10
-46.436775
 20
-38.999992
 11
-6.436775
 21
-38.999992
  0
LINE
  8
0
  6
CENTER
 10
-39.936775
 20
-24.999992
 11
-32.936775
 21
-24.999992
  0
LINE
  8
0
  6
CENTER
 10
-36.436775
 20
-21.499992
 11
-36.436775
 21
-28.499992
  0
LINE
  8
0
  6
CENTER
 10
-36.436775
 20
-8.499992
 11
-36.436775
 21
-1.499992
  0
LINE
  8
0
  6
CENTER
 10
-39.936775
 20
-4.999992
 11
-32.936775
 21
-4.999992
  0
LINE
  8
0
  6
CENTER
 10
-16.436775
 20
-21.499992
 11
-16.436775
 21
-28.499992
  0
LINE
  8
0
  6
CENTER
 10
-12.936775
 20
-24.999992
 11
-19.936775
 21
-24.999992
  0
LINE
  8
0
  6
CENTER
 10
-16.436775
 20
-8.499992
 11
-16.436775
 21
-1.499992
  0
LINE
  8
0
  6
CENTER
 10
-12.936775
 20
-4.999992
 11
-19.936775
 21
-4.999992
  0
LINE
  8
0
  6
CENTER
 10
-29.936775
 20
-24.999992
 11
-22.936775
 21
-24.999992
  0
LINE
  8
0
  6
CENTER
 10
-29.936775
 20
-4.999992
 11
-22.936775
 21
-4.999992
  0
LINE
  8
0
 10
-28.436775
 20
-5.999992
 11
-28.436775
 21
-3.999992
  0
LINE
  8
0
 10
-24.436775
 20
-5.999992
 11
-24.436775
 21
-3.999992
  0
LINE
  8
0
  6
CENTER
 10
-9.436775
 20
-30.999992
 11
60.563225
 21
-30.999992
  0
LINE
  8
0
  6
CENTER
 10
-9.436775
 20
1.000008
 11
60.563225
 21
1.000008
  0
LINE
  8
0
 10
-47.436775
 20
-33.999992
 11
-46.436775
 21
-33.999992
  0
LINE
  8
0
 10
-47.436775
 20
-27.999992
 11
-46.436775
 21
-27.999992
  0
LINE
  8
0
 10
-47.436775
 20
4.000008
 11
-46.436775
 21
4.000008
  0
LINE
  8
0
 10
-6.436775
 20
-27.999992
 11
44.563225
 21
-27.999992
  0
LINE
  8
0
 10
-6.436775
 20
-33.999992
 11
44.563225
 21
-33.999992
  0
LINE
  8
0
 10
-6.436775
 20
-1.999992
 11
44.563225
 21
-1.999992
  0
LINE
  8
0
 10
-6.436775
 20
4.000008
 11
44.563225
 21
4.000008
  0
LINE
  8
0
 10
-47.436775
 20
-18.399992
 11
-46.436775
 21
-18.399992
  0
LINE
  8
0
 10
-47.436775
 20
-11.599993
 11
-46.436775
 21
-11.599993
  0
LINE
  8
0
 10
-6.436775
 20
-11.599993
 11
44.563225
 21
-11.599993
  0
LINE
  8
0
 10
-6.436775
 20
-18.399992
 11
44.563225
 21
-18.399992
  0
LINE
  8
0
 10
-3.236778
 20
-2.458992
 11
-3.236778
 21
-1.999992
  0
LINE
  8
0
 10
-47.436775
 20
7.000008
 11
-46.436775
 21
7.000008
  0
LINE
  8
0
 10
-47.436775
 20
-4.999992
 11
-46.436775
 21
-4.999992
  0
LINE
  8
0
 10
-47.436775
 20
-1.999992
 11
-46.436775
 21
-1.999992
  0
LINE
  8
0
 10
-3.636776
 20
-5.499992
 11
-3.636776
 21
-1.999992
  0
LINE
  8
0
 10
-6.436775
 20
7.500008
 11
-3.636776
 21
7.500008
  0
LINE
  8
0
 10
-6.436775
 20
-5.499992
 11
-3.636776
 21
-5.499992
  0
LINE
  8
0
 10
-3.236772
 20
4.459009
 11
-3.636769
 21
4.859006
  0
LINE
  8
0
 10
-3.236783
 20
-2.458989
 11
-3.636781
 21
-2.858987
  0
LINE
  8
0
 10
-3.636776
 20
4.000008
 11
-3.636776
 21
7.500008
  0
LINE
  8
0
 10
-3.236778
 20
4.000008
 11
-3.236778
 21
4.459007
  0
LINE
  8
0
 10
-64.436775
 20
5.459002
 11
-63.895775
 21
6.000004
  0
LINE
  8
0
 10
-64.436775
 20
5.459007
 11
-60.436775
 21
5.459007
  0
LINE
  8
0
 10
-63.895775
 20
6.000008
 11
-60.436775
 21
6.000008
  0
LINE
  8
0
 10
-64.436775
 20
-1.458992
 11
-64.436775
 21
5.459007
  0
LINE
  8
0
 10
-64.436768
 20
-1.458990
 11
-63.895771
 21
-1.999986
  0
LINE
  8
0
 10
-63.895775
 20
6.000008
 11
-63.895775
 21
-1.999992
  0
LINE
  8
0
 10
-64.436775
 20
-1.458992
 11
-60.436775
 21
-1.458992
  0
LINE
  8
0
 10
-63.895775
 20
-1.999992
 11
-60.436775
 21
-1.999992
  0
LINE
  8
0
  6
CENTER
 10
-67.436775
 20
2.000008
 11
-44.436775
 21
2.000008
  0
LINE
  8
0
  6
CENTER
 10
48.563225
 20
-36.499992
 11
58.563225
 21
-36.499992
  0
LINE
  8
0
  6
CENTER
 10
53.563225
 20
-31.499992
 11
53.563225
 21
-41.499992
  0
LINE
  8
0
 10
52.313221
 20
-37.221676
 11
53.563225
 21
-37.943367
  0
LINE
  8
0
 10
53.563232
 20
-37.943386
 11
54.813229
 21
-37.221699
  0
LINE
  8
0
 10
54.813225
 20
-37.221680
 11
54.813225
 21
-35.778305
  0
LINE
  8
0
 10
54.813229
 20
-35.778313
 11
53.563229
 21
-35.056625
  0
LINE
  8
0
 10
53.563240
 20
-35.056637
 11
52.313240
 21
-35.778324
  0
LINE
  8
0
 10
52.313225
 20
-35.778297
 11
52.313225
 21
-37.221672
  0
LINE
  8
0
 10
44.563225
 20
-26.499992
 11
-6.436775
 21
-26.499992
  0
LINE
  8
0
 10
-46.436775
 20
-26.499992
 11
-47.462212
 21
-26.499992
  0
LINE
  8
0
 10
-46.436775
 20
-18.999992
 11
-6.436775
 21
-18.999992
  0
LINE
  8
0
 10
-46.436775
 20
-10.999992
 11
-6.436775
 21
-10.999992
  0
LINE
  8
0
  6
CENTER
 10
-60.436790
 20
72.500000
 11
-50.436790
 21
72.500000
  0
LINE
  8
0
  6
CENTER
 10
-55.436790
 20
77.500000
 11
-55.436790
 21
67.500000
  0
LINE
  8
0
 10
-56.686798
 20
71.778320
 11
-55.436798
 21
71.056633
  0
LINE
  8
0
 10
-55.436787
 20
71.056625
 11
-54.186787
 21
71.778313
  0
LINE
  8
0
 10
-54.186790
 20
71.778313
 11
-54.186790
 21
73.221687
  0
LINE
  8
0
 10
-54.186794
 20
73.221695
 11
-55.436794
 21
73.943382
  0
LINE
  8
0
 10
-55.436790
 20
73.943390
 11
-56.686790
 21
73.221703
  0
LINE
  8
0
 10
-56.686790
 20
73.221695
 11
-56.686790
 21
71.778320
  0
LINE
  8
0
  6
CENTER
 10
-67.436790
 20
67.000000
 11
5.763206
 21
67.000000
  0
LINE
  8
0
 10
-64.436790
 20
70.459000
 11
-64.436790
 21
63.541000
  0
LINE
  8
0
 10
-63.895790
 20
63.000000
 11
-60.436790
 21
63.000000
  0
LINE
  8
0
 10
-63.895790
 20
71.000000
 11
-60.436790
 21
71.000000
  0
LINE
  8
0
 10
-64.436790
 20
70.459000
 11
-60.436790
 21
70.459000
  0
LINE
  8
0
 10
-64.436790
 20
63.541000
 11
-60.436790
 21
63.541000
  0
LINE
  8
0
 10
-64.436790
 20
63.541000
 11
-63.895790
 21
63.000000
  0
LINE
  8
0
 10
-64.436783
 20
70.459007
 11
-63.895786
 21
71.000000
  0
LINE
  8
0
 10
-63.895790
 20
63.000000
 11
-63.895790
 21
71.000000
  0
LINE
  8
0
  6
CENTER
 10
-63.436790
 20
55.000000
 11
60.563210
 21
55.000000
  0
LINE
  8
0
 10
-60.436790
 20
77.000000
 11
-47.436790
 21
77.000000
  0
LINE
  8
0
 10
-60.436790
 20
51.000000
 11
-60.436790
 21
77.000000
  0
LINE
  8
0
 10
-47.436790
 20
51.000000
 11
-47.436790
 21
77.000000
  0
LINE
  8
0
 10
-60.436790
 20
51.000000
 11
-47.436790
 21
51.000000
  0
LINE
  8
0
  6
CENTER
 10
-65.436790
 20
62.500000
 11
-58.436790
 21
62.500000
  0
LINE
  8
0
 10
-63.436790
 20
58.500000
 11
-60.436790
 21
58.500000
  0
LINE
  8
0
 10
-63.436790
 20
58.500000
 11
-63.436790
 21
63.000000
  0
LINE
  8
0
 10
-63.436790
 20
71.000000
 11
-63.436790
 21
75.000000
  0
LINE
  8
0
 10
-63.436790
 20
75.000000
 11
-60.436790
 21
75.000000
  0
LINE
  8
0
  6
CENTER
 10
-65.436790
 20
71.000000
 11
-58.436790
 21
71.000000
  0
LINE
  8
0
 10
-63.079521
 20
62.500000
 11
-60.436790
 21
62.500000
  0
LINE
  8
0
 10
61.563210
 20
70.459000
 11
61.563210
 21
63.541000
  0
LINE
  8
0
 10
61.022209
 20
63.000000
 11
57.563210
 21
63.000000
  0
LINE
  8
0
 10
61.022209
 20
71.000000
 11
57.563210
 21
71.000000
  0
LINE
  8
0
 10
61.563210
 20
70.459000
 11
57.563210
 21
70.459000
  0
LINE
  8
0
 10
61.563210
 20
63.541000
 11
57.563210
 21
63.541000
  0
LINE
  8
0
 10
61.563198
 20
63.540989
 11
61.022198
 21
62.999989
  0
LINE
  8
0
 10
61.563202
 20
70.458992
 11
61.022205
 21
70.999992
  0
LINE
  8
0
 10
61.022209
 20
63.000000
 11
61.022209
 21
71.000000
  0
LINE
  8
0
 10
57.563210
 20
51.000000
 11
44.563210
 21
51.000000
  0
LINE
  8
0
 10
57.563210
 20
51.000000
 11
57.563210
 21
77.000000
  0
LINE
  8
0
 10
44.563210
 20
51.000000
 11
44.563210
 21
77.000000
  0
LINE
  8
0
 10
57.563210
 20
77.000000
 11
44.563210
 21
77.000000
  0
LINE
  8
0
  6
CENTER
 10
64.563210
 20
67.000000
 11
41.563210
 21
67.000000
  0
LINE
  8
0
 10
-47.436790
 20
76.000000
 11
44.563210
 21
76.000000
  0
LINE
  8
0
 10
-46.436790
 20
50.000000
 11
-6.436790
 21
50.000000
  0
LINE
  8
0
 10
-46.436790
 20
50.000000
 11
-46.436790
 21
75.000000
  0
LINE
  8
0
 10
-6.436790
 20
50.000000
 11
-6.436790
 21
75.000000
  0
LINE
  8
0
 10
-47.436790
 20
58.000000
 11
-46.436790
 21
58.000000
  0
LINE
  8
0
 10
-47.436790
 20
52.000000
 11
-46.436790
 21
52.000000
  0
LINE
  8
0
 10
-6.436790
 20
52.000000
 11
44.563210
 21
52.000000
  0
LINE
  8
0
 10
-6.436790
 20
58.000000
 11
44.563210
 21
58.000000
  0
LINE
  8
0
 10
-60.436790
 20
76.000000
 11
-47.436790
 21
76.000000
  0
LINE
  8
0
 10
-60.436790
 20
69.500000
 11
-47.436790
 21
69.500000
  0
LINE
  8
0
 10
-60.436790
 20
66.000000
 11
-47.436790
 21
66.000000
  0
LINE
  8
0
  6
CENTER
 10
57.563210
 20
72.500000
 11
47.563210
 21
72.500000
  0
LINE
  8
0
  6
CENTER
 10
52.563210
 20
77.500000
 11
52.563210
 21
67.500000
  0
LINE
  8
0
 10
53.813206
 20
71.778313
 11
52.563206
 21
71.056625
  0
LINE
  8
0
 10
52.563194
 20
71.056602
 11
51.313194
 21
71.778290
  0
LINE
  8
0
 10
51.313210
 20
71.778313
 11
51.313210
 21
73.221687
  0
LINE
  8
0
 10
51.313210
 20
73.221680
 11
52.563210
 21
73.943367
  0
LINE
  8
0
 10
52.563198
 20
73.943336
 11
53.813198
 21
73.221657
  0
LINE
  8
0
 10
53.813210
 20
73.221695
 11
53.813210
 21
71.778320
  0
LINE
  8
0
 10
57.563210
 20
66.000000
 11
44.563210
 21
66.000000
  0
LINE
  8
0
 10
57.563210
 20
76.000000
 11
44.563210
 21
76.000000
  0
LINE
  8
0
 10
57.563210
 20
69.500000
 11
44.563210
 21
69.500000
  0
LINE
  8
0
 10
-46.436790
 20
75.000000
 11
-6.436790
 21
75.000000
  0
LINE
  8
0
 10
-46.436790
 20
51.000000
 11
-6.436790
 21
51.000000
  0
LINE
  8
0
 10
-46.436790
 20
70.000000
 11
-6.436790
 21
70.000000
  0
LINE
  8
0
  6
CENTER
 10
60.563210
 20
62.500000
 11
-63.436790
 21
62.500000
  0
LINE
  8
0
 10
44.563210
 20
59.099998
 11
-6.436790
 21
59.099998
  0
LINE
  8
0
 10
44.563210
 20
65.900002
 11
2.763206
 21
65.900002
  0
LINE
  8
0
 10
-46.436790
 20
59.099998
 11
-47.436790
 21
59.099998
  0
LINE
  8
0
 10
-3.236794
 20
63.541000
 11
-3.236794
 21
70.459000
  0
LINE
  8
0
 10
2.763206
 20
65.500000
 11
2.763206
 21
68.500000
  0
LINE
  8
0
 10
-3.236794
 20
65.500000
 11
2.763206
 21
65.500000
  0
LINE
  8
0
 10
-3.236794
 20
68.500000
 11
2.763206
 21
68.500000
  0
LINE
  8
0
 10
-3.636791
 20
60.500000
 11
-3.636791
 21
73.500000
  0
LINE
  8
0
 10
-3.236797
 20
63.541016
 11
-3.636795
 21
63.141018
  0
LINE
  8
0
 10
-3.236789
 20
70.459015
 11
-3.636786
 21
70.859016
  0
LINE
  8
0
 10
-5.857452
 20
70.750664
 11
-4.216125
 21
70.750664
  0
LINE
  8
0
 10
-5.857452
 20
63.247227
 11
-4.216129
 21
63.247227
  0
LINE
  8
0
 10
-5.857452
 20
74.503441
 11
-4.216125
 21
74.503441
  0
LINE
  8
0
 10
-3.636793
 20
73.499992
 11
-4.216131
 21
74.503433
  0
LINE
  8
0
 10
-3.636791
 20
60.500011
 11
-4.216130
 21
59.496567
  0
LINE
  8
0
 10
-5.857452
 20
59.496559
 11
-4.216125
 21
59.496559
  0
LINE
  8
0
 10
-6.436789
 20
60.500019
 11
-5.857451
 21
59.496574
  0
LINE
  8
0
 10
-6.436797
 20
73.500000
 11
-5.857457
 21
74.503448
  0
LINE
  8
0
 10
-47.436790
 20
74.503441
 11
-46.436790
 21
74.503441
  0
LINE
  8
0
 10
-47.436790
 20
59.496559
 11
-46.436790
 21
59.496559
  0
LINE
  8
0
  6
CENTER
 10
145.436783
 20
-15.000010
 11
112.436783
 21
-15.000010
  0
LINE
  8
0
 10
142.436783
 20
-40.000008
 11
142.436783
 21
1.499990
  0
LINE
  8
0
 10
115.436783
 20
-38.000008
 11
115.436783
 21
-19.000010
  0
LINE
  8
0
 10
142.436783
 20
-40.000008
 11
121.936783
 21
-40.000008
  0
LINE
  8
0
 10
131.436783
 20
9.999990
 11
116.436783
 21
9.999990
  0
LINE
  8
0
 10
116.436783
 20
-40.000008
 11
116.436783
 21
9.999990
  0
LINE
  8
0
 10
115.436783
 20
7.999996
 11
116.436768
 21
8.999991
  0
LINE
  8
0
 10
115.436790
 20
-38.000019
 11
116.436775
 21
-39.000015
  0
LINE
  8
0
 10
115.436783
 20
-11.000010
 11
115.436783
 21
7.999990
  0
LINE
  8
0
 10
115.936783
 20
-18.500008
 11
115.936783
 21
-11.500011
  0
LINE
  8
0
 10
115.436775
 20
-11.000002
 11
115.936768
 21
-11.500004
  0
LINE
  8
0
 10
115.436775
 20
-19.000019
 11
115.936775
 21
-18.500017
  0
LINE
  8
0
  6
CENTER
 10
120.436783
 20
6.499990
 11
120.436783
 21
-4.500010
  0
LINE
  8
0
  6
CENTER
 10
125.936783
 20
0.999990
 11
114.936783
 21
0.999990
  0
LINE
  8
0
 10
121.936821
 20
0.133951
 11
120.436821
 21
-0.732072
  0
LINE
  8
0
 10
120.436798
 20
-0.732047
 11
118.936798
 21
0.133980
  0
LINE
  8
0
 10
118.936768
 20
0.133970
 11
118.936768
 21
1.866018
  0
LINE
  8
0
 10
118.936813
 20
1.866025
 11
120.436806
 21
2.732048
  0
LINE
  8
0
 10
120.436821
 20
2.732073
 11
121.936821
 21
1.866050
  0
LINE
  8
0
 10
121.936783
 20
1.866026
 11
121.936783
 21
0.133978
  0
LINE
  8
0
  6
CENTER
 10
132.436783
 20
7.999990
 11
132.436783
 21
-4.000010
  0
LINE
  8
0
  6
CENTER
 10
145.436783
 20
1.999990
 11
126.436783
 21
1.999990
  0
LINE
  8
0
 10
134.436768
 20
0.845298
 11
132.436768
 21
-0.309394
  0
LINE
  8
0
 10
132.436798
 20
-0.309399
 11
130.436798
 21
0.845300
  0
LINE
  8
0
 10
130.436783
 20
0.845297
 11
130.436783
 21
3.154699
  0
LINE
  8
0
 10
130.436798
 20
3.154704
 11
132.436798
 21
4.309405
  0
LINE
  8
0
 10
132.436798
 20
4.309371
 11
134.436798
 21
3.154671
  0
LINE
  8
0
 10
134.436768
 20
3.154684
 11
134.436768
 21
0.845282
  0
LINE
  8
0
 10
141.436783
 20
2.499990
 11
141.436783
 21
6.499990
  0
LINE
  8
0
 10
142.436783
 20
1.499990
 11
136.405411
 21
1.499990
  0
LINE
  8
0
 10
141.436783
 20
2.499990
 11
136.405411
 21
2.499990
  0
LINE
  8
0
 10
141.436783
 20
6.499990
 11
134.936783
 21
6.499990
  0
LINE
  8
0
  6
CENTER
 10
137.936783
 20
-1.500010
 11
137.936783
 21
12.499990
  0
LINE
  8
0
 10
140.686783
 20
6.499990
 11
140.686783
 21
9.499990
  0
LINE
  8
0
 10
135.186783
 20
6.499990
 11
135.186783
 21
9.499990
  0
LINE
  8
0
 10
140.686783
 20
9.499990
 11
135.186783
 21
9.499990
  0
LINE
  8
0
 10
134.936768
 20
6.499987
 11
131.436768
 21
9.999985
  0
LINE
  8
0
 10
139.436783
 20
1.499990
 11
139.436783
 21
2.499990
  0
LINE
  8
0
 10
136.707275
 20
1.499990
 11
136.707275
 21
2.499990
  0
LINE
  8
0
 10
139.166290
 20
1.499990
 11
139.166290
 21
2.499990
  0
LINE
  8
0
 10
136.436783
 20
1.499990
 11
136.436783
 21
2.499990
  0
LINE
  8
0
  6
CENTER
 10
120.436783
 20
-27.500010
 11
120.436783
 21
-34.500008
  0
LINE
  8
0
  6
CENTER
 10
116.936783
 20
-31.000010
 11
123.936783
 21
-31.000010
  0
LINE
  8
0
 10
118.500290
 20
-31.500010
 11
122.373276
 21
-31.500010
  0
LINE
  8
0
 10
118.500290
 20
-30.500010
 11
122.373276
 21
-30.500010
  0
LINE
  8
0
 10
121.436783
 20
-32.732056
 11
121.436783
 21
-40.000008
  0
LINE
  8
0
 10
121.436783
 20
-40.000008
 11
116.436783
 21
-40.000008
  0
LINE
  8
0
 10
121.936783
 20
-32.322884
 11
121.936783
 21
-40.000008
  0
LINE
  8
0
  6
CENTER
 10
124.936783
 20
-36.500008
 11
112.436783
 21
-36.500008
  0
LINE
  8
0
 10
121.936783
 20
-35.000008
 11
121.436783
 21
-35.000008
  0
LINE
  8
0
 10
121.936783
 20
-38.000008
 11
121.436783
 21
-38.000008
  0
LINE
  8
0
 10
121.936783
 20
-35.270508
 11
121.436783
 21
-35.270508
  0
LINE
  8
0
 10
121.936783
 20
-37.729507
 11
121.436783
 21
-37.729507
  0
LINE
  8
0
  6
CENTER
 10
46.563190
 20
-101.000031
 11
58.563190
 21
-101.000031
  0
LINE
  8
0
 10
48.563187
 20
-103.309425
 11
52.563190
 21
-105.618828
  0
LINE
  8
0
 10
52.563190
 20
-105.618851
 11
56.563194
 21
-103.309448
  0
LINE
  8
0
 10
56.563206
 20
-103.309456
 11
56.563206
 21
-98.690651
  0
LINE
  8
0
 10
56.563210
 20
-98.690659
 11
52.563206
 21
-96.381256
  0
LINE
  8
0
 10
52.563210
 20
-96.381226
 11
48.563206
 21
-98.690628
  0
LINE
  8
0
 10
48.563190
 20
-98.690620
 11
48.563190
 21
-103.309425
  0
LINE
  8
0
 10
48.563190
 20
-100.400040
 11
56.563206
 21
-100.400040
  0
LINE
  8
0
 10
48.563190
 20
-101.600037
 11
56.563206
 21
-101.600037
  0
LINE
  8
0
  6
CENTER
 10
-67.436813
 20
-97.000038
 11
-44.436810
 21
-97.000038
  0
LINE
  8
0
 10
-64.436813
 20
-100.459038
 11
-64.436813
 21
-93.541039
  0
LINE
  8
0
 10
-63.895809
 20
-93.000038
 11
-63.436810
 21
-93.000038
  0
LINE
  8
0
 10
-63.895809
 20
-101.000038
 11
-63.436810
 21
-101.000038
  0
LINE
  8
0
 10
-64.436813
 20
-100.459038
 11
-63.436810
 21
-100.459038
  0
LINE
  8
0
 10
-64.436813
 20
-93.541039
 11
-63.436810
 21
-93.541039
  0
LINE
  8
0
 10
-64.436806
 20
-93.541039
 11
-63.895805
 21
-93.000038
  0
LINE
  8
0
 10
-64.436798
 20
-100.459038
 11
-63.895805
 21
-101.000038
  0
LINE
  8
0
 10
-63.895809
 20
-93.000038
 11
-63.895809
 21
-101.000038
  0
LINE
  8
0
  6
CENTER
 10
-63.436810
 20
-85.000038
 11
60.563190
 21
-85.000038
  0
LINE
  8
0
 10
-60.436810
 20
-107.000038
 11
-47.436810
 21
-107.000038
  0
LINE
  8
0
 10
-60.436810
 20
-81.000038
 11
-60.436810
 21
-107.000038
  0
LINE
  8
0
 10
-47.436810
 20
-81.000038
 11
-47.436810
 21
-107.000038
  0
LINE
  8
0
 10
-60.436810
 20
-81.000038
 11
-47.436810
 21
-81.000038
  0
LINE
  8
0
  6
CENTER
 10
-59.436810
 20
-90.500038
 11
-51.436810
 21
-90.500038
  0
LINE
  8
0
  6
CENTER
 10
-55.436810
 20
-86.500038
 11
-55.436810
 21
-94.500038
  0
LINE
  8
0
  6
CENTER
 10
-55.436810
 20
-97.000038
 11
-55.436810
 21
-105.000038
  0
LINE
  8
0
  6
CENTER
 10
-65.436813
 20
-92.500038
 11
-58.436810
 21
-92.500038
  0
LINE
  8
0
 10
-63.079540
 20
-101.000038
 11
-60.436810
 21
-101.000038
  0
LINE
  8
0
 10
-63.436810
 20
-96.500038
 11
-60.436810
 21
-96.500038
  0
LINE
  8
0
 10
-63.436810
 20
-88.500038
 11
-60.436810
 21
-88.500038
  0
LINE
  8
0
 10
-63.436810
 20
-88.500038
 11
-63.436810
 21
-96.500038
  0
LINE
  8
0
 10
-63.436810
 20
-97.000038
 11
-60.436810
 21
-97.000038
  0
LINE
  8
0
 10
-63.436810
 20
-97.000038
 11
-63.436810
 21
-105.000038
  0
LINE
  8
0
 10
-63.436810
 20
-105.000038
 11
-60.436810
 21
-105.000038
  0
LINE
  8
0
  6
CENTER
 10
-65.436813
 20
-101.000038
 11
-51.436810
 21
-101.000038
  0
LINE
  8
0
 10
-63.079540
 20
-92.500038
 11
-60.436810
 21
-92.500038
  0
LINE
  8
0
 10
61.563190
 20
-100.459038
 11
61.563190
 21
-93.541039
  0
LINE
  8
0
 10
61.022190
 20
-93.000038
 11
57.563190
 21
-93.000038
  0
LINE
  8
0
 10
61.022190
 20
-101.000038
 11
57.563190
 21
-101.000038
  0
LINE
  8
0
 10
61.563190
 20
-100.459038
 11
57.563190
 21
-100.459038
  0
LINE
  8
0
 10
61.563190
 20
-93.541039
 11
57.563190
 21
-93.541039
  0
LINE
  8
0
 10
61.563187
 20
-93.541031
 11
61.022186
 21
-93.000031
  0
LINE
  8
0
 10
61.563175
 20
-100.459038
 11
61.022182
 21
-101.000031
  0
LINE
  8
0
 10
61.022190
 20
-93.000038
 11
61.022190
 21
-101.000038
  0
LINE
  8
0
 10
57.563190
 20
-81.000038
 11
44.563190
 21
-81.000038
  0
LINE
  8
0
 10
57.563190
 20
-81.000038
 11
57.563190
 21
-107.000038
  0
LINE
  8
0
 10
44.563190
 20
-81.000038
 11
44.563190
 21
-107.000038
  0
LINE
  8
0
 10
57.563190
 20
-107.000038
 11
44.563190
 21
-107.000038
  0
LINE
  8
0
  6
CENTER
 10
64.563187
 20
-97.000038
 11
41.563190
 21
-97.000038
  0
LINE
  8
0
  6
CENTER
 10
52.563190
 20
-95.000038
 11
52.563190
 21
-107.000038
  0
LINE
  8
0
  6
CENTER
 10
53.563190
 20
-78.000038
 11
53.563190
 21
-88.500038
  0
LINE
  8
0
 10
57.563190
 20
-86.000038
 11
44.563190
 21
-86.000038
  0
LINE
  8
0
 10
57.563190
 20
-86.500038
 11
44.563190
 21
-86.500038
  0
LINE
  8
0
 10
50.313190
 20
-84.000038
 11
56.813190
 21
-84.000038
  0
LINE
  8
0
 10
50.313190
 20
-81.000038
 11
50.313190
 21
-84.000038
  0
LINE
  8
0
 10
56.813190
 20
-81.000038
 11
56.813190
 21
-84.000038
  0
LINE
  8
0
 10
50.813190
 20
-81.000038
 11
50.813190
 21
-84.000038
  0
LINE
  8
0
 10
56.313190
 20
-81.000038
 11
56.313190
 21
-84.000038
  0
LINE
  8
0
 10
55.063190
 20
-86.000038
 11
55.063190
 21
-86.500038
  0
LINE
  8
0
 10
52.063190
 20
-86.000038
 11
52.063190
 21
-86.500038
  0
LINE
  8
0
 10
52.333691
 20
-86.000038
 11
52.333691
 21
-86.500038
  0
LINE
  8
0
 10
54.792690
 20
-86.000038
 11
54.792690
 21
-86.500038
  0
LINE
  8
0
 10
-47.436810
 20
-106.000038
 11
44.563190
 21
-106.000038
  0
LINE
  8
0
 10
-47.436810
 20
-88.700035
 11
44.563190
 21
-88.700035
  0
LINE
  8
0
 10
-46.436810
 20
-80.000038
 11
-6.436810
 21
-80.000038
  0
LINE
  8
0
 10
-46.436810
 20
-80.000038
 11
-46.436810
 21
-88.700035
  0
LINE
  8
0
 10
-6.436810
 20
-80.000038
 11
-6.436810
 21
-88.700035
  0
LINE
  8
0
 10
-46.436810
 20
-87.000038
 11
-6.436810
 21
-87.000038
  0
LINE
  8
0
 10
-46.436810
 20
-81.000038
 11
-6.436810
 21
-81.000038
  0
LINE
  8
0
 10
-47.436810
 20
-88.000038
 11
-46.436810
 21
-88.000038
  0
LINE
  8
0
 10
-47.436810
 20
-82.000038
 11
-46.436810
 21
-82.000038
  0
LINE
  8
0
 10
-6.436810
 20
-82.000038
 11
44.563190
 21
-82.000038
  0
LINE
  8
0
 10
-6.436810
 20
-88.000038
 11
44.563190
 21
-88.000038
  0
LINE
  8
0
 10
-47.436810
 20
-91.500038
 11
44.563190
 21
-91.500038
  0
LINE
  8
0
 10
-47.436810
 20
-99.700035
 11
44.563190
 21
-99.700035
  0
LINE
  8
0
  6
CENTER
 10
-143.436813
 20
-15.000006
 11
-110.436813
 21
-15.000006
  0
LINE
  8
0
 10
-140.436813
 20
-40.000008
 11
-140.436813
 21
1.499994
  0
LINE
  8
0
 10
-113.436813
 20
-38.000008
 11
-113.436813
 21
-19.000006
  0
LINE
  8
0
 10
-140.436813
 20
-40.000008
 11
-114.436813
 21
-40.000008
  0
LINE
  8
0
 10
-129.436813
 20
9.999994
 11
-114.436813
 21
9.999994
  0
LINE
  8
0
 10
-114.436813
 20
-40.000008
 11
-114.436813
 21
9.999994
  0
LINE
  8
0
 10
-113.436798
 20
8.000003
 11
-114.436798
 21
8.999999
  0
LINE
  8
0
 10
-113.436806
 20
-38.000011
 11
-114.436798
 21
-39.000008
  0
LINE
  8
0
 10
-113.436813
 20
-11.000006
 11
-113.436813
 21
7.999994
  0
LINE
  8
0
 10
-113.936813
 20
-18.500004
 11
-113.936813
 21
-11.500008
  0
LINE
  8
0
 10
-113.436813
 20
-10.999990
 11
-113.936813
 21
-11.499992
  0
LINE
  8
0
 10
-113.436844
 20
-19.000017
 11
-113.936844
 21
-18.500013
  0
LINE
  8
0
  6
CENTER
 10
-118.436813
 20
6.499994
 11
-118.436813
 21
-4.500006
  0
LINE
  8
0
  6
CENTER
 10
-123.936813
 20
0.999994
 11
-112.936813
 21
0.999994
  0
LINE
  8
0
 10
-119.936821
 20
0.133965
 11
-118.436821
 21
-0.732059
  0
LINE
  8
0
 10
-118.436821
 20
-0.732045
 11
-116.936821
 21
0.133979
  0
LINE
  8
0
 10
-116.936798
 20
0.133974
 11
-116.936798
 21
1.866022
  0
LINE
  8
0
 10
-116.936813
 20
1.866030
 11
-118.436813
 21
2.732055
  0
LINE
  8
0
 10
-118.436836
 20
2.732071
 11
-119.936844
 21
1.866044
  0
LINE
  8
0
 10
-119.936813
 20
1.866030
 11
-119.936813
 21
0.133982
  0
LINE
  8
0
  6
CENTER
 10
-118.436813
 20
-36.500008
 11
-118.436813
 21
-25.500006
  0
LINE
  8
0
 10
-119.936844
 20
-30.133980
 11
-118.436844
 21
-29.267954
  0
LINE
  8
0
 10
-119.936813
 20
-31.866041
 11
-119.936813
 21
-30.133993
  0
LINE
  8
0
 10
-118.436844
 20
-32.732105
 11
-119.936844
 21
-31.866083
  0
LINE
  8
0
 10
-116.936852
 20
-31.866049
 11
-118.436844
 21
-32.732067
  0
LINE
  8
0
 10
-116.936798
 20
-30.133986
 11
-116.936798
 21
-31.866034
  0
LINE
  8
0
 10
-118.436844
 20
-29.267973
 11
-116.936844
 21
-30.133999
  0
LINE
  8
0
  6
CENTER
 10
-123.936813
 20
-31.000006
 11
-112.936813
 21
-31.000006
  0
LINE
  8
0
 10
-134.436829
 20
-21.381178
 11
-138.436844
 21
-23.690578
  0
LINE
  8
0
 10
-138.436813
 20
-23.690588
 11
-138.436813
 21
-28.309393
  0
LINE
  8
0
 10
-130.436798
 20
-23.690605
 11
-134.436798
 21
-21.381203
  0
LINE
  8
0
 10
-130.436798
 20
-28.309423
 11
-130.436798
 21
-23.690619
  0
LINE
  8
0
 10
-138.436813
 20
-25.400005
 11
-130.436798
 21
-25.400005
  0
LINE
  8
0
  6
CENTER
 10
-134.436813
 20
-20.000006
 11
-134.436813
 21
-32.000008
  0
LINE
  8
0
  6
CENTER
 10
-140.436813
 20
-26.000006
 11
-128.436813
 21
-26.000006
  0
LINE
  8
0
 10
-138.436813
 20
-26.600006
 11
-130.436798
 21
-26.600006
  0
LINE
  8
0
 10
-134.436844
 20
-30.618811
 11
-130.436844
 21
-28.309408
  0
LINE
  8
0
 10
-138.436829
 20
-28.309402
 11
-134.436829
 21
-30.618805
  0
LINE
  8
0
  6
CENTER
 10
-130.436813
 20
7.999994
 11
-130.436813
 21
-4.000006
  0
LINE
  8
0
  6
CENTER
 10
-143.436813
 20
1.999994
 11
-124.436813
 21
1.999994
  0
LINE
  8
0
 10
-132.436798
 20
0.845290
 11
-130.436798
 21
-0.309404
  0
LINE
  8
0
 10
-130.436829
 20
-0.309401
 11
-128.436813
 21
0.845300
  0
LINE
  8
0
 10
-128.436813
 20
0.845301
 11
-128.436813
 21
3.154703
  0
LINE
  8
0
 10
-128.436844
 20
3.154693
 11
-130.436844
 21
4.309394
  0
LINE
  8
0
 10
-130.436844
 20
4.309412
 11
-132.436844
 21
3.154710
  0
LINE
  8
0
 10
-132.436798
 20
3.154688
 11
-132.436798
 21
0.845285
  0
LINE
  8
0
 10
-139.436813
 20
2.499994
 11
-139.436813
 21
6.499994
  0
LINE
  8
0
 10
-140.436813
 20
1.499994
 11
-134.405441
 21
1.499994
  0
LINE
  8
0
 10
-139.436813
 20
2.499994
 11
-134.405441
 21
2.499994
  0
LINE
  8
0
 10
-139.436813
 20
6.499994
 11
-132.936813
 21
6.499994
  0
LINE
  8
0
  6
CENTER
 10
-135.936813
 20
-1.500006
 11
-135.936813
 21
12.499994
  0
LINE
  8
0
 10
-138.686813
 20
6.499994
 11
-138.686813
 21
9.499994
  0
LINE
  8
0
 10
-133.186813
 20
6.499994
 11
-133.186813
 21
9.499994
  0
LINE
  8
0
 10
-138.686813
 20
9.499994
 11
-133.186813
 21
9.499994
  0
LINE
  8
0
 10
-132.936813
 20
6.499996
 11
-129.436813
 21
9.999994
  0
LINE
  8
0
 10
-137.436813
 20
1.499994
 11
-137.436813
 21
2.499994
  0
LINE
  8
0
 10
-134.707306
 20
1.499994
 11
-134.707306
 21
2.499994
  0
LINE
  8
0
 10
-137.166321
 20
1.499994
 11
-137.166321
 21
2.499994
  0
LINE
  8
0
 10
-134.436813
 20
1.499994
 11
-134.436813
 21
2.499994
  0
LINE
  8
0
 10
-121.936806
 20
-12.690614
 11
-125.936806
 21
-10.381211
  0
LINE
  8
0
 10
-121.936798
 20
-17.309423
 11
-121.936798
 21
-12.690619
  0
LINE
  8
0
 10
-125.936821
 20
-19.618801
 11
-121.936821
 21
-17.309399
  0
LINE
  8
0
  6
CENTER
 10
-125.936813
 20
-9.000006
 11
-125.936813
 21
-21.000006
  0
LINE
  8
0
 10
-129.936829
 20
-17.309402
 11
-125.936829
 21
-19.618805
  0
LINE
  8
0
 10
-129.936813
 20
-12.690588
 11
-129.936813
 21
-17.309393
  0
LINE
  8
0
 10
-125.936813
 20
-10.381165
 11
-129.936813
 21
-12.690566
  0
LINE
  8
0
 10
-129.936813
 20
-15.600006
 11
-121.936798
 21
-15.600006
  0
LINE
  8
0
 10
-129.936813
 20
-14.400005
 11
-121.936798
 21
-14.400005
  0
LINE
  8
0
 10
-56.686756
 20
-88.334885
 11
-69.581833
 21
-65.999962
  0
LINE
  8
0
 10
-56.686756
 20
-88.334885
 11
-57.463215
 21
-85.437103
  0
LINE
  8
0
 10
-56.686752
 20
-88.334885
 11
-58.808075
 21
-86.213562
  0
LINE
  8
0
 10
-99.581833
 20
-65.999962
 11
-69.581833
 21
-65.999962
  0
LINE
  8
0
 10
-15.436783
 20
-3.267949
 11
0.306377
 21
24.000000
  0
LINE
  8
0
 10
-15.436783
 20
-3.267949
 11
-14.660325
 21
-0.370171
  0
LINE
  8
0
 10
-15.436784
 20
-3.267949
 11
-13.315463
 21
-1.146628
  0
LINE
  8
0
 10
0.306377
 20
24.000000
 11
30.306377
 21
24.000000
  0
ARC
  8
0
 62
     5
 10
136.517700
 20
-117.522827
 40
1.105942
 50
0.000000
 51
90.000000
  0
ARC
  8
0
 62
     5
 10
145.641785
 20
-123.467316
 40
1.105949
 50
270.000000
 51
0.000000
  0
ARC
  8
0
 62
     5
 10
145.088776
 20
-118.075790
 40
1.658920
 50
0.000000
 51
90.000000
  0
ARC
  8
0
 62
     5
 10
155.180557
 20
-117.522827
 40
1.105942
 50
0.000000
 51
90.000000
  0
ARC
  8
0
 62
     5
 10
155.180557
 20
-118.406387
 40
1.105945
 50
294.999969
 51
0.000000
  0
ARC
  8
0
 62
     5
 10
163.751663
 20
-116.416870
 40
1.658920
 50
291.688385
 51
0.000000
  0
ARC
  8
0
 62
     5
 10
163.198654
 20
-116.041687
 40
0.552973
 50
291.688965
 51
0.000000
  0
ARC
  8
0
 10
-26.436775
 20
-3.999992
 40
2.000000
 50
0.000000
 51
179.999969
  0
CIRCLE
  8
0
 10
53.563225
 20
-36.499992
 40
2.750000
  0
ARC
  8
0
 10
-26.436775
 20
-5.999992
 40
2.000000
 50
179.999985
 51
0.000000
  0
CIRCLE
  8
0
 10
-51.436775
 20
-22.999992
 40
1.700000
  0
CIRCLE
  8
0
 10
-51.436775
 20
-22.999992
 40
3.250000
  0
CIRCLE
  8
0
 10
-51.436775
 20
-6.999992
 40
3.250000
  0
CIRCLE
  8
0
 10
-51.436775
 20
-6.999992
 40
1.700000
  0
CIRCLE
  8
0
 10
48.563225
 20
-6.999992
 40
1.700000
  0
CIRCLE
  8
0
 10
48.563225
 20
-22.999992
 40
1.700000
  0
CIRCLE
  8
0
 10
48.563225
 20
-22.999992
 40
3.250000
  0
CIRCLE
  8
0
 10
48.563225
 20
-6.999992
 40
3.250000
  0
ARC
  8
0
 10
-61.392136
 20
-22.535891
 40
2.044643
 50
180.000000
 51
214.384598
  0
ARC
  8
0
 10
-55.794067
 20
-26.000000
 40
7.642711
 50
162.411942
 51
175.497253
  0
ARC
  8
0
 10
-61.392136
 20
-29.464096
 40
2.044641
 50
145.615341
 51
179.999939
  0
ARC
  8
0
 10
-55.794067
 20
-26.000000
 40
7.642709
 50
184.502625
 51
197.588058
  0
ARC
  8
0
 10
-61.392136
 20
-11.535891
 40
2.044643
 50
179.999969
 51
214.384583
  0
ARC
  8
0
 10
-55.794067
 20
-15.000002
 40
7.642711
 50
162.411957
 51
175.497238
  0
ARC
  8
0
 10
-61.392136
 20
-18.464094
 40
2.044641
 50
145.615341
 51
179.999939
  0
ARC
  8
0
 10
-55.794067
 20
-15.000002
 40
7.642709
 50
184.502609
 51
197.588058
  0
ARC
  8
0
 10
53.563225
 20
-36.499992
 40
3.250000
 50
0.000000
 51
179.999939
  0
CIRCLE
  8
0
 10
-36.436775
 20
-24.999992
 40
2.000000
  0
CIRCLE
  8
0
 10
-36.436775
 20
-24.999992
 40
1.621000
  0
CIRCLE
  8
0
 10
-36.436775
 20
-4.999992
 40
1.621000
  0
CIRCLE
  8
0
 10
-36.436775
 20
-4.999992
 40
2.000000
  0
CIRCLE
  8
0
 10
-16.436775
 20
-24.999992
 40
1.621000
  0
CIRCLE
  8
0
 10
-16.436775
 20
-24.999992
 40
2.000000
  0
CIRCLE
  8
0
 10
-16.436775
 20
-4.999992
 40
1.621000
  0
CIRCLE
  8
0
 10
-16.436775
 20
-4.999992
 40
2.000000
  0
CIRCLE
  8
0
 10
-26.436775
 20
-24.999992
 40
2.000000
  0
ARC
  8
0
 10
6.000725
 20
66.998947
 40
12.437519
 50
162.443558
 51
197.556473
  0
ARC
  8
0
 10
-3.108444
 20
61.372948
 40
3.328347
 50
145.683868
 51
180.000061
  0
ARC
  8
0
 10
-3.108444
 20
72.627052
 40
3.328348
 50
180.000000
 51
214.316223
  0
CIRCLE
  8
0
 10
-55.436790
 20
72.500000
 40
2.750000
  0
ARC
  8
0
 10
-57.660141
 20
60.500000
 40
5.776651
 50
159.743591
 51
200.256271
  0
ARC
  8
0
 10
-57.660141
 20
64.500000
 40
5.776653
 50
195.050201
 51
200.256363
  0
ARC
  8
0
 10
-57.660141
 20
73.000000
 40
5.776653
 50
159.743637
 51
200.256363
  0
CIRCLE
  8
0
 10
52.563210
 20
72.500000
 40
2.750000
  0
ARC
  8
0
 10
-6.965141
 20
72.627052
 40
3.328348
 50
325.683777
 51
0.000000
  0
ARC
  8
0
 10
-16.074310
 20
66.998947
 40
12.437518
 50
342.443542
 51
17.556440
  0
ARC
  8
0
 10
-6.965141
 20
61.372948
 40
3.328348
 50
359.999939
 51
34.316139
  0
CIRCLE
  8
0
 10
132.436783
 20
1.999990
 40
3.459000
  0
CIRCLE
  8
0
 10
132.436783
 20
1.999990
 40
4.000000
  0
CIRCLE
  8
0
 10
120.436783
 20
-31.000010
 40
2.000000
  0
CIRCLE
  8
0
 10
120.436783
 20
0.999990
 40
3.500000
  0
CIRCLE
  8
0
 10
52.563190
 20
-101.000038
 40
5.000000
  0
ARC
  8
0
 10
52.563190
 20
-101.000038
 40
3.999998
 50
8.626908
 51
171.373093
  0
ARC
  8
0
 10
52.563190
 20
-101.000038
 40
3.999998
 50
188.626907
 51
351.373077
  0
CIRCLE
  8
0
 10
-55.436810
 20
-90.500038
 40
2.500000
  0
CIRCLE
  8
0
 10
-55.436810
 20
-90.500038
 40
2.067000
  0
CIRCLE
  8
0
 10
-55.436810
 20
-101.000038
 40
2.500000
  0
CIRCLE
  8
0
 10
-55.436810
 20
-101.000038
 40
2.067000
  0
ARC
  8
0
 10
-57.660160
 20
-90.500038
 40
5.776653
 50
159.743637
 51
200.256363
  0
ARC
  8
0
 10
-57.660160
 20
-94.500038
 40
5.776652
 50
159.743561
 51
200.256271
  0
ARC
  8
0
 10
-57.660160
 20
-99.000038
 40
5.776653
 50
159.743637
 51
200.256363
  0
ARC
  8
0
 10
-57.660160
 20
-103.000038
 40
5.776652
 50
159.743561
 51
200.256271
  0
ARC
  8
0
 10
-125.936813
 20
-15.000006
 40
3.999998
 50
188.626923
 51
351.373077
  0
CIRCLE
  8
0
 10
-118.436813
 20
0.999994
 40
3.500000
  0
CIRCLE
  8
0
 10
-118.436813
 20
-31.000006
 40
3.500000
  0
ARC
  8
0
 10
-134.436813
 20
-26.000006
 40
3.999999
 50
8.626935
 51
171.373062
  0
ARC
  8
0
 10
-134.436813
 20
-26.000006
 40
3.999999
 50
188.626938
 51
351.373077
  0
CIRCLE
  8
0
 10
-130.436813
 20
1.999994
 40
4.000000
  0
CIRCLE
  8
0
 10
-130.436813
 20
1.999994
 40
3.459000
  0
ARC
  8
0
 10
-125.936813
 20
-15.000006
 40
3.999999
 50
8.626935
 51
171.373077
  0
TEXT
  8
0
 10
113.360985
 20
117.310349
 40
4.242641
  1
DATE : OCT ,1991
 50
0.000000
 41
1.052631
 51
0.000000
  7
STANDARD
  0
TEXT
  8
0
 10
-183.323395
 20
116.628723
 40
5.000000
  1
RODLESS CYLINDER
 50
0.000000
 41
0.937799
 51
0.000000
  7
STANDARD
  0
TEXT
  8
0
 10
-168.401062
 20
99.478195
 40
5.000000
  1
MODEL : MRG* 6xSt-K(50)
 50
0.000000
 41
1.052632
 51
0.000000
  7
STANDARD
  0
TEXT
  8
0
 10
48.527477
 20
-95.800041
 40
2.000000
  1
B
 50
0.000000
 41
1.052632
 51
0.000000
  7
STANDARD
  0
TEXT
  8
0
 10
-53.472523
 20
-88.300041
 40
2.000000
  1
A
 50
0.000000
 41
1.052632
 51
0.000000
  7
STANDARD
  0
TEXT
  8
0
 10
-53.472523
 20
-98.800041
 40
2.000000
  1
B
 50
0.000000
 41
1.052632
 51
0.000000
  7
STANDARD
  0
TEXT
  8
0
 10
-122.736816
 20
-8.964293
 40
2.000000
  1
A
 50
-90.000000
 41
1.052632
 51
0.000000
  7
STANDARD
  0
TEXT
  8
0
 10
-131.236816
 20
-19.964293
 40
2.000000
  1
B
 50
-90.000000
 41
1.052632
 51
0.000000
  7
STANDARD
  0
TEXT
  8
0
 10
-98.881836
 20
-65.649971
 40
3.500000
  1
5-M5x0.8
 50
0.000000
 41
1.052632
 51
0.000000
  7
STANDARD
  0
TEXT
  8
0
 10
0.806380
 20
24.349998
 40
3.500000
  1
4-M4x0.7
 50
0.000000
 41
1.052632
 51
0.000000
  7
STANDARD
  0
ENDSEC
  0
EOF
